  0
SECTION
  2
HEADER
  9
$ACADVER
  1
AC1014
  9
$ACADMAINTVER
 70
     9
  9
$DWGCODEPAGE
  3
ANSI_932
  9
$INSBASE
 10
0.0
 20
0.0
 30
0.0
  9
$EXTMIN
 10
47.02604532291206
 20
47.87439806969075
 30
0.0
  9
$EXTMAX
 10
495.6709575586607
 20
354.9495414979972
 30
0.0
  9
$LIMMIN
 10
-23.21011987109386
 20
-38.89929022016485
  9
$LIMMAX
 10
674.4326645480287
 20
449.0444475321696
  9
$ORTHOMODE
 70
     1
  9
$REGENMODE
 70
     1
  9
$FILLMODE
 70
     1
  9
$QTEXTMODE
 70
     0
  9
$MIRRTEXT
 70
     0
  9
$DRAGMODE
 70
     2
  9
$LTSCALE
 40
2.0
  9
$OSMODE
 70
    37
  9
$ATTMODE
 70
     1
  9
$TEXTSIZE
 40
2.0
  9
$TRACEWID
 40
1.0
  9
$TEXTSTYLE
  7
STANDARD
  9
$CLAYER
  8
0
  9
$CELTYPE
  6
BYLAYER
  9
$CECOLOR
 62
   256
  9
$CELTSCALE
 40
1.0
  9
$DELOBJ
 70
     1
  9
$DISPSILH
 70
     0
  9
$DIMSCALE
 40
2.0
  9
$DIMASZ
 40
1.8
  9
$DIMEXO
 40
0.625
  9
$DIMDLI
 40
3.75
  9
$DIMRND
 40
0.0
  9
$DIMDLE
 40
0.0
  9
$DIMEXE
 40
0.8
  9
$DIMTP
 40
0.0
  9
$DIMTM
 40
0.0
  9
$DIMTXT
 40
1.8
  9
$DIMCEN
 40
2.5
  9
$DIMTSZ
 40
0.0
  9
$DIMTOL
 70
     0
  9
$DIMLIM
 70
     0
  9
$DIMTIH
 70
     0
  9
$DIMTOH
 70
     0
  9
$DIMSE1
 70
     0
  9
$DIMSE2
 70
     0
  9
$DIMTAD
 70
     1
  9
$DIMZIN
 70
     8
  9
$DIMBLK
  1

  9
$DIMASO
 70
     1
  9
$DIMSHO
 70
     1
  9
$DIMPOST
  1

  9
$DIMAPOST
  1

  9
$DIMALT
 70
     0
  9
$DIMALTD
 70
     4
  9
$DIMALTF
 40
0.0394
  9
$DIMLFAC
 40
1.0
  9
$DIMTOFL
 70
     1
  9
$DIMTVP
 40
0.0
  9
$DIMTIX
 70
     0
  9
$DIMSOXD
 70
     0
  9
$DIMSAH
 70
     0
  9
$DIMBLK1
  1

  9
$DIMBLK2
  1

  9
$DIMSTYLE
  2
STANDARD
  9
$DIMCLRD
 70
     0
  9
$DIMCLRE
 70
     0
  9
$DIMCLRT
 70
     0
  9
$DIMTFAC
 40
1.0
  9
$DIMGAP
 40
0.75
  9
$DIMJUST
 70
     0
  9
$DIMSD1
 70
     0
  9
$DIMSD2
 70
     0
  9
$DIMTOLJ
 70
     1
  9
$DIMTZIN
 70
     0
  9
$DIMALTZ
 70
     0
  9
$DIMALTTZ
 70
     0
  9
$DIMFIT
 70
     3
  9
$DIMUPT
 70
     0
  9
$DIMUNIT
 70
     8
  9
$DIMDEC
 70
     2
  9
$DIMTDEC
 70
     2
  9
$DIMALTU
 70
     8
  9
$DIMALTTD
 70
     4
  9
$DIMTXSTY
  7
STANDARD
  9
$DIMAUNIT
 70
     0
  9
$LUNITS
 70
     2
  9
$LUPREC
 70
     3
  9
$SKETCHINC
 40
1.0
  9
$FILLETRAD
 40
10.0
  9
$AUNITS
 70
     0
  9
$AUPREC
 70
     2
  9
$MENU
  1
.
  9
$ELEVATION
 40
0.0
  9
$PELEVATION
 40
0.0
  9
$THICKNESS
 40
0.0
  9
$LIMCHECK
 70
     0
  9
$BLIPMODE
 70
     0
  9
$CHAMFERA
 40
0.0
  9
$CHAMFERB
 40
0.0
  9
$CHAMFERC
 40
20.0
  9
$CHAMFERD
 40
0.0
  9
$SKPOLY
 70
     0
  9
$TDCREATE
 40
2453761.375732777
  9
$TDUPDATE
 40
2453832.509886609
  9
$TDINDWG
 40
0.4518073611
  9
$TDUSRTIMER
 40
0.4518073611
  9
$USRTIMER
 70
     1
  9
$ANGBASE
 50
0.0
  9
$ANGDIR
 70
     0
  9
$PDMODE
 70
     0
  9
$PDSIZE
 40
-10.0
  9
$PLINEWID
 40
0.0
  9
$COORDS
 70
     0
  9
$SPLFRAME
 70
     0
  9
$SPLINETYPE
 70
     6
  9
$SPLINESEGS
 70
     8
  9
$ATTDIA
 70
     0
  9
$ATTREQ
 70
     1
  9
$HANDLING
 70
-16383
  9
$HANDSEED
  5
170F
  9
$SURFTAB1
 70
     6
  9
$SURFTAB2
 70
     6
  9
$SURFTYPE
 70
     6
  9
$SURFU
 70
     6
  9
$SURFV
 70
     6
  9
$UCSNAME
  2

  9
$UCSORG
 10
0.0
 20
0.0
 30
0.0
  9
$UCSXDIR
 10
1.0
 20
0.0
 30
0.0
  9
$UCSYDIR
 10
0.0
 20
1.0
 30
0.0
  9
$PUCSNAME
  2

  9
$PUCSORG
 10
0.0
 20
0.0
 30
0.0
  9
$PUCSXDIR
 10
1.0
 20
0.0
 30
0.0
  9
$PUCSYDIR
 10
0.0
 20
1.0
 30
0.0
  9
$USERI1
 70
     0
  9
$USERI2
 70
     0
  9
$USERI3
 70
     0
  9
$USERI4
 70
     0
  9
$USERI5
 70
     0
  9
$USERR1
 40
0.0
  9
$USERR2
 40
0.0
  9
$USERR3
 40
0.0
  9
$USERR4
 40
0.0
  9
$USERR5
 40
0.0
  9
$WORLDVIEW
 70
     1
  9
$SHADEDGE
 70
     3
  9
$SHADEDIF
 70
    70
  9
$TILEMODE
 70
     1
  9
$MAXACTVP
 70
    48
  9
$PINSBASE
 10
0.0
 20
0.0
 30
0.0
  9
$PLIMCHECK
 70
     0
  9
$PEXTMIN
 10
0.0
 20
0.0
 30
0.0
  9
$PEXTMAX
 10
0.0
 20
0.0
 30
0.0
  9
$PLIMMIN
 10
0.0
 20
0.0
  9
$PLIMMAX
 10
12.0
 20
9.0
  9
$UNITMODE
 70
     0
  9
$VISRETAIN
 70
     1
  9
$PLINEGEN
 70
     0
  9
$PSLTSCALE
 70
     1
  9
$TREEDEPTH
 70
  3020
  9
$PICKSTYLE
 70
     1
  9
$CMLSTYLE
  2
STANDARD
  9
$CMLJUST
 70
     0
  9
$CMLSCALE
 40
1.0
  9
$PROXYGRAPHICS
 70
     1
  9
$MEASUREMENT
 70
     0
  0
ENDSEC
  0
SECTION
  2
CLASSES
  0
CLASS
  1
DICTIONARYVAR
  2
AcDbDictionaryVar
  3
AutoCAD 2000
 90
        0
280
     0
281
     0
  0
CLASS
  1
ACDBDICTIONARYWDFLT
  2
AcDbDictionaryWithDefault
  3
AutoCAD 2000
 90
        0
280
     0
281
     0
  0
CLASS
  1
ACDBPLACEHOLDER
  2
AcDbPlaceHolder
  3
AutoCAD 2000
 90
        0
280
     0
281
     0
  0
CLASS
  1
LAYOUT
  2
AcDbLayout
  3
AutoCAD 2000
 90
        0
280
     0
281
     0
  0
CLASS
  1
LONG_TRANSACTION
  2
AcDbLongTransaction
  3
AutoCAD 2000
 90
        0
280
     0
281
     0
  0
CLASS
  1
LWPOLYLINE
  2
AcDbPolyline
  3
AutoCAD 2000
 90
        0
280
     0
281
     1
  0
CLASS
  1
HATCH
  2
AcDbHatch
  3
AutoCAD 2000
 90
        0
280
     0
281
     1
  0
CLASS
  1
XRECORD
  2
AcDbXrecord
  3
AutoCAD 2000
 90
        0
280
     0
281
     0
  0
ENDSEC
  0
SECTION
  2
TABLES
  0
TABLE
  2
VPORT
  5
6E
330
0
100
AcDbSymbolTable
 70
     2
  0
VPORT
  5
16E9
330
6E
100
AcDbSymbolTableRecord
100
AcDbViewportTableRecord
  2
*ACTIVE
 70
     0
 10
0.0
 20
0.0
 11
1.0
 21
1.0
 12
259.2119381339339
 22
186.1239589726061
 13
0.0
 23
0.0
 14
10.0
 24
10.0
 15
10.0
 25
10.0
 16
0.0
 26
0.0
 36
1.0
 17
0.0
 27
0.0
 37
0.0
 40
340.4526416263824
 41
1.566970091027308
 42
50.0
 43
0.0
 44
0.0
 50
0.0
 51
0.0
 71
     0
 72
   100
 73
     1
 74
     3
 75
     0
 76
     0
 77
     0
 78
     0
  0
ENDTAB
  0
TABLE
  2
LTYPE
  5
69
330
0
100
AcDbSymbolTable
 70
     4
  0
LTYPE
  5
6A
330
69
100
AcDbSymbolTableRecord
100
AcDbLinetypeTableRecord
  2
BYBLOCK
 70
     0
  3

 72
    65
 73
     0
 40
0.0
  0
LTYPE
  5
6B
330
69
100
AcDbSymbolTableRecord
100
AcDbLinetypeTableRecord
  2
BYLAYER
 70
     0
  3

 72
    65
 73
     0
 40
0.0
  0
LTYPE
  5
8
330
69
100
AcDbSymbolTableRecord
100
AcDbLinetypeTableRecord
  2
CONTINUOUS
 70
     0
  3
Solid line
 72
    65
 73
     0
 40
0.0
  0
LTYPE
  5
27C
330
69
100
AcDbSymbolTableRecord
100
AcDbLinetypeTableRecord
  2
SEKKEI_A2_
 70
     0
  3
center(A2)  ____ _ ____ _ ____ _ ____ _ ____ _ 
 72
    65
 73
     4
 40
14.28749999999999
 49
9.525
 74
     0
 49
-1.587499999999999
 74
     0
 49
1.587499999999999
 74
     0
 49
-1.587499999999999
 74
     0
  0
LTYPE
  5
2B4
330
69
100
AcDbSymbolTableRecord
100
AcDbLinetypeTableRecord
  2
HIDDEN2
 70
     0
  3
Hidden (.5x) _ _ _ _ _ _ _ _ _ _ _ _ _ _ _ _ _
 72
    65
 73
     2
 40
4.762499999999999
 49
3.174999999999999
 74
     0
 49
-1.587499999999999
 74
     0
  0
LTYPE
  5
48F
330
69
100
AcDbSymbolTableRecord
100
AcDbLinetypeTableRecord
  2
SEKKEI_H
 70
     0
  3
Hidden-S _ _ _ _ _ _ _ _ _ _ _ _ _ _ _ _ _
 72
    65
 73
     2
 40
2.381249999999999
 49
1.587499999999999
 74
     0
 49
-0.79375
 74
     0
  0
ENDTAB
  0
TABLE
  2
LAYER
  5
66
330
0
100
AcDbSymbolTable
 70
     9
  0
LAYER
  5
5E
330
66
100
AcDbSymbolTableRecord
100
AcDbLayerTableRecord
  2
0
 70
     0
 62
     7
  6
CONTINUOUS
  0
LAYER
  5
3E
330
66
100
AcDbSymbolTableRecord
100
AcDbLayerTableRecord
  2
CENTER
 70
     0
 62
     3
  6
SEKKEI_A2_
  0
LAYER
  5
2B5
330
66
100
AcDbSymbolTableRecord
100
AcDbLayerTableRecord
  2
HIDS
 70
     0
 62
     1
  6
HIDDEN2
  0
LAYER
  5
2BA
330
66
100
AcDbSymbolTableRecord
100
AcDbLayerTableRecord
  2
HOJO
 70
     0
 62
     4
  6
CONTINUOUS
  0
LAYER
  5
3FA
330
66
100
AcDbSymbolTableRecord
100
AcDbLayerTableRecord
  2
TITLE
 70
     0
 62
     4
  6
CONTINUOUS
  0
ENDTAB
  0
TABLE
  2
STYLE
  5
67
330
0
100
AcDbSymbolTable
 70
     1
  0
STYLE
  5
16
330
67
100
AcDbSymbolTableRecord
100
AcDbTextStyleTableRecord
  2
STANDARD
 70
     0
 40
0.0
 41
1.0
 50
0.0
 71
     0
 42
2.0
  3
simplex.shx
  4
extfont.shx
  0
ENDTAB
  0
TABLE
  2
VIEW
  5
6C
330
0
100
AcDbSymbolTable
 70
     0
  0
ENDTAB
  0
TABLE
  2
UCS
  5
6D
330
0
100
AcDbSymbolTable
 70
     0
  0
ENDTAB
  0
TABLE
  2
APPID
  5
70
330
0
100
AcDbSymbolTable
 70
     1
  0
APPID
  5
71
330
70
100
AcDbSymbolTableRecord
100
AcDbRegAppTableRecord
  2
ACAD
 70
     0
  0
ENDTAB
  0
TABLE
  2
DIMSTYLE
  5
72
330
0
100
AcDbSymbolTable
 70
     1
  0
DIMSTYLE
105
73
330
72
100
AcDbSymbolTableRecord
100
AcDbDimStyleTableRecord
  2
STANDARD
 70
     0
  3

  4

  5

  6

  7

 40
2.0
 41
1.8
 42
0.625
 43
3.75
 44
0.8
 45
0.0
 46
0.0
 47
0.0
 48
0.0
140
1.8
141
2.5
142
0.0
143
0.0394
144
1.0
145
0.0
146
1.0
147
0.75
 71
     0
 72
     0
 73
     0
 74
     0
 75
     0
 76
     0
 77
     1
 78
     8
170
     0
171
     4
172
     1
173
     0
174
     0
175
     0
176
     0
177
     0
178
     0
270
     8
271
     2
272
     2
273
     8
274
     4
340
16
275
     0
280
     0
281
     0
282
     0
283
     1
284
     0
285
     0
286
     0
287
     3
288
     0
  0
ENDTAB
  0
TABLE
  2
BLOCK_RECORD
  5
1
330
0
100
AcDbSymbolTable
 70
    58
  0
BLOCK_RECORD
  5
2
102
{ACAD_XDICTIONARY
360
170B
102
}
330
1
100
AcDbSymbolTableRecord
100
AcDbBlockTableRecord
  2
*MODEL_SPACE
  0
BLOCK_RECORD
  5
16E4
102
{ACAD_XDICTIONARY
360
170D
102
}
330
1
100
AcDbSymbolTableRecord
100
AcDbBlockTableRecord
  2
*PAPER_SPACE
  0
ENDTAB
  0
ENDSEC
  0
SECTION
  2
BLOCKS
  0
BLOCK
  5
5D
330
2
100
AcDbEntity
  8
0
100
AcDbBlockBegin
  2
*MODEL_SPACE
 70
     0
 10
0.0
 20
0.0
 30
0.0
  3
*MODEL_SPACE
  1

  0
ENDBLK
  5
5F
330
2
100
AcDbEntity
  8
0
100
AcDbBlockEnd
  0
BLOCK
  5
16E6
330
16E4
100
AcDbEntity
 67
     1
  8
0
100
AcDbBlockBegin
  2
*PAPER_SPACE
 70
     0
 10
0.0
 20
0.0
 30
0.0
  3
*PAPER_SPACE
  1

  0
ENDBLK
  5
16E7
330
16E4
100
AcDbEntity
 67
     1
  8
0
100
AcDbBlockEnd
  0
ENDSEC
  0
SECTION
  2
ENTITIES
  0
TEXT
  5
61E
330
2
100
AcDbEntity
  8
TITLE
100
AcDbText
 10
400.9090527967559
 20
315.5743316778033
 30
0.0
 40
5.0
  1
GLMN-12-5~120-S25K
100
AcDbText
  0
TEXT
  5
61F
330
2
100
AcDbEntity
  8
TITLE
100
AcDbText
 10
291.3909445525254
 20
315.5743316778033
 30
0.0
 40
5.0
  1
GLMN-12-5~120-T25K
100
AcDbText
  0
TEXT
  5
620
330
2
100
AcDbEntity
  8
TITLE
100
AcDbText
 10
400.9090527967559
 20
298.4314745349461
 30
0.0
 40
5.0
  1
GLMN-12-5~60-S40K
100
AcDbText
  0
ARC
  5
621
330
2
100
AcDbEntity
  8
0
100
AcDbCircle
 10
110.332293322912
 20
277.7593879356241
 30
0.0
 40
4.5
100
AcDbArc
 50
0.0
 51
90.0
  0
ARC
  5
622
330
2
100
AcDbEntity
  8
0
100
AcDbCircle
 10
110.332293322912
 20
277.7593879356241
 30
0.0
 40
3.0
100
AcDbArc
 50
0.0
 51
90.0
  0
LINE
  5
623
330
2
100
AcDbEntity
  8
0
100
AcDbLine
 10
61.33228932291206
 20
274.535327935624
 30
0.0
 11
61.33228932291206
 21
344.535327935624
 31
0.0
  0
LINE
  5
624
330
2
100
AcDbEntity
  8
0
100
AcDbLine
 10
110.332293322912
 20
269.535327935624
 30
0.0
 11
110.332293322912
 21
349.535327935624
 31
0.0
  0
LINE
  5
625
330
2
100
AcDbEntity
  8
0
100
AcDbLine
 10
119.832293322912
 20
284.5353279356241
 30
0.0
 11
119.832293322912
 21
271.535327935624
 31
0.0
  0
LINE
  5
626
330
2
100
AcDbEntity
  8
0
100
AcDbLine
 10
233.832289322912
 20
352.535327935624
 30
0.0
 11
233.832289322912
 21
266.535327935624
 31
0.0
  0
LINE
  5
627
330
2
100
AcDbEntity
  8
0
100
AcDbLine
 10
66.33228932291206
 20
269.535327935624
 30
0.0
 11
110.332293322912
 21
269.535327935624
 31
0.0
  0
LINE
  5
628
330
2
100
AcDbEntity
  8
CENTER
100
AcDbLine
 10
47.95713732291199
 20
97.12437506969081
 30
0.0
 11
240.8497913229119
 21
97.12437506969081
 31
0.0
  0
LINE
  5
629
330
2
100
AcDbEntity
  8
0
100
AcDbLine
 10
63.832289322912
 20
73.12437506969081
 30
0.0
 11
110.332293322912
 21
73.12437506969081
 31
0.0
  0
LINE
  5
62A
330
2
100
AcDbEntity
  8
0
100
AcDbLine
 10
63.832289322912
 20
123.1243750696908
 30
0.0
 11
110.332293322912
 21
123.1243750696908
 31
0.0
  0
LINE
  5
62B
330
2
100
AcDbEntity
  8
0
100
AcDbLine
 10
66.332289322912
 20
57.12437506969081
 30
0.0
 11
110.332293322912
 21
57.12437506969081
 31
0.0
  0
LINE
  5
62C
330
2
100
AcDbEntity
  8
0
100
AcDbLine
 10
66.332289322912
 20
137.1243750696908
 30
0.0
 11
110.332293322912
 21
137.1243750696908
 31
0.0
  0
LINE
  5
62D
330
2
100
AcDbEntity
  8
0
100
AcDbLine
 10
61.332289322912
 20
62.12437506969081
 30
0.0
 11
61.332289322912
 21
132.1243750696908
 31
0.0
  0
ARC
  5
62E
330
2
100
AcDbEntity
  8
0
100
AcDbCircle
 10
66.332289322912
 20
62.12437506969081
 30
0.0
 40
5.0
100
AcDbArc
 50
180.0
 51
270.0
  0
ARC
  5
62F
330
2
100
AcDbEntity
  8
0
100
AcDbCircle
 10
66.332289322912
 20
132.1243750696908
 30
0.0
 40
5.0
100
AcDbArc
 50
90.0
 51
180.0
  0
ARC
  5
630
330
2
100
AcDbEntity
  8
0
100
AcDbCircle
 10
66.33228932291206
 20
274.535327935624
 30
0.0
 40
5.0
100
AcDbArc
 50
180.0
 51
270.0
  0
LINE
  5
631
330
2
100
AcDbEntity
  8
CENTER
100
AcDbLine
 10
207.242793322912
 20
108.1243750696908
 30
0.0
 11
271.082289322912
 21
108.1243750696908
 31
0.0
  0
LINE
  5
632
330
2
100
AcDbEntity
  8
0
100
AcDbLine
 10
201.332293322912
 20
62.12437506969081
 30
0.0
 11
201.332293322912
 21
74.55366606969079
 31
0.0
  0
LINE
  5
633
330
2
100
AcDbEntity
  8
0
100
AcDbLine
 10
216.332293322912
 20
62.12436006969079
 30
0.0
 11
216.332293322912
 21
74.55366606969079
 31
0.0
  0
LINE
  5
634
330
2
100
AcDbEntity
  8
0
100
AcDbLine
 10
183.832293322912
 20
53.12437506969081
 30
0.0
 11
183.832293322912
 21
70.56831406969081
 31
0.0
  0
LINE
  5
635
330
2
100
AcDbEntity
  8
0
100
AcDbLine
 10
233.832289322912
 20
135.1243750696908
 30
0.0
 11
233.832289322912
 21
53.12437506969081
 31
0.0
  0
LINE
  5
636
330
2
100
AcDbEntity
  8
0
100
AcDbLine
 10
119.832293322912
 20
59.12439806969075
 30
0.0
 11
119.832293322912
 21
135.1243750696908
 31
0.0
  0
LINE
  5
637
330
2
100
AcDbEntity
  8
0
100
AcDbLine
 10
110.332293322912
 20
57.12437506969081
 30
0.0
 11
110.332293322912
 21
137.1243750696908
 31
0.0
  0
LINE
  5
638
330
2
100
AcDbEntity
  8
0
100
AcDbLine
 10
119.832293322912
 20
59.12439806969075
 30
0.0
 11
183.832293322912
 21
59.12439806969075
 31
0.0
  0
LINE
  5
639
330
2
100
AcDbEntity
  8
0
100
AcDbLine
 10
110.332293322912
 20
59.12437506969081
 30
0.0
 11
119.832293322912
 21
59.12437506969081
 31
0.0
  0
LINE
  5
63A
330
2
100
AcDbEntity
  8
0
100
AcDbLine
 10
185.832293322912
 20
60.12437506969082
 30
0.0
 11
231.832289322912
 21
60.12437506969082
 31
0.0
  0
LINE
  5
63B
330
2
100
AcDbEntity
  8
0
100
AcDbLine
 10
183.832293322912
 20
53.12437506969081
 30
0.0
 11
233.832289322912
 21
53.12437506969081
 31
0.0
  0
ARC
  5
63C
330
2
100
AcDbEntity
  8
0
100
AcDbCircle
 10
185.832293322912
 20
58.1243820696908
 30
0.0
 40
2.0
100
AcDbArc
 50
90.0
 51
180.0
  0
LINE
  5
63D
330
2
100
AcDbEntity
  8
HIDS
  6
SEKKEI_H
100
AcDbLine
 10
188.082293322912
 20
60.12437506969082
 30
0.0
 11
188.082293322912
 21
53.12437506969081
 31
0.0
  0
LINE
  5
63E
330
2
100
AcDbEntity
  8
HIDS
  6
SEKKEI_H
100
AcDbLine
 10
194.582293322912
 20
60.12437506969082
 30
0.0
 11
194.582293322912
 21
53.12437506969081
 31
0.0
  0
LINE
  5
63F
330
2
100
AcDbEntity
  8
CENTER
100
AcDbLine
 10
191.332293322912
 20
62.49937506969081
 30
0.0
 11
191.332293322912
 21
49.74937506969076
 31
0.0
  0
ARC
  5
640
330
2
100
AcDbEntity
  8
0
100
AcDbCircle
 10
199.332293322912
 20
62.12437506969081
 30
0.0
 40
2.0
100
AcDbArc
 50
270.0
 51
0.0
  0
ARC
  5
641
330
2
100
AcDbEntity
  8
0
100
AcDbCircle
 10
218.332293322912
 20
62.12437506969081
 30
0.0
 40
2.0
100
AcDbArc
 50
180.0
 51
270.0
  0
ARC
  5
642
330
2
100
AcDbEntity
  8
0
100
AcDbCircle
 10
231.832289322912
 20
58.12436006969079
 30
0.0
 40
2.0
100
AcDbArc
 50
0.0
 51
90.0
  0
LINE
  5
643
330
2
100
AcDbEntity
  8
HIDS
  6
SEKKEI_H
100
AcDbLine
 10
223.082289322912
 20
60.12437506969082
 30
0.0
 11
223.082289322912
 21
53.12437506969081
 31
0.0
  0
LINE
  5
644
330
2
100
AcDbEntity
  8
HIDS
  6
SEKKEI_H
100
AcDbLine
 10
229.582289322912
 20
60.12437506969082
 30
0.0
 11
229.582289322912
 21
53.12437506969081
 31
0.0
  0
LINE
  5
645
330
2
100
AcDbEntity
  8
CENTER
100
AcDbLine
 10
226.332289322912
 20
63.49937506969081
 30
0.0
 11
226.332289322912
 21
49.37437506969075
 31
0.0
  0
LINE
  5
646
330
2
100
AcDbEntity
  8
0
100
AcDbLine
 10
119.832293322912
 20
271.535327935624
 30
0.0
 11
233.832289322912
 21
271.535327935624
 31
0.0
  0
LINE
  5
647
330
2
100
AcDbEntity
  8
0
100
AcDbLine
 10
119.832293322912
 20
66.87540506969077
 30
0.0
 11
183.832293322912
 21
66.87540506969077
 31
0.0
  0
LINE
  5
648
330
2
100
AcDbEntity
  8
0
100
AcDbLine
 10
119.832293322912
 20
127.3733830696908
 30
0.0
 11
233.832289322912
 21
127.3733830696908
 31
0.0
  0
LINE
  5
649
330
2
100
AcDbEntity
  8
0
100
AcDbLine
 10
119.832293322912
 20
135.1243750696908
 30
0.0
 11
233.832289322912
 21
135.1243750696908
 31
0.0
  0
LINE
  5
64A
330
2
100
AcDbEntity
  8
0
100
AcDbLine
 10
110.332293322912
 20
66.87537406969079
 30
0.0
 11
119.832293322912
 21
66.87537406969079
 31
0.0
  0
LINE
  5
64B
330
2
100
AcDbEntity
  8
0
100
AcDbLine
 10
110.332293322912
 20
127.3733830696908
 30
0.0
 11
119.832293322912
 21
127.3733830696908
 31
0.0
  0
ARC
  5
64C
330
2
100
AcDbEntity
  8
0
100
AcDbCircle
 10
110.332293322912
 20
119.7493750696908
 30
0.0
 40
4.5
100
AcDbArc
 50
0.0
 51
90.0
  0
ARC
  5
64D
330
2
100
AcDbEntity
  8
0
100
AcDbCircle
 10
110.332293322912
 20
119.7493750696908
 30
0.0
 40
3.0
100
AcDbArc
 50
0.0
 51
90.0
  0
ARC
  5
64E
330
2
100
AcDbEntity
  8
0
100
AcDbCircle
 10
110.332293322912
 20
119.7493750696908
 30
0.0
 40
1.5
100
AcDbArc
 50
0.0
 51
90.0
  0
LINE
  5
64F
330
2
100
AcDbEntity
  8
HOJO
100
AcDbLine
 10
113.332293322912
 20
115.7472690696907
 30
0.0
 11
114.832293322912
 21
116.5264740696907
 31
0.0
  0
LINE
  5
650
330
2
100
AcDbEntity
  8
HOJO
100
AcDbLine
 10
111.834693322912
 20
115.5112770696907
 30
0.0
 11
113.332293322912
 21
114.7125710696907
 31
0.0
  0
LINE
  5
651
330
2
100
AcDbEntity
  8
0
100
AcDbLine
 10
114.832293322912
 20
119.7493750696908
 30
0.0
 11
114.832293322912
 21
116.5264740696907
 31
0.0
  0
LINE
  5
652
330
2
100
AcDbEntity
  8
0
100
AcDbLine
 10
113.332293322912
 20
119.7493750696908
 30
0.0
 11
113.332293322912
 21
114.7125710696907
 31
0.0
  0
LINE
  5
653
330
2
100
AcDbEntity
  8
0
100
AcDbLine
 10
111.832293322912
 20
119.7493750696908
 30
0.0
 11
111.832293322912
 21
115.5067750696907
 31
0.0
  0
LINE
  5
659
330
2
100
AcDbEntity
  8
0
100
AcDbLine
 10
110.332293322912
 20
135.1243750696908
 30
0.0
 11
119.832293322912
 21
135.1243750696908
 31
0.0
  0
LINE
  5
65F
330
2
100
AcDbEntity
  8
0
100
AcDbLine
 10
119.832293322912
 20
271.535327935624
 30
0.0
 11
110.332293322912
 21
271.535327935624
 31
0.0
  0
ARC
  5
660
330
2
100
AcDbEntity
  8
0
100
AcDbCircle
 10
110.332293322912
 20
277.7593879356241
 30
0.0
 40
1.5
100
AcDbArc
 50
0.0
 51
90.0
  0
LINE
  5
661
330
2
100
AcDbEntity
  8
HOJO
100
AcDbLine
 10
113.332293322912
 20
273.757282935624
 30
0.0
 11
114.832293322912
 21
274.5364879356241
 31
0.0
  0
LINE
  5
662
330
2
100
AcDbEntity
  8
HOJO
100
AcDbLine
 10
111.834693322912
 20
273.521289935624
 30
0.0
 11
113.332293322912
 21
272.7225839356241
 31
0.0
  0
LINE
  5
663
330
2
100
AcDbEntity
  8
0
100
AcDbLine
 10
114.832293322912
 20
277.7593879356241
 30
0.0
 11
114.832293322912
 21
274.5364879356241
 31
0.0
  0
LINE
  5
664
330
2
100
AcDbEntity
  8
0
100
AcDbLine
 10
113.332293322912
 20
277.7593879356241
 30
0.0
 11
113.332293322912
 21
272.7225839356241
 31
0.0
  0
LINE
  5
665
330
2
100
AcDbEntity
  8
0
100
AcDbLine
 10
111.832293322912
 20
277.7593879356241
 30
0.0
 11
111.832293322912
 21
273.516788935624
 31
0.0
  0
LINE
  5
666
330
2
100
AcDbEntity
  8
0
100
AcDbLine
 10
233.457289322912
 20
72.56831406969081
 30
0.0
 11
216.582293322912
 21
72.56831406969081
 31
0.0
  0
LINE
  5
667
330
2
100
AcDbEntity
  8
0
100
AcDbLine
 10
186.082293322912
 20
72.56831406969081
 30
0.0
 11
200.707293322912
 21
72.56831406969081
 31
0.0
  0
ARC
  5
668
330
2
100
AcDbEntity
  8
0
100
AcDbCircle
 10
185.832293322912
 20
70.56832906969077
 30
0.0
 40
2.0
100
AcDbArc
 50
90.0
 51
180.0
  0
LINE
  5
669
330
2
100
AcDbEntity
  8
0
100
AcDbLine
 10
202.238593322912
 20
74.55366606969079
 30
0.0
 11
215.488593322912
 21
74.55366606969079
 31
0.0
  0
ARC
  5
66A
330
2
100
AcDbEntity
  8
0
100
AcDbCircle
 10
199.332293322912
 20
74.55366606969079
 30
0.0
 40
2.0
100
AcDbArc
 50
0.0
 51
90.0
  0
ARC
  5
66B
330
2
100
AcDbEntity
  8
0
100
AcDbCircle
 10
218.332293322912
 20
74.55367306969077
 30
0.0
 40
2.0
100
AcDbArc
 50
90.0
 51
180.0
  0
LINE
  5
66C
330
2
100
AcDbEntity
  8
0
100
AcDbLine
 10
237.3322893229119
 20
91.62437506969082
 30
0.0
 11
237.3322893229119
 21
124.6243750696908
 31
0.0
  0
ARC
  5
66D
330
2
100
AcDbEntity
  8
0
100
AcDbCircle
 10
236.332289322912
 20
91.62437506969082
 30
0.0
 40
1.0
100
AcDbArc
 50
270.0
 51
0.0
  0
LINE
  5
66E
330
2
100
AcDbEntity
  8
0
100
AcDbLine
 10
236.332289322912
 20
90.62437506969081
 30
0.0
 11
233.832289322912
 21
90.62437506969081
 31
0.0
  0
LINE
  5
66F
330
2
100
AcDbEntity
  8
0
100
AcDbLine
 10
243.3322893229119
 20
106.1243750696908
 30
0.0
 11
261.332289322912
 21
106.1243750696908
 31
0.0
  0
LINE
  5
670
330
2
100
AcDbEntity
  8
0
100
AcDbLine
 10
243.3322893229119
 20
110.1243750696908
 30
0.0
 11
261.332289322912
 21
110.1243750696908
 31
0.0
  0
LINE
  5
671
330
2
100
AcDbEntity
  8
0
100
AcDbLine
 10
239.3322893229119
 20
102.1243750696908
 30
0.0
 11
261.332289322912
 21
102.1243750696908
 31
0.0
  0
LINE
  5
672
330
2
100
AcDbEntity
  8
0
100
AcDbLine
 10
239.3322893229119
 20
114.1243750696908
 30
0.0
 11
261.332289322912
 21
114.1243750696908
 31
0.0
  0
LINE
  5
673
330
2
100
AcDbEntity
  8
0
100
AcDbLine
 10
239.3322893229119
 20
115.6243750696908
 30
0.0
 11
239.3322893229119
 21
100.6243750696908
 31
0.0
  0
ARC
  5
674
330
2
100
AcDbEntity
  8
0
100
AcDbCircle
 10
243.3322893229119
 20
108.1243750696908
 30
0.0
 40
2.0
100
AcDbArc
 50
180.0
 51
270.0
  0
LINE
  5
675
330
2
100
AcDbEntity
  8
0
100
AcDbLine
 10
237.3322893229119
 20
100.6243750696908
 30
0.0
 11
239.3322893229119
 21
100.6243750696908
 31
0.0
  0
ARC
  5
676
330
2
100
AcDbEntity
  8
0
100
AcDbCircle
 10
243.3322893229119
 20
108.1243750696908
 30
0.0
 40
2.0
100
AcDbArc
 50
90.0
 51
180.0
  0
LINE
  5
677
330
2
100
AcDbEntity
  8
0
100
AcDbLine
 10
237.3322893229119
 20
115.6243750696908
 30
0.0
 11
239.3322893229119
 21
115.6243750696908
 31
0.0
  0
ARC
  5
678
330
2
100
AcDbEntity
  8
0
100
AcDbCircle
 10
236.332289322912
 20
124.6243750696908
 30
0.0
 40
1.0
100
AcDbArc
 50
0.0
 51
90.0
  0
LINE
  5
679
330
2
100
AcDbEntity
  8
0
100
AcDbLine
 10
236.332289322912
 20
125.6243750696908
 30
0.0
 11
233.832289322912
 21
125.6243750696908
 31
0.0
  0
LINE
  5
67A
330
2
100
AcDbEntity
  8
0
100
AcDbLine
 10
261.332289322912
 20
102.1243750696908
 30
0.0
 11
261.332289322912
 21
114.1243750696908
 31
0.0
  0
LINE
  5
67B
330
2
100
AcDbEntity
  8
0
100
AcDbLine
 10
185.832293322912
 20
264.535327935624
 30
0.0
 11
231.832289322912
 21
264.535327935624
 31
0.0
  0
ARC
  5
67C
330
2
100
AcDbEntity
  8
0
100
AcDbCircle
 10
185.832293322912
 20
266.535327935624
 30
0.0
 40
2.0
100
AcDbArc
 50
180.0
 51
270.0
  0
LINE
  5
67D
330
2
100
AcDbEntity
  8
0
100
AcDbLine
 10
183.832293322912
 20
266.535327935624
 30
0.0
 11
183.832293322912
 21
271.535327935624
 31
0.0
  0
ARC
  5
67E
330
2
100
AcDbEntity
  8
HIDS
100
AcDbCircle
 10
191.332293322912
 20
271.535327935624
 30
0.0
 40
3.25
100
AcDbArc
 50
0.0
 51
180.0
  0
LINE
  5
67F
330
2
100
AcDbEntity
  8
CENTER
100
AcDbLine
 10
191.332293322912
 20
265.410327935624
 30
0.0
 11
191.332293322912
 21
277.1603279356241
 31
0.0
  0
LINE
  5
680
330
2
100
AcDbEntity
  8
CENTER
100
AcDbLine
 10
185.957293322912
 20
271.535327935624
 30
0.0
 11
196.707293322912
 21
271.535327935624
 31
0.0
  0
ARC
  5
681
330
2
100
AcDbEntity
  8
0
100
AcDbCircle
 10
191.332293322912
 20
271.535327935624
 30
0.0
 40
3.25
100
AcDbArc
 50
180.0
 51
0.0
  0
LINE
  5
682
330
2
100
AcDbEntity
  8
0
100
AcDbLine
 10
201.332293322912
 20
265.160327935624
 30
0.0
 11
201.332293322912
 21
271.535327935624
 31
0.0
  0
LINE
  5
683
330
2
100
AcDbEntity
  8
0
100
AcDbLine
 10
216.332293322912
 20
265.160327935624
 30
0.0
 11
216.332293322912
 21
271.535327935624
 31
0.0
  0
ARC
  5
684
330
2
100
AcDbEntity
  8
0
100
AcDbCircle
 10
231.832289322912
 20
266.535327935624
 30
0.0
 40
2.0
100
AcDbArc
 50
270.0
 51
0.0
  0
ARC
  5
685
330
2
100
AcDbEntity
  8
HIDS
100
AcDbCircle
 10
226.332289322912
 20
271.535327935624
 30
0.0
 40
3.25
100
AcDbArc
 50
0.0
 51
180.0
  0
LINE
  5
686
330
2
100
AcDbEntity
  8
CENTER
100
AcDbLine
 10
226.332289322912
 20
265.410327935624
 30
0.0
 11
226.332289322912
 21
277.035327935624
 31
0.0
  0
LINE
  5
687
330
2
100
AcDbEntity
  8
CENTER
100
AcDbLine
 10
220.957289322912
 20
271.535327935624
 30
0.0
 11
231.707289322912
 21
271.535327935624
 31
0.0
  0
ARC
  5
688
330
2
100
AcDbEntity
  8
0
100
AcDbCircle
 10
226.332289322912
 20
271.535327935624
 30
0.0
 40
3.25
100
AcDbArc
 50
180.0
 51
0.0
  0
ARC
  5
689
330
2
100
AcDbEntity
  8
0
100
AcDbCircle
 10
361.3322893229119
 20
97.12437506969081
 30
0.0
 40
36.0
100
AcDbArc
 50
199.1880950000001
 51
340.81189
  0
LINE
  5
68A
330
2
100
AcDbEntity
  8
0
100
AcDbLine
 10
405.746489322912
 20
59.53860506969078
 30
0.0
 11
391.3987873229119
 21
73.88634506969077
 31
0.0
  0
LINE
  5
68B
330
2
100
AcDbEntity
  8
0
100
AcDbLine
 10
316.918090322912
 20
59.53860506969078
 30
0.0
 11
331.265792322912
 21
73.8863150696908
 31
0.0
  0
LINE
  5
68C
330
2
100
AcDbEntity
  8
0
100
AcDbLine
 10
332.3322893229119
 20
63.12439806969075
 30
0.0
 11
332.3322893229119
 21
72.56832906969077
 31
0.0
  0
LINE
  5
68D
330
2
100
AcDbEntity
  8
0
100
AcDbLine
 10
390.3322893229119
 20
63.12436006969079
 30
0.0
 11
390.3322893229119
 21
72.56832906969077
 31
0.0
  0
LINE
  5
68E
330
2
100
AcDbEntity
  8
CENTER
100
AcDbLine
 10
361.3322893229119
 20
47.87439806969075
 30
0.0
 11
361.3322893229119
 21
187.0118900696907
 31
0.0
  0
LINE
  5
68F
330
2
100
AcDbEntity
  8
0
100
AcDbLine
 10
388.3322893229119
 20
54.12439806969075
 30
0.0
 11
334.3322893229119
 21
54.12439806969075
 31
0.0
  0
LINE
  5
690
330
2
100
AcDbEntity
  8
CENTER
100
AcDbLine
 10
323.3322893229119
 20
63.62439806969075
 30
0.0
 11
323.3322893229119
 21
48.74939806969075
 31
0.0
  0
LINE
  5
691
330
2
100
AcDbEntity
  8
0
100
AcDbLine
 10
318.3322893229119
 20
60.12439806969076
 30
0.0
 11
329.3322893229119
 21
60.12439806969076
 31
0.0
  0
LINE
  5
692
330
2
100
AcDbEntity
  8
0
100
AcDbLine
 10
333.3322893229119
 20
53.12439806969075
 30
0.0
 11
316.3322893229119
 21
53.12439806969075
 31
0.0
  0
LINE
  5
693
330
2
100
AcDbEntity
  8
HIDS
  6
SEKKEI_H
100
AcDbLine
 10
320.0822893229119
 20
60.12439806969076
 30
0.0
 11
320.0822893229119
 21
53.12439806969075
 31
0.0
  0
LINE
  5
694
330
2
100
AcDbEntity
  8
0
100
AcDbLine
 10
316.3322893229119
 20
58.12439806969075
 30
0.0
 11
316.3322893229119
 21
53.12439806969075
 31
0.0
  0
ARC
  5
695
330
2
100
AcDbEntity
  8
0
100
AcDbCircle
 10
318.3322893229119
 20
58.12440506969079
 30
0.0
 40
2.0
100
AcDbArc
 50
90.0
 51
180.0
  0
LINE
  5
696
330
2
100
AcDbEntity
  8
HIDS
  6
SEKKEI_H
100
AcDbLine
 10
326.5822893229119
 20
60.12439806969076
 30
0.0
 11
326.5822893229119
 21
53.12439806969075
 31
0.0
  0
LINE
  5
697
330
2
100
AcDbEntity
  8
0
100
AcDbLine
 10
333.3322893229119
 20
53.12439806969075
 30
0.0
 11
334.3322893229119
 21
54.12439806969075
 31
0.0
  0
ARC
  5
698
330
2
100
AcDbEntity
  8
0
100
AcDbCircle
 10
329.3322893229119
 20
63.12439806969075
 30
0.0
 40
3.0
100
AcDbArc
 50
270.0
 51
0.0
  0
ARC
  5
699
330
2
100
AcDbEntity
  8
0
100
AcDbCircle
 10
404.3322893229119
 20
58.12439806969075
 30
0.0
 40
2.0
100
AcDbArc
 50
0.0
 51
90.0
  0
LINE
  5
69A
330
2
100
AcDbEntity
  8
0
100
AcDbLine
 10
389.3322893229119
 20
53.12439806969075
 30
0.0
 11
406.3322893229119
 21
53.12439806969075
 31
0.0
  0
LINE
  5
69B
330
2
100
AcDbEntity
  8
CENTER
100
AcDbLine
 10
399.3322893229119
 20
63.62439806969075
 30
0.0
 11
399.3322893229119
 21
48.74939806969075
 31
0.0
  0
LINE
  5
69C
330
2
100
AcDbEntity
  8
0
100
AcDbLine
 10
404.332198322912
 20
60.12439806969076
 30
0.0
 11
393.3322893229119
 21
60.12439806969076
 31
0.0
  0
LINE
  5
69D
330
2
100
AcDbEntity
  8
0
100
AcDbLine
 10
388.3322893229119
 20
54.12439806969075
 30
0.0
 11
389.3322893229119
 21
53.12439806969075
 31
0.0
  0
ARC
  5
69E
330
2
100
AcDbEntity
  8
0
100
AcDbCircle
 10
393.3322893229119
 20
63.12439806969075
 30
0.0
 40
3.0
100
AcDbArc
 50
180.0
 51
270.0
  0
LINE
  5
69F
330
2
100
AcDbEntity
  8
HIDS
  6
SEKKEI_H
100
AcDbLine
 10
396.0822893229119
 20
60.12439806969076
 30
0.0
 11
396.0822893229119
 21
53.12439806969075
 31
0.0
  0
LINE
  5
6A0
330
2
100
AcDbEntity
  8
HIDS
  6
SEKKEI_H
100
AcDbLine
 10
402.5822893229119
 20
60.12439806969076
 30
0.0
 11
402.5822893229119
 21
53.12439806969075
 31
0.0
  0
LINE
  5
6A1
330
2
100
AcDbEntity
  8
0
100
AcDbLine
 10
406.3322893229119
 20
53.12439806969075
 30
0.0
 11
406.3322893229119
 21
58.12439806969075
 31
0.0
  0
TEXT
  5
6A2
330
2
100
AcDbEntity
  8
TITLE
100
AcDbText
 10
291.3909445525254
 20
281.288617392089
 30
0.0
 40
5.0
  1
GLMN-12-5~30-T60K
100
AcDbText
  0
LINE
  5
6A4
330
2
100
AcDbEntity
  8
0
100
AcDbLine
 10
360.819594322912
 20
85.03551506969079
 30
0.0
 11
359.571990322912
 21
85.03551506969079
 31
0.0
  0
LINE
  5
6A5
330
2
100
AcDbEntity
  8
0
100
AcDbLine
 10
358.7072893229119
 20
85.99937506969082
 30
0.0
 11
363.9572893229119
 21
85.99937506969082
 31
0.0
  0
CIRCLE
  5
6A6
330
2
100
AcDbEntity
  8
0
100
AcDbCircle
 10
361.3322893229119
 20
108.1243750696908
 30
0.0
 40
17.5
  0
ARC
  5
6A7
330
2
100
AcDbEntity
  8
0
100
AcDbCircle
 10
361.3322893229119
 20
97.12437506969081
 30
0.0
 40
36.0
100
AcDbArc
 50
19.18812000000017
 51
160.8119049999998
  0
ARC
  5
6A8
330
2
100
AcDbEntity
  8
0
100
AcDbCircle
 10
361.3322893229119
 20
108.1243750696908
 30
0.0
 40
6.0
100
AcDbArc
 50
199.4712069999998
 51
160.5287930000002
  0
LINE
  5
6A9
330
2
100
AcDbEntity
  8
0
100
AcDbLine
 10
340.297392322912
 20
134.7572790696907
 30
0.0
 11
361.3322893229119
 21
135.1243750696908
 31
0.0
  0
LINE
  5
6AA
330
2
100
AcDbEntity
  8
CENTER
100
AcDbLine
 10
337.5611943229119
 20
108.1243750696908
 30
0.0
 11
385.1033843229119
 21
108.1243750696908
 31
0.0
  0
LINE
  5
6AB
330
2
100
AcDbEntity
  8
CENTER
100
AcDbLine
 10
313.9572893229119
 20
97.12437506969081
 30
0.0
 11
408.7072893229119
 21
97.12437506969081
 31
0.0
  0
LINE
  5
6AC
330
2
100
AcDbEntity
  8
0
100
AcDbLine
 10
335.3322893229119
 20
134.1243750696908
 30
0.0
 11
335.3322893229119
 21
130.5213780696907
 31
0.0
  0
LINE
  5
6AD
330
2
100
AcDbEntity
  8
0
100
AcDbLine
 10
338.3322893229119
 20
132.7574770696908
 30
0.0
 11
338.3322893229119
 21
127.3733830696908
 31
0.0
  0
LINE
  5
6AE
330
2
100
AcDbEntity
  8
0
100
AcDbLine
 10
321.3322893229119
 20
120.1243750696908
 30
0.0
 11
321.3322893229119
 21
75.19549606969076
 31
0.0
  0
LINE
  5
6AF
330
2
100
AcDbEntity
  8
0
100
AcDbLine
 10
327.3322893229119
 20
85.29220606969079
 30
0.0
 11
327.3322893229119
 21
108.9565740696907
 31
0.0
  0
ARC
  5
6B0
330
2
100
AcDbEntity
  8
0
100
AcDbCircle
 10
361.3322893229119
 20
97.12437506969081
 30
0.0
 40
38.0
100
AcDbArc
 50
127.247803
 51
220.2566070000001
  0
LINE
  5
6B1
330
2
100
AcDbEntity
  8
0
100
AcDbLine
 10
322.7967523229119
 20
71.65995806969078
 30
0.0
 11
325.918090322912
 21
68.53860506969079
 31
0.0
  0
ARC
  5
6B2
330
2
100
AcDbEntity
  8
0
100
AcDbCircle
 10
326.3322893229119
 20
75.19549606969076
 30
0.0
 40
5.0
100
AcDbArc
 50
180.0
 51
225.0003970000002
  0
LINE
  5
6B3
330
2
100
AcDbEntity
  8
0
100
AcDbLine
 10
355.3235003229119
 20
81.83629606969077
 30
0.0
 11
355.3235003229119
 21
80.68786706969081
 31
0.0
  0
LINE
  5
6B4
330
2
100
AcDbEntity
  8
0
100
AcDbLine
 10
351.714095322912
 20
84.21848306969076
 30
0.0
 11
351.714095322912
 21
79.68160306969076
 31
0.0
  0
LINE
  5
6B5
330
2
100
AcDbEntity
  8
0
100
AcDbLine
 10
350.8322893229119
 20
84.7789160696908
 30
0.0
 11
350.8322893229119
 21
79.14625606969082
 31
0.0
  0
LINE
  5
6B6
330
2
100
AcDbEntity
  8
0
100
AcDbLine
 10
356.0822893229119
 20
82.69762506969078
 30
0.0
 11
356.0822893229119
 21
78.12437506969081
 31
0.0
  0
LINE
  5
6B7
330
2
100
AcDbEntity
  8
0
100
AcDbLine
 10
351.845091322912
 20
78.12437506969081
 30
0.0
 11
354.5752863229119
 21
78.12437506969081
 31
0.0
  0
ARC
  5
6B8
330
2
100
AcDbEntity
  8
0
100
AcDbCircle
 10
353.682891322912
 20
80.68786706969081
 30
0.0
 40
1.640625
100
AcDbArc
 50
270.0002139999998
 51
0.0001089999998967
  0
LINE
  5
6B9
330
2
100
AcDbEntity
  8
0
100
AcDbLine
 10
353.682891322912
 20
79.04723406969077
 30
0.0
 11
352.3163903229119
 21
79.04723406969077
 31
0.0
  0
LINE
  5
6BA
330
2
100
AcDbEntity
  8
0
100
AcDbLine
 10
350.8322893229119
 20
79.14625606969082
 30
0.0
 11
351.845091322912
 21
78.12437506969081
 31
0.0
  0
LINE
  5
6BB
330
2
100
AcDbEntity
  8
0
100
AcDbLine
 10
351.714095322912
 20
79.68160306969076
 30
0.0
 11
352.3163903229119
 21
79.04723406969077
 31
0.0
  0
LINE
  5
6BC
330
2
100
AcDbEntity
  8
0
100
AcDbLine
 10
355.3235003229119
 20
78.75213706969077
 30
0.0
 11
354.5752863229119
 21
78.12437506969081
 31
0.0
  0
LINE
  5
6BD
330
2
100
AcDbEntity
  8
0
100
AcDbLine
 10
355.3235003229119
 20
78.12437506969081
 30
0.0
 11
356.0822893229119
 21
78.12437506969081
 31
0.0
  0
LINE
  5
6BE
330
2
100
AcDbEntity
  8
0
100
AcDbLine
 10
355.3235003229119
 20
78.75213706969077
 30
0.0
 11
355.3235003229119
 21
78.12437506969081
 31
0.0
  0
LINE
  5
6BF
330
2
100
AcDbEntity
  8
0
100
AcDbLine
 10
355.3235003229119
 20
81.01598406969078
 30
0.0
 11
355.3235003229119
 21
81.67223406969077
 31
0.0
  0
LINE
  5
6C0
330
2
100
AcDbEntity
  8
0
100
AcDbLine
 10
353.9494923229119
 20
82.69762506969078
 30
0.0
 11
356.0822893229119
 21
82.69762506969078
 31
0.0
  0
LINE
  5
6C1
330
2
100
AcDbEntity
  8
0
100
AcDbLine
 10
355.3235003229119
 20
81.83629606969077
 30
0.0
 11
353.9494923229119
 21
81.83629606969077
 31
0.0
  0
LINE
  5
6C2
330
2
100
AcDbEntity
  8
0
100
AcDbLine
 10
351.7853993229119
 20
85.99937506969082
 30
0.0
 11
355.315596322912
 21
85.99937506969082
 31
0.0
  0
LINE
  5
6C3
330
2
100
AcDbEntity
  8
0
100
AcDbLine
 10
354.8366993229119
 20
84.95348406969077
 30
0.0
 11
352.306899322912
 21
84.95348406969077
 31
0.0
  0
LINE
  5
6C4
330
2
100
AcDbEntity
  8
0
100
AcDbLine
 10
353.9494923229119
 20
82.69762506969078
 30
0.0
 11
353.9494923229119
 21
81.83629606969077
 31
0.0
  0
LINE
  5
6C5
330
2
100
AcDbEntity
  8
0
100
AcDbLine
 10
351.7853993229119
 20
85.99937506969082
 30
0.0
 11
350.8322893229119
 21
84.7789160696908
 31
0.0
  0
LINE
  5
6C6
330
2
100
AcDbEntity
  8
0
100
AcDbLine
 10
352.306899322912
 20
84.95348406969077
 30
0.0
 11
351.714095322912
 21
84.21848306969076
 31
0.0
  0
LINE
  5
6C7
330
2
100
AcDbEntity
  8
0
100
AcDbLine
 10
355.3235003229119
 20
84.48288806969078
 30
0.0
 11
355.3235003229119
 21
84.35875706969079
 31
0.0
  0
LINE
  5
6C8
330
2
100
AcDbEntity
  8
0
100
AcDbLine
 10
359.571990322912
 20
85.03551506969079
 30
0.0
 11
359.290099322912
 21
84.35875706969079
 31
0.0
  0
LINE
  5
6C9
330
2
100
AcDbEntity
  8
0
100
AcDbLine
 10
358.7072893229119
 20
84.35875706969079
 30
0.0
 11
359.290099322912
 21
84.35875706969079
 31
0.0
  0
LINE
  5
6CA
330
2
100
AcDbEntity
  8
0
100
AcDbLine
 10
356.0822893229119
 20
85.14855206969077
 30
0.0
 11
356.0822893229119
 21
84.35875706969079
 31
0.0
  0
LINE
  5
6CB
330
2
100
AcDbEntity
  8
0
100
AcDbLine
 10
355.3235003229119
 20
84.35875706969079
 30
0.0
 11
356.0822893229119
 21
84.35875706969079
 31
0.0
  0
LINE
  5
6CC
330
2
100
AcDbEntity
  8
0
100
AcDbLine
 10
355.315596322912
 20
85.99937506969082
 30
0.0
 11
356.0822893229119
 21
85.14855206969077
 31
0.0
  0
LINE
  5
6CD
330
2
100
AcDbEntity
  8
0
100
AcDbLine
 10
355.3235003229119
 20
84.48288806969078
 30
0.0
 11
354.826796322912
 21
84.95348406969077
 31
0.0
  0
LINE
  5
6CE
330
2
100
AcDbEntity
  8
0
100
AcDbLine
 10
358.7072893229119
 20
84.35875706969079
 30
0.0
 11
358.7072893229119
 21
85.99937506969082
 31
0.0
  0
LINE
  5
6CF
330
2
100
AcDbEntity
  8
0
100
AcDbLine
 10
324.3322893229119
 20
123.1243750696908
 30
0.0
 11
327.9353933229119
 21
123.1243750696908
 31
0.0
  0
ARC
  5
6D0
330
2
100
AcDbEntity
  8
0
100
AcDbCircle
 10
324.3322893229119
 20
120.1243750696908
 30
0.0
 40
3.0
100
AcDbArc
 50
90.0
 51
180.0
  0
LINE
  5
6D1
330
2
100
AcDbEntity
  8
0
100
AcDbLine
 10
335.3322893229119
 20
130.5213780696907
 30
0.0
 11
327.9353933229119
 21
123.1243750696908
 31
0.0
  0
LINE
  5
6D2
330
2
100
AcDbEntity
  8
0
100
AcDbLine
 10
357.8322893229119
 20
110.1243750696908
 30
0.0
 11
357.8322893229119
 21
106.1243750696908
 31
0.0
  0
LINE
  5
6D3
330
2
100
AcDbEntity
  8
0
100
AcDbLine
 10
353.8322893229119
 20
106.1243750696908
 30
0.0
 11
353.8322893229119
 21
110.1243750696908
 31
0.0
  0
LINE
  5
6D4
330
2
100
AcDbEntity
  8
0
100
AcDbLine
 10
353.8322893229119
 20
106.1243750696908
 30
0.0
 11
357.8322893229119
 21
106.1243750696908
 31
0.0
  0
LINE
  5
6D5
330
2
100
AcDbEntity
  8
0
100
AcDbLine
 10
357.8322893229119
 20
110.1243750696908
 30
0.0
 11
353.8322893229119
 21
110.1243750696908
 31
0.0
  0
ARC
  5
6D6
330
2
100
AcDbEntity
  8
0
100
AcDbCircle
 10
338.3322893229119
 20
134.1243750696908
 30
0.0
 40
3.0
100
AcDbArc
 50
98.89579528650392
 51
180.0
  0
ARC
  5
6D7
330
2
100
AcDbEntity
  8
0
100
AcDbCircle
 10
340.3322893229119
 20
132.7574770696908
 30
0.0
 40
2.0
100
AcDbArc
 50
90.99986299999995
 51
180.0
  0
LINE
  5
6D8
330
2
100
AcDbEntity
  8
0
100
AcDbLine
 10
399.867797322912
 20
122.5888830696907
 30
0.0
 11
386.796736322912
 21
135.6598360696907
 31
0.0
  0
LINE
  5
6D9
330
2
100
AcDbEntity
  8
0
100
AcDbLine
 10
384.3322893229119
 20
132.7574770696908
 30
0.0
 11
384.3322893229119
 21
127.3733830696908
 31
0.0
  0
LINE
  5
6DA
330
2
100
AcDbEntity
  8
0
100
AcDbLine
 10
401.3322893229119
 20
74.12438206969079
 30
0.0
 11
401.3322893229119
 21
119.0532690696907
 31
0.0
  0
LINE
  5
6DB
330
2
100
AcDbEntity
  8
0
100
AcDbLine
 10
395.3322893229119
 20
108.9565740696907
 30
0.0
 11
395.3322893229119
 21
85.2922290696908
 31
0.0
  0
ARC
  5
6DC
330
2
100
AcDbEntity
  8
0
100
AcDbCircle
 10
361.3322893229119
 20
97.12437506969081
 30
0.0
 40
38.0
100
AcDbArc
 50
319.7434389999997
 51
52.75215899999984
  0
LINE
  5
6DD
330
2
100
AcDbEntity
  8
0
100
AcDbLine
 10
369.554595322912
 20
81.80553506969079
 30
0.0
 11
370.785887322912
 21
78.9446950696908
 31
0.0
  0
LINE
  5
6DE
330
2
100
AcDbEntity
  8
0
100
AcDbLine
 10
370.310286322912
 20
81.87689206969077
 30
0.0
 11
371.611296322912
 21
78.9446950696908
 31
0.0
  0
LINE
  5
6DF
330
2
100
AcDbEntity
  8
0
100
AcDbLine
 10
367.874297322912
 20
81.80553506969079
 30
0.0
 11
367.874297322912
 21
78.9446950696908
 31
0.0
  0
LINE
  5
6E0
330
2
100
AcDbEntity
  8
0
100
AcDbLine
 10
366.971892322912
 20
85.03551506969079
 30
0.0
 11
366.971892322912
 21
78.9446950696908
 31
0.0
  0
LINE
  5
6E1
330
2
100
AcDbEntity
  8
0
100
AcDbLine
 10
361.8040003229121
 20
85.03551506969079
 30
0.0
 11
361.8040003229121
 21
78.98570306969077
 31
0.0
  0
LINE
  5
6E2
330
2
100
AcDbEntity
  8
0
100
AcDbLine
 10
360.819594322912
 20
85.03551506969079
 30
0.0
 11
360.819594322912
 21
78.98570306969077
 31
0.0
  0
LINE
  5
6E3
330
2
100
AcDbEntity
  8
0
100
AcDbLine
 10
370.622298322912
 20
78.12437506969081
 30
0.0
 11
371.8322893229119
 21
78.12437506969081
 31
0.0
  0
LINE
  5
6E4
330
2
100
AcDbEntity
  8
0
100
AcDbLine
 10
360.429991322912
 20
78.98570306969077
 30
0.0
 11
360.819594322912
 21
78.98570306969077
 31
0.0
  0
LINE
  5
6E5
330
2
100
AcDbEntity
  8
0
100
AcDbLine
 10
360.429991322912
 20
78.12437506969081
 30
0.0
 11
362.132094322912
 21
78.12437506969081
 31
0.0
  0
LINE
  5
6E6
330
2
100
AcDbEntity
  8
0
100
AcDbLine
 10
362.132094322912
 20
78.98570306969077
 30
0.0
 11
362.132094322912
 21
78.12437506969081
 31
0.0
  0
LINE
  5
6E7
330
2
100
AcDbEntity
  8
0
100
AcDbLine
 10
360.429991322912
 20
78.98570306969077
 30
0.0
 11
360.429991322912
 21
78.12437506969081
 31
0.0
  0
LINE
  5
6E8
330
2
100
AcDbEntity
  8
0
100
AcDbLine
 10
361.8040003229121
 20
78.98570306969077
 30
0.0
 11
362.132094322912
 21
78.98570306969077
 31
0.0
  0
LINE
  5
6E9
330
2
100
AcDbEntity
  8
0
100
AcDbLine
 10
366.5822893229119
 20
78.9446950696908
 30
0.0
 11
366.5822893229119
 21
78.12437506969081
 31
0.0
  0
LINE
  5
6EA
330
2
100
AcDbEntity
  8
0
100
AcDbLine
 10
368.233199322912
 20
78.9446950696908
 30
0.0
 11
368.233199322912
 21
78.12437506969081
 31
0.0
  0
LINE
  5
6EB
330
2
100
AcDbEntity
  8
0
100
AcDbLine
 10
370.622298322912
 20
78.9446950696908
 30
0.0
 11
370.622298322912
 21
78.12437506969081
 31
0.0
  0
LINE
  5
6EC
330
2
100
AcDbEntity
  8
0
100
AcDbLine
 10
370.622298322912
 20
78.9446950696908
 30
0.0
 11
370.785887322912
 21
78.9446950696908
 31
0.0
  0
LINE
  5
6ED
330
2
100
AcDbEntity
  8
0
100
AcDbLine
 10
368.233199322912
 20
78.12437506969081
 30
0.0
 11
366.5822893229119
 21
78.12437506969081
 31
0.0
  0
LINE
  5
6EE
330
2
100
AcDbEntity
  8
0
100
AcDbLine
 10
367.874297322912
 20
78.9446950696908
 30
0.0
 11
368.233199322912
 21
78.9446950696908
 31
0.0
  0
LINE
  5
6EF
330
2
100
AcDbEntity
  8
0
100
AcDbLine
 10
366.5822893229119
 20
78.9446950696908
 30
0.0
 11
366.971892322912
 21
78.9446950696908
 31
0.0
  0
LINE
  5
6F0
330
2
100
AcDbEntity
  8
0
100
AcDbLine
 10
371.8322893229119
 20
78.9446950696908
 30
0.0
 11
371.8322893229119
 21
78.12437506969081
 31
0.0
  0
LINE
  5
6F1
330
2
100
AcDbEntity
  8
0
100
AcDbLine
 10
371.611296322912
 20
78.9446950696908
 30
0.0
 11
371.8322893229119
 21
78.9446950696908
 31
0.0
  0
ARC
  5
6F2
330
2
100
AcDbEntity
  8
0
100
AcDbCircle
 10
369.730193322912
 20
83.89732406969079
 30
0.0
 40
2.102050999999999
100
AcDbArc
 50
286.0181269999996
 51
90.00350999999964
  0
LINE
  5
6F3
330
2
100
AcDbEntity
  8
0
100
AcDbLine
 10
361.8040003229121
 20
85.03551506969079
 30
0.0
 11
363.1718893229119
 21
85.03551506969079
 31
0.0
  0
LINE
  5
6F4
330
2
100
AcDbEntity
  8
0
100
AcDbLine
 10
363.1718893229119
 20
85.03551506969079
 30
0.0
 11
363.409697322912
 21
84.35875706969079
 31
0.0
  0
LINE
  5
6F5
330
2
100
AcDbEntity
  8
0
100
AcDbLine
 10
363.409697322912
 20
84.35875706969079
 30
0.0
 11
363.9572893229119
 21
84.35875706969079
 31
0.0
  0
LINE
  5
6F6
330
2
100
AcDbEntity
  8
0
100
AcDbLine
 10
363.9572893229119
 20
84.35875706969079
 30
0.0
 11
363.9572893229119
 21
85.99937506969082
 31
0.0
  0
LINE
  5
6F7
330
2
100
AcDbEntity
  8
0
100
AcDbLine
 10
367.874297322912
 20
81.80553506969079
 30
0.0
 11
369.554595322912
 21
81.80553506969079
 31
0.0
  0
LINE
  5
6F8
330
2
100
AcDbEntity
  8
0
100
AcDbLine
 10
367.874297322912
 20
82.62565706969075
 30
0.0
 11
369.895690322912
 21
82.62565706969075
 31
0.0
  0
LINE
  5
6F9
330
2
100
AcDbEntity
  8
0
100
AcDbLine
 10
367.874297322912
 20
85.03551506969079
 30
0.0
 11
370.324187322912
 21
85.03391306969081
 31
0.0
  0
LINE
  5
6FA
330
2
100
AcDbEntity
  8
0
100
AcDbLine
 10
366.5822893229119
 20
85.03551506969079
 30
0.0
 11
366.971892322912
 21
85.03551506969079
 31
0.0
  0
LINE
  5
6FB
330
2
100
AcDbEntity
  8
0
100
AcDbLine
 10
367.874297322912
 20
85.03551506969079
 30
0.0
 11
367.874297322912
 21
82.62565706969075
 31
0.0
  0
LINE
  5
6FC
330
2
100
AcDbEntity
  8
0
100
AcDbLine
 10
366.5822893229119
 20
85.99937506969082
 30
0.0
 11
366.5822893229119
 21
85.03551506969079
 31
0.0
  0
LINE
  5
6FD
330
2
100
AcDbEntity
  8
0
100
AcDbLine
 10
366.5822893229119
 20
85.99937506969082
 30
0.0
 11
369.730193322912
 21
85.99937506969082
 31
0.0
  0
ARC
  5
6FE
330
2
100
AcDbEntity
  8
0
100
AcDbCircle
 10
369.730193322912
 20
83.89732406969079
 30
0.0
 40
1.282395
100
AcDbArc
 50
277.4147260000003
 51
62.41184999999968
  0
LINE
  5
6FF
330
2
100
AcDbEntity
  8
0
100
AcDbLine
 10
394.729186322912
 20
71.1243820696908
 30
0.0
 11
394.444991322912
 21
70.84013406969074
 31
0.0
  0
ARC
  5
700
330
2
100
AcDbEntity
  8
0
100
AcDbCircle
 10
398.3322893229119
 20
74.12437506969081
 30
0.0
 40
3.0
100
AcDbArc
 50
270.0
 51
0.0
  0
LINE
  5
701
330
2
100
AcDbEntity
  8
0
100
AcDbLine
 10
398.3322893229119
 20
71.1243820696908
 30
0.0
 11
394.729186322912
 21
71.1243820696908
 31
0.0
  0
ARC
  5
702
330
2
100
AcDbEntity
  8
0
100
AcDbCircle
 10
396.3322893229119
 20
119.0532690696907
 30
0.0
 40
5.0
100
AcDbArc
 50
0.0
 51
45.00017900000002
  0
ARC
  5
703
330
2
100
AcDbEntity
  8
0
100
AcDbCircle
 10
382.3322893229119
 20
132.7574770696908
 30
0.0
 40
2.0
100
AcDbArc
 50
0.0
 51
89.00013700000005
  0
LINE
  5
704
330
2
100
AcDbEntity
  8
0
100
AcDbLine
 10
382.367186322912
 20
134.7572790696907
 30
0.0
 11
361.3322893229119
 21
135.1243750696908
 31
0.0
  0
ARC
  5
705
330
2
100
AcDbEntity
  8
0
100
AcDbCircle
 10
383.261290322912
 20
132.1243750696908
 30
0.0
 40
5.0
100
AcDbArc
 50
45.00017900000002
 51
74.00828549988607
  0
LINE
  5
706
330
2
100
AcDbEntity
  8
0
100
AcDbLine
 10
63.83228932291206
 20
283.535327935624
 30
0.0
 11
110.332293322912
 21
283.535327935624
 31
0.0
  0
LINE
  5
707
330
2
100
AcDbEntity
  8
0
100
AcDbLine
 10
63.83228932291206
 20
333.535327935624
 30
0.0
 11
110.332293322912
 21
333.535327935624
 31
0.0
  0
LINE
  5
708
330
2
100
AcDbEntity
  8
0
100
AcDbLine
 10
66.33228932291206
 20
349.535327935624
 30
0.0
 11
110.332293322912
 21
349.535327935624
 31
0.0
  0
LINE
  5
709
330
2
100
AcDbEntity
  8
CENTER
100
AcDbLine
 10
47.02604532291206
 20
309.5353279356241
 30
0.0
 11
270.0822893229119
 21
309.5353279356241
 31
0.0
  0
ARC
  5
70A
330
2
100
AcDbEntity
  8
0
100
AcDbCircle
 10
66.33228932291206
 20
344.535327935624
 30
0.0
 40
5.0
100
AcDbArc
 50
90.0
 51
180.0
  0
LINE
  5
70B
330
2
100
AcDbEntity
  8
0
100
AcDbLine
 10
119.832293322912
 20
347.535327935624
 30
0.0
 11
233.832289322912
 21
347.535327935624
 31
0.0
  0
LINE
  5
70C
330
2
100
AcDbEntity
  8
0
100
AcDbLine
 10
160.8320953229121
 20
286.5353279356241
 30
0.0
 11
233.832289322912
 21
286.5353279356241
 31
0.0
  0
LINE
  5
70D
330
2
100
AcDbEntity
  8
0
100
AcDbLine
 10
160.832293322912
 20
332.5353279356241
 30
0.0
 11
233.832289322912
 21
332.5353279356241
 31
0.0
  0
LINE
  5
70E
330
2
100
AcDbEntity
  8
0
100
AcDbLine
 10
119.832293322912
 20
347.535327935624
 30
0.0
 11
119.832293322912
 21
334.535327935624
 31
0.0
  0
LINE
  5
713
330
2
100
AcDbEntity
  8
0
100
AcDbLine
 10
110.832186322912
 20
286.5353279356241
 30
0.0
 11
110.332293322912
 21
286.5353279356241
 31
0.0
  0
LINE
  5
71E
330
2
100
AcDbEntity
  8
0
100
AcDbLine
 10
110.832186322912
 20
332.5353279356241
 30
0.0
 11
110.332293322912
 21
332.5353279356241
 31
0.0
  0
LINE
  5
71F
330
2
100
AcDbEntity
  8
0
100
AcDbLine
 10
119.832293322912
 20
347.535327935624
 30
0.0
 11
110.332293322912
 21
347.535327935624
 31
0.0
  0
ARC
  5
720
330
2
100
AcDbEntity
  8
HIDS
100
AcDbCircle
 10
226.332289322912
 20
347.535327935624
 30
0.0
 40
3.25
100
AcDbArc
 50
180.0
 51
0.0
  0
ARC
  5
721
330
2
100
AcDbEntity
  8
HIDS
100
AcDbCircle
 10
191.332293322912
 20
347.535327935624
 30
0.0
 40
3.25
100
AcDbArc
 50
180.0
 51
0.0
  0
LINE
  5
722
330
2
100
AcDbEntity
  8
CENTER
100
AcDbLine
 10
191.332293322912
 20
353.160327935624
 30
0.0
 11
191.332293322912
 21
342.285327935624
 31
0.0
  0
LINE
  5
723
330
2
100
AcDbEntity
  8
CENTER
100
AcDbLine
 10
226.332289322912
 20
353.660327935624
 30
0.0
 11
226.332289322912
 21
341.285327935624
 31
0.0
  0
LINE
  5
724
330
2
100
AcDbEntity
  8
0
100
AcDbLine
 10
237.3322893229119
 20
293.0353279356241
 30
0.0
 11
237.3322893229119
 21
326.0353279356241
 31
0.0
  0
LINE
  5
725
330
2
100
AcDbEntity
  8
0
100
AcDbLine
 10
239.3322893229119
 20
317.035327935624
 30
0.0
 11
239.3322893229119
 21
302.035327935624
 31
0.0
  0
LINE
  5
726
330
2
100
AcDbEntity
  8
0
100
AcDbLine
 10
261.3322893229119
 20
302.035327935624
 30
0.0
 11
261.3322893229119
 21
315.5353279356241
 31
0.0
  0
LINE
  5
727
330
2
100
AcDbEntity
  8
0
100
AcDbLine
 10
241.3322893229119
 20
303.878330935624
 30
0.0
 11
261.3322893229119
 21
303.878330935624
 31
0.0
  0
LINE
  5
728
330
2
100
AcDbEntity
  8
0
100
AcDbLine
 10
241.3322893229119
 20
302.035327935624
 30
0.0
 11
261.3322893229119
 21
302.035327935624
 31
0.0
  0
ARC
  5
729
330
2
100
AcDbEntity
  8
0
100
AcDbCircle
 10
236.332289322912
 20
293.0353279356241
 30
0.0
 40
1.0
100
AcDbArc
 50
270.0
 51
0.0
  0
LINE
  5
72A
330
2
100
AcDbEntity
  8
0
100
AcDbLine
 10
236.332289322912
 20
292.035327935624
 30
0.0
 11
233.832289322912
 21
292.035327935624
 31
0.0
  0
LINE
  5
72B
330
2
100
AcDbEntity
  8
0
100
AcDbLine
 10
237.3322893229119
 20
302.035327935624
 30
0.0
 11
239.3322893229119
 21
302.035327935624
 31
0.0
  0
LINE
  5
72C
330
2
100
AcDbEntity
  8
0
100
AcDbLine
 10
241.3322893229119
 20
303.878330935624
 30
0.0
 11
241.3322893229119
 21
302.035327935624
 31
0.0
  0
LINE
  5
72D
330
2
100
AcDbEntity
  8
0
100
AcDbLine
 10
239.3322893229119
 20
303.535327935624
 30
0.0
 11
241.3322893229119
 21
303.535327935624
 31
0.0
  0
LINE
  5
72E
330
2
100
AcDbEntity
  8
0
100
AcDbLine
 10
239.3322893229119
 20
315.5353279356241
 30
0.0
 11
261.3322893229119
 21
315.5353279356241
 31
0.0
  0
LINE
  5
72F
330
2
100
AcDbEntity
  8
0
100
AcDbLine
 10
237.3322893229119
 20
317.035327935624
 30
0.0
 11
239.3322893229119
 21
317.035327935624
 31
0.0
  0
ARC
  5
730
330
2
100
AcDbEntity
  8
0
100
AcDbCircle
 10
236.332289322912
 20
326.0353279356241
 30
0.0
 40
1.0
100
AcDbArc
 50
0.0
 51
90.0
  0
LINE
  5
731
330
2
100
AcDbEntity
  8
0
100
AcDbLine
 10
236.332289322912
 20
327.035327935624
 30
0.0
 11
233.832289322912
 21
327.035327935624
 31
0.0
  0
LINE
  5
732
330
2
100
AcDbEntity
  8
0
100
AcDbLine
 10
185.832293322912
 20
354.535327935624
 30
0.0
 11
231.832289322912
 21
354.535327935624
 31
0.0
  0
ARC
  5
733
330
2
100
AcDbEntity
  8
0
100
AcDbCircle
 10
185.832293322912
 20
352.535327935624
 30
0.0
 40
2.0
100
AcDbArc
 50
90.0
 51
180.0
  0
LINE
  5
734
330
2
100
AcDbEntity
  8
0
100
AcDbLine
 10
183.832293322912
 20
352.535327935624
 30
0.0
 11
183.832293322912
 21
347.535327935624
 31
0.0
  0
LINE
  5
735
330
2
100
AcDbEntity
  8
CENTER
100
AcDbLine
 10
186.082293322912
 20
347.535327935624
 30
0.0
 11
196.332293322912
 21
347.535327935624
 31
0.0
  0
ARC
  5
736
330
2
100
AcDbEntity
  8
0
100
AcDbCircle
 10
191.332293322912
 20
347.535327935624
 30
0.0
 40
3.25
100
AcDbArc
 50
0.0
 51
180.0
  0
LINE
  5
737
330
2
100
AcDbEntity
  8
0
100
AcDbLine
 10
201.332293322912
 20
353.910327935624
 30
0.0
 11
201.332293322912
 21
347.535327935624
 31
0.0
  0
LINE
  5
738
330
2
100
AcDbEntity
  8
0
100
AcDbLine
 10
216.332293322912
 20
353.910327935624
 30
0.0
 11
216.332293322912
 21
347.535327935624
 31
0.0
  0
ARC
  5
739
330
2
100
AcDbEntity
  8
0
100
AcDbCircle
 10
231.832289322912
 20
352.535327935624
 30
0.0
 40
2.0
100
AcDbArc
 50
0.0
 51
90.0
  0
LINE
  5
73A
330
2
100
AcDbEntity
  8
CENTER
100
AcDbLine
 10
221.082289322912
 20
347.535327935624
 30
0.0
 11
231.707289322912
 21
347.535327935624
 31
0.0
  0
ARC
  5
73B
330
2
100
AcDbEntity
  8
0
100
AcDbCircle
 10
226.332289322912
 20
347.535327935624
 30
0.0
 40
3.25
100
AcDbArc
 50
0.0
 51
180.0
  0
TEXT
  5
73C
330
2
100
AcDbEntity
  8
TITLE
100
AcDbText
 10
291.3909445525254
 20
298.4314745349461
 30
0.0
 40
5.0
  1
GLMN-12-5~60-T40K
100
AcDbText
  0
TEXT
  5
73D
330
2
100
AcDbEntity
  8
TITLE
100
AcDbText
 10
291.3909445525254
 20
332.7171888206605
 30
0.0
 40
5.0
  1
GLMN-12-5~240-T15K
100
AcDbText
  0
TEXT
  5
73E
330
2
100
AcDbEntity
  8
TITLE
100
AcDbText
 10
400.9090527967559
 20
332.7171888206605
 30
0.0
 40
5.0
  1
GLMN-12-5~240-S15K
100
AcDbText
  0
TEXT
  5
740
330
2
100
AcDbEntity
  8
TITLE
100
AcDbText
 10
400.9090527967559
 20
289.8600459635176
 30
0.0
 40
5.0
  1
GLMN-12-5~60-S40WK
100
AcDbText
  0
TEXT
  5
741
330
2
100
AcDbEntity
  8
TITLE
100
AcDbText
 10
291.3909445525254
 20
289.8600459635176
 30
0.0
 40
5.0
  1
GLMN-12-5~60-T40WK
100
AcDbText
  0
TEXT
  5
742
330
2
100
AcDbEntity
  8
TITLE
100
AcDbText
 10
400.9090527967559
 20
307.0029031063747
 30
0.0
 40
5.0
  1
GLMN-12-5~120-S25WK
100
AcDbText
  0
TEXT
  5
743
330
2
100
AcDbEntity
  8
TITLE
100
AcDbText
 10
291.3909445525254
 20
307.0029031063747
 30
0.0
 40
5.0
  1
GLMN-12-5~120-T25WK
100
AcDbText
  0
TEXT
  5
744
330
2
100
AcDbEntity
  8
TITLE
100
AcDbText
 10
400.9090527967559
 20
324.1457602492319
 30
0.0
 40
5.0
  1
GLMN-12-5~240-S15WK
100
AcDbText
  0
TEXT
  5
745
330
2
100
AcDbEntity
  8
TITLE
100
AcDbText
 10
291.3909445525254
 20
324.1457602492319
 30
0.0
 40
5.0
  1
GLMN-12-5~240-T15WK
100
AcDbText
  0
LINE
  5
130B
330
2
100
AcDbEntity
  8
0
100
AcDbLine
 10
386.3322743229119
 20
180.6243900696907
 30
0.0
 11
386.3322743229119
 21
138.6243750696907
 31
0.0
  0
LINE
  5
130D
330
2
100
AcDbEntity
  8
0
100
AcDbLine
 10
336.3322893229119
 20
180.6243900696907
 30
0.0
 11
336.3322893229119
 21
138.6243750696907
 31
0.0
  0
LINE
  5
130E
330
2
100
AcDbEntity
  8
0
100
AcDbLine
 10
160.832293322912
 20
180.6243900696907
 30
0.0
 11
160.832293322912
 21
138.6243750696907
 31
0.0
  0
LINE
  5
130F
330
2
100
AcDbEntity
  8
0
100
AcDbLine
 10
110.832286322912
 20
180.6243900696907
 30
0.0
 11
110.832286322912
 21
138.6243750696907
 31
0.0
  0
LINE
  5
1310
330
2
100
AcDbEntity
  8
CENTER
100
AcDbLine
 10
135.832293322912
 20
130.2348790696908
 30
0.0
 11
135.832293322912
 21
187.0118900696907
 31
0.0
  0
LINE
  5
1313
330
2
100
AcDbEntity
  8
CENTER
100
AcDbLine
 10
105.7886863417035
 20
164.6243750696907
 30
0.0
 11
165.8759003041206
 21
164.6243750696907
 31
0.0
  0
LINE
  5
1314
330
2
100
AcDbEntity
  8
0
100
AcDbLine
 10
110.832286322912
 20
149.6243750696907
 30
0.0
 11
160.832293322912
 21
149.6243750696907
 31
0.0
  0
LINE
  5
1315
330
2
100
AcDbEntity
  8
0
100
AcDbLine
 10
110.832286322912
 20
138.6243750696907
 30
0.0
 11
160.832293322912
 21
138.6243750696907
 31
0.0
  0
LINE
  5
1316
330
2
100
AcDbEntity
  8
0
100
AcDbLine
 10
110.832286322912
 20
148.6243750696907
 30
0.0
 11
160.832293322912
 21
148.6243750696907
 31
0.0
  0
LINE
  5
1317
330
2
100
AcDbEntity
  8
0
100
AcDbLine
 10
112.332286322912
 20
136.6243750696908
 30
0.0
 11
158.832293322912
 21
136.6243750696908
 31
0.0
  0
LINE
  5
1319
330
2
100
AcDbEntity
  8
0
100
AcDbLine
 10
112.332286322912
 20
136.6243750696908
 30
0.0
 11
112.332286322912
 21
135.1243750696908
 31
0.0
  0
LINE
  5
131A
330
2
100
AcDbEntity
  8
0
100
AcDbLine
 10
110.832286322912
 20
138.6243750696907
 30
0.0
 11
112.832286322912
 21
136.6243750696908
 31
0.0
  0
LINE
  5
131B
330
2
100
AcDbEntity
  8
0
100
AcDbLine
 10
109.957286322912
 20
154.1243750696907
 30
0.0
 11
111.957286322912
 21
154.1243750696907
 31
0.0
  0
LINE
  5
131C
330
2
100
AcDbEntity
  8
0
100
AcDbLine
 10
158.832293322912
 20
136.6243750696908
 30
0.0
 11
160.832293322912
 21
138.6243750696907
 31
0.0
  0
LINE
  5
131D
330
2
100
AcDbEntity
  8
0
100
AcDbLine
 10
158.332293322912
 20
136.6243750696908
 30
0.0
 11
158.332293322912
 21
135.1243750696908
 31
0.0
  0
LINE
  5
131E
330
2
100
AcDbEntity
  8
CENTER
100
AcDbLine
 10
331.2886823417034
 20
164.6243750696907
 30
0.0
 11
391.3758963041205
 21
164.6243750696907
 31
0.0
  0
LINE
  5
131F
330
2
100
AcDbEntity
  8
0
100
AcDbLine
 10
336.3322893229119
 20
149.6243750696907
 30
0.0
 11
386.3322743229119
 21
149.6243750696907
 31
0.0
  0
LINE
  5
1320
330
2
100
AcDbEntity
  8
0
100
AcDbLine
 10
336.3322893229119
 20
138.6243750696907
 30
0.0
 11
386.3322743229119
 21
138.6243750696907
 31
0.0
  0
LINE
  5
1321
330
2
100
AcDbEntity
  8
0
100
AcDbLine
 10
336.3322893229119
 20
148.6243750696907
 30
0.0
 11
386.3322743229119
 21
148.6243750696907
 31
0.0
  0
LINE
  5
1323
330
2
100
AcDbEntity
  8
0
100
AcDbLine
 10
338.3322893229119
 20
136.6243750696907
 30
0.0
 11
384.332274322912
 21
136.6243750696907
 31
0.0
  0
LINE
  5
1324
330
2
100
AcDbEntity
  8
0
100
AcDbLine
 10
336.3322893229119
 20
138.6243750696907
 30
0.0
 11
338.3322893229119
 21
136.6243750696907
 31
0.0
  0
LINE
  5
1325
330
2
100
AcDbEntity
  8
0
100
AcDbLine
 10
338.8322893229119
 20
136.6243750696907
 30
0.0
 11
338.8322893229119
 21
134.0803527252231
 31
0.0
  0
LINE
  5
1326
330
2
100
AcDbEntity
  8
0
100
AcDbLine
 10
383.8322743229119
 20
136.6243750696907
 30
0.0
 11
383.832274322912
 21
134.0803697334299
 31
0.0
  0
LINE
  5
1327
330
2
100
AcDbEntity
  8
0
100
AcDbLine
 10
384.332274322912
 20
136.6243750696907
 30
0.0
 11
386.3322743229119
 21
138.6243750696907
 31
0.0
  0
LINE
  5
1329
330
2
100
AcDbEntity
  8
0
100
AcDbLine
 10
158.832095322912
 20
327.035327935624
 30
0.0
 11
158.832095322912
 21
292.035327935624
 31
0.0
  0
LINE
  5
132A
330
2
100
AcDbEntity
  8
0
100
AcDbLine
 10
160.832293322912
 20
332.5353279356241
 30
0.0
 11
160.832095322912
 21
286.5353279356241
 31
0.0
  0
LINE
  5
132B
330
2
100
AcDbEntity
  8
CENTER
100
AcDbLine
 10
135.832293322912
 20
279.4917209544156
 30
0.0
 11
135.832293322912
 21
339.5789349168325
 31
0.0
  0
LINE
  5
132C
330
2
100
AcDbEntity
  8
0
100
AcDbLine
 10
112.832186322912
 20
327.035327935624
 30
0.0
 11
112.832186322912
 21
292.035327935624
 31
0.0
  0
LINE
  5
132D
330
2
100
AcDbEntity
  8
0
100
AcDbLine
 10
110.832186322912
 20
286.5353279356241
 30
0.0
 11
110.832186322912
 21
332.5353279356241
 31
0.0
  0
LINE
  5
132E
330
2
100
AcDbEntity
  8
0
100
AcDbLine
 10
112.832186322912
 20
284.535327935624
 30
0.0
 11
158.832095322912
 21
284.535327935624
 31
0.0
  0
LINE
  5
132F
330
2
100
AcDbEntity
  8
0
100
AcDbLine
 10
153.3320953229121
 20
286.5353279356241
 30
0.0
 11
118.332186322912
 21
286.5353279356241
 31
0.0
  0
LINE
  5
1330
330
2
100
AcDbEntity
  8
0
100
AcDbLine
 10
118.332293322912
 20
180.6243900696907
 30
0.0
 11
153.332293322912
 21
180.6243900696907
 31
0.0
  0
LINE
  5
1331
330
2
100
AcDbEntity
  8
0
100
AcDbLine
 10
115.6702021389386
 20
181.6243900696907
 30
0.0
 11
155.9943845068857
 21
181.6243900696908
 31
0.0
  0
LINE
  5
1333
330
2
100
AcDbEntity
  8
0
100
AcDbLine
 10
118.332293322912
 20
179.1243900696908
 30
0.0
 11
110.832293322912
 21
179.1243900696908
 31
0.0
  0
LINE
  5
1334
330
2
100
AcDbEntity
  8
0
100
AcDbLine
 10
118.332293322912
 20
181.1243900696908
 30
0.0
 11
117.2772707125324
 21
181.1243900696908
 31
0.0
  0
ARC
  5
1335
330
2
100
AcDbEntity
  8
0
100
AcDbCircle
 10
116.4393040765049
 20
180.1305027939372
 30
0.0
 40
1.3
100
AcDbArc
 50
4.999999999999743
 51
74.11914999171549
  0
LINE
  5
1336
330
2
100
AcDbEntity
  8
0
100
AcDbLine
 10
117.832293322912
 20
179.1243900696908
 30
0.0
 11
117.7343571840241
 21
180.2438052595091
 31
0.0
  0
LINE
  5
1337
330
2
100
AcDbEntity
  8
0
100
AcDbLine
 10
110.832293322912
 20
179.1243900696908
 30
0.0
 11
110.9302294617999
 21
180.2438052595091
 31
0.0
  0
LINE
  5
1338
330
2
100
AcDbEntity
  8
0
100
AcDbLine
 10
109.957286322912
 20
175.1243750696907
 30
0.0
 11
111.957286322912
 21
175.1243750696907
 31
0.0
  0
SPLINE
  5
1339
330
2
100
AcDbEntity
  8
0
100
AcDbSpline
210
0.0
220
0.0
230
1.0
 70
     8
 71
     3
 72
    11
 73
     7
 74
     0
 42
0.0000000001
 43
0.0000000001
 40
0.0
 40
0.0
 40
0.0
 40
0.0
 40
0.4601364636755307
 40
1.04988694485363
 40
1.713742833862792
 40
2.320347933405154
 40
2.320347933405154
 40
2.320347933405154
 40
2.320347933405179
 10
114.619793323367
 20
180.2073900696908
 30
0.0
 10
114.6422109804749
 20
180.3624135093707
 30
0.0
 10
114.6933610357081
 20
180.7161283272882
 30
0.0
 10
115.1292461972417
 20
181.1408559988899
 30
0.0
 10
115.7342969122491
 20
181.3600431788557
 30
0.0
 10
116.159481536425
 20
181.2910518792451
 30
0.0
 10
116.362033146076
 20
181.2768316070684
 30
0.0
  0
LINE
  5
133A
330
2
100
AcDbEntity
  8
0
100
AcDbLine
 10
116.362033146076
 20
181.2768316070684
 30
0.0
 11
116.382293322912
 21
181.48780835253
 31
0.0
  0
LINE
  5
133B
330
2
100
AcDbEntity
  8
0
100
AcDbLine
 10
114.0447933224569
 20
180.2073900696908
 30
0.0
 11
114.619793323367
 21
180.2073900696908
 31
0.0
  0
LINE
  5
133C
330
2
100
AcDbEntity
  8
0
100
AcDbLine
 10
112.9943845068855
 20
181.6243900696908
 30
0.0
 11
111.832293322912
 21
181.6243900696908
 31
0.0
  0
ARC
  5
133D
330
2
100
AcDbEntity
  8
0
100
AcDbCircle
 10
112.2252825693191
 20
180.1305027939372
 30
0.0
 40
1.3
100
AcDbArc
 50
105.8808500082777
 51
175.0000000000002
  0
LINE
  5
133E
330
2
100
AcDbEntity
  8
0
100
AcDbLine
 10
112.3025534997478
 20
181.2768316070684
 30
0.0
 11
112.2822933229119
 21
181.48780835253
 31
0.0
  0
LINE
  5
133F
330
2
100
AcDbEntity
  8
0
100
AcDbLine
 10
111.832293322912
 20
181.6243900696908
 30
0.0
 11
110.832293322912
 21
180.6243900696907
 31
0.0
  0
ARC
  5
1340
330
2
100
AcDbEntity
  8
0
100
AcDbCircle
 10
114.332293322912
 20
172.7243900696908
 30
0.0
 40
9.0
100
AcDbArc
 50
74.11914999171549
 51
105.8808500082777
  0
SPLINE
  5
1341
330
2
100
AcDbEntity
  8
0
100
AcDbSpline
210
0.0
220
0.0
230
1.0
 70
     8
 71
     3
 72
    11
 73
     7
 74
     0
 42
0.0000000001
 43
0.0000000001
 40
0.0
 40
0.0
 40
0.0
 40
0.0
 40
0.4601364636755307
 40
1.04988694485363
 40
1.713742833862792
 40
2.320347933405154
 40
2.320347933405154
 40
2.320347933405154
 40
2.320347933405179
 10
114.0447933224569
 20
180.2073900696908
 30
0.0
 10
114.0223756653491
 20
180.3624135093707
 30
0.0
 10
113.9712256101157
 20
180.7161283272882
 30
0.0
 10
113.5353404485822
 20
181.1408559988899
 30
0.0
 10
112.9302897335747
 20
181.3600431788557
 30
0.0
 10
112.5051051093989
 20
181.2910518792451
 30
0.0
 10
112.3025534997478
 20
181.2768316070684
 30
0.0
  0
LINE
  5
1342
330
2
100
AcDbEntity
  8
0
100
AcDbLine
 10
118.332293322912
 20
179.1243900696908
 30
0.0
 11
118.332293322912
 21
181.1243900696908
 31
0.0
  0
LINE
  5
1343
330
2
100
AcDbEntity
  8
0
100
AcDbLine
 10
118.832293322912
 20
181.6243900696908
 30
0.0
 11
118.332293322912
 21
181.1243900696908
 31
0.0
  0
ARC
  5
1344
330
2
100
AcDbEntity
  8
0
100
AcDbCircle
 10
114.332186322912
 20
288.0352359356241
 30
0.0
 40
4.0
100
AcDbArc
 50
0.0
 51
90.0
  0
CIRCLE
  5
1345
330
2
100
AcDbEntity
  8
0
100
AcDbCircle
 10
114.332186322912
 20
288.0352359356241
 30
0.0
 40
3.500000000000028
  0
ARC
  5
1346
330
2
100
AcDbEntity
  8
0
100
AcDbCircle
 10
116.361886322912
 20
290.064935935624
 30
0.0
 40
1.742199999999999
100
AcDbArc
 50
179.9986903345002
 51
270.0013096654997
  0
ARC
  5
1347
330
2
100
AcDbEntity
  8
0
100
AcDbCircle
 10
114.332186322912
 20
288.0352359356241
 30
0.0
 40
2.049999999999998
100
AcDbArc
 50
0.0
 51
8.061960083982105
  0
ARC
  5
1348
330
2
100
AcDbEntity
  8
0
100
AcDbCircle
 10
114.332186322912
 20
288.0352359356241
 30
0.0
 40
2.049999999999998
100
AcDbArc
 50
90.0
 51
98.06196008398188
  0
ARC
  5
1349
330
2
100
AcDbEntity
  8
0
100
AcDbCircle
 10
114.332186322912
 20
288.0352359356241
 30
0.0
 40
2.049999999999998
100
AcDbArc
 50
81.93803991601813
 51
90.0
  0
ARC
  5
134A
330
2
100
AcDbEntity
  8
0
100
AcDbCircle
 10
116.361886322912
 20
286.0055359356241
 30
0.0
 40
1.742199999999999
100
AcDbArc
 50
89.99869033450025
 51
180.0013096654997
  0
ARC
  5
134B
330
2
100
AcDbEntity
  8
0
100
AcDbCircle
 10
114.332186322912
 20
288.0352359356241
 30
0.0
 40
2.049999999999998
100
AcDbArc
 50
351.9380399160179
 51
0.0
  0
ARC
  5
134C
330
2
100
AcDbEntity
  8
0
100
AcDbCircle
 10
114.332186322912
 20
288.0352359356241
 30
0.0
 40
2.049999999999998
100
AcDbArc
 50
261.9380399160181
 51
270.0
  0
ARC
  5
134D
330
2
100
AcDbEntity
  8
0
100
AcDbCircle
 10
114.332186322912
 20
288.0352359356241
 30
0.0
 40
2.049999999999998
100
AcDbArc
 50
270.0
 51
278.0619600839818
  0
ARC
  5
134E
330
2
100
AcDbEntity
  8
0
100
AcDbCircle
 10
114.332186322912
 20
288.0352359356241
 30
0.0
 40
2.049999999999998
100
AcDbArc
 50
171.9380399160178
 51
180.0
  0
LINE
  5
134F
330
2
100
AcDbEntity
  8
0
100
AcDbLine
 10
110.832186322912
 20
286.5353279356241
 30
0.0
 11
112.832186322912
 21
284.535327935624
 31
0.0
  0
ARC
  5
1350
330
2
100
AcDbEntity
  8
0
100
AcDbCircle
 10
114.332186322912
 20
288.0352359356241
 30
0.0
 40
2.049999999999998
100
AcDbArc
 50
180.0
 51
188.0619600839821
  0
ARC
  5
1351
330
2
100
AcDbEntity
  8
0
100
AcDbCircle
 10
112.3024863229119
 20
290.064935935624
 30
0.0
 40
1.742199999999999
100
AcDbArc
 50
269.9986903345067
 51
0.0013096654997424
  0
ARC
  5
1352
330
2
100
AcDbEntity
  8
0
100
AcDbCircle
 10
112.3024863229119
 20
286.0055359356241
 30
0.0
 40
1.742199999999999
100
AcDbArc
 50
359.9986903345002
 51
90.00130966549322
  0
LINE
  5
1353
330
2
100
AcDbEntity
  8
0
100
AcDbLine
 10
114.332186322912
 20
292.035327935624
 30
0.0
 11
110.832186322912
 21
292.035327935624
 31
0.0
  0
LINE
  5
1354
330
2
100
AcDbEntity
  8
0
100
AcDbLine
 10
118.332186322912
 20
288.0352359356241
 30
0.0
 11
118.332186322912
 21
284.535327935624
 31
0.0
  0
LINE
  5
1355
330
2
100
AcDbEntity
  8
0
100
AcDbLine
 10
160.832293322912
 20
179.1243900696908
 30
0.0
 11
160.7343571840242
 21
180.2438052595091
 31
0.0
  0
LINE
  5
1356
330
2
100
AcDbEntity
  8
0
100
AcDbLine
 10
153.332293322912
 20
179.1243900696908
 30
0.0
 11
153.332293322912
 21
181.1243900696908
 31
0.0
  0
LINE
  5
1357
330
2
100
AcDbEntity
  8
0
100
AcDbLine
 10
153.8322933229121
 20
179.1243900696908
 30
0.0
 11
153.9302294617999
 21
180.2438052595091
 31
0.0
  0
LINE
  5
1358
330
2
100
AcDbEntity
  8
0
100
AcDbLine
 10
153.332293322912
 20
179.1243900696908
 30
0.0
 11
160.832293322912
 21
179.1243900696908
 31
0.0
  0
LINE
  5
1359
330
2
100
AcDbEntity
  8
0
100
AcDbLine
 10
159.832293322912
 20
181.6243900696908
 30
0.0
 11
160.832293322912
 21
180.6243900696907
 31
0.0
  0
ARC
  5
135A
330
2
100
AcDbEntity
  8
0
100
AcDbCircle
 10
159.4393040765049
 20
180.1305027939372
 30
0.0
 40
1.3
100
AcDbArc
 50
4.999999999999743
 51
74.11914999171549
  0
SPLINE
  5
135B
330
2
100
AcDbEntity
  8
0
100
AcDbSpline
210
0.0
220
0.0
230
1.0
 70
     8
 71
     3
 72
    11
 73
     7
 74
     0
 42
0.0000000001
 43
0.0000000001
 40
0.0
 40
0.0
 40
0.0
 40
0.0
 40
0.4601364636755307
 40
1.04988694485363
 40
1.713742833862792
 40
2.320347933405154
 40
2.320347933405154
 40
2.320347933405154
 40
2.320347933405179
 10
157.6197933233671
 20
180.2073900696908
 30
0.0
 10
157.642210980475
 20
180.3624135093707
 30
0.0
 10
157.6933610357083
 20
180.7161283272882
 30
0.0
 10
158.1292461972419
 20
181.1408559988899
 30
0.0
 10
158.7342969122493
 20
181.3600431788557
 30
0.0
 10
159.1594815364252
 20
181.2910518792451
 30
0.0
 10
159.3620331460762
 20
181.2768316070684
 30
0.0
  0
LINE
  5
135C
330
2
100
AcDbEntity
  8
0
100
AcDbLine
 10
157.6197933233671
 20
180.2073900696908
 30
0.0
 11
157.0447933224571
 21
180.2073900696908
 31
0.0
  0
LINE
  5
135D
330
2
100
AcDbEntity
  8
0
100
AcDbLine
 10
159.3620331460762
 20
181.2768316070684
 30
0.0
 11
159.3822933229122
 21
181.48780835253
 31
0.0
  0
LINE
  5
135E
330
2
100
AcDbEntity
  8
0
100
AcDbLine
 10
158.6702021389386
 20
181.6243900696908
 30
0.0
 11
159.832293322912
 21
181.6243900696908
 31
0.0
  0
LINE
  5
135F
330
2
100
AcDbEntity
  8
0
100
AcDbLine
 10
152.832293322912
 20
181.6243900696908
 30
0.0
 11
153.332293322912
 21
181.1243900696908
 31
0.0
  0
LINE
  5
1360
330
2
100
AcDbEntity
  8
0
100
AcDbLine
 10
153.332293322912
 20
181.1243900696908
 30
0.0
 11
154.3873159332916
 21
181.1243900696908
 31
0.0
  0
ARC
  5
1361
330
2
100
AcDbEntity
  8
0
100
AcDbCircle
 10
155.2252825693191
 20
180.1305027939372
 30
0.0
 40
1.3
100
AcDbArc
 50
105.8808500082777
 51
175.0000000000002
  0
LINE
  5
1362
330
2
100
AcDbEntity
  8
0
100
AcDbLine
 10
155.3025534997481
 20
181.2768316070684
 30
0.0
 11
155.2822933229121
 21
181.48780835253
 31
0.0
  0
SPLINE
  5
1363
330
2
100
AcDbEntity
  8
0
100
AcDbSpline
210
0.0
220
0.0
230
1.0
 70
     8
 71
     3
 72
    11
 73
     7
 74
     0
 42
0.0000000001
 43
0.0000000001
 40
0.0
 40
0.0
 40
0.0
 40
0.0
 40
0.4601364636755307
 40
1.04988694485363
 40
1.713742833862792
 40
2.320347933405154
 40
2.320347933405154
 40
2.320347933405154
 40
2.320347933405179
 10
157.0447933224571
 20
180.2073900696908
 30
0.0
 10
157.0223756653492
 20
180.3624135093707
 30
0.0
 10
156.971225610116
 20
180.7161283272882
 30
0.0
 10
156.5353404485823
 20
181.1408559988899
 30
0.0
 10
155.930289733575
 20
181.3600431788557
 30
0.0
 10
155.505105109399
 20
181.2910518792451
 30
0.0
 10
155.3025534997481
 20
181.2768316070684
 30
0.0
  0
ARC
  5
1364
330
2
100
AcDbEntity
  8
0
100
AcDbCircle
 10
157.3322933229121
 20
172.7243900696908
 30
0.0
 40
9.0
100
AcDbArc
 50
74.11914999171549
 51
105.8808500082777
  0
CIRCLE
  5
1365
330
2
100
AcDbEntity
  8
0
100
AcDbCircle
 10
157.332293322912
 20
288.0352359356241
 30
0.0
 40
3.500000000000028
  0
ARC
  5
1366
330
2
100
AcDbEntity
  8
0
100
AcDbCircle
 10
157.332293322912
 20
288.0352359356241
 30
0.0
 40
4.0
100
AcDbArc
 50
90.0
 51
180.0
  0
LINE
  5
1367
330
2
100
AcDbEntity
  8
0
100
AcDbLine
 10
158.832095322912
 20
284.535327935624
 30
0.0
 11
160.832095322912
 21
286.5353279356241
 31
0.0
  0
LINE
  5
1368
330
2
100
AcDbEntity
  8
0
100
AcDbLine
 10
160.832095322912
 20
286.5353279356241
 30
0.0
 11
158.832095322912
 21
284.535327935624
 31
0.0
  0
ARC
  5
1369
330
2
100
AcDbEntity
  8
0
100
AcDbCircle
 10
159.3619933229119
 20
290.064935935624
 30
0.0
 40
1.742199999999999
100
AcDbArc
 50
179.9986903345002
 51
270.0013096654997
  0
ARC
  5
136A
330
2
100
AcDbEntity
  8
0
100
AcDbCircle
 10
157.332293322912
 20
288.0352359356241
 30
0.0
 40
2.049999999999998
100
AcDbArc
 50
0.0
 51
8.061960083982105
  0
ARC
  5
136B
330
2
100
AcDbEntity
  8
0
100
AcDbCircle
 10
157.332293322912
 20
288.0352359356241
 30
0.0
 40
2.049999999999998
100
AcDbArc
 50
90.0
 51
98.06196008398188
  0
ARC
  5
136C
330
2
100
AcDbEntity
  8
0
100
AcDbCircle
 10
157.332293322912
 20
288.0352359356241
 30
0.0
 40
2.049999999999998
100
AcDbArc
 50
81.93803991601813
 51
90.0
  0
ARC
  5
136D
330
2
100
AcDbEntity
  8
0
100
AcDbCircle
 10
159.3619933229119
 20
286.0055359356241
 30
0.0
 40
1.742199999999999
100
AcDbArc
 50
89.99869033450025
 51
180.0013096654997
  0
ARC
  5
136E
330
2
100
AcDbEntity
  8
0
100
AcDbCircle
 10
157.332293322912
 20
288.0352359356241
 30
0.0
 40
2.049999999999998
100
AcDbArc
 50
351.9380399160179
 51
0.0
  0
ARC
  5
136F
330
2
100
AcDbEntity
  8
0
100
AcDbCircle
 10
157.332293322912
 20
288.0352359356241
 30
0.0
 40
2.049999999999998
100
AcDbArc
 50
261.9380399160181
 51
270.0
  0
ARC
  5
1370
330
2
100
AcDbEntity
  8
0
100
AcDbCircle
 10
157.332293322912
 20
288.0352359356241
 30
0.0
 40
2.049999999999998
100
AcDbArc
 50
270.0
 51
278.0619600839818
  0
ARC
  5
1371
330
2
100
AcDbEntity
  8
0
100
AcDbCircle
 10
157.332293322912
 20
288.0352359356241
 30
0.0
 40
2.049999999999998
100
AcDbArc
 50
171.9380399160178
 51
180.0
  0
ARC
  5
1372
330
2
100
AcDbEntity
  8
0
100
AcDbCircle
 10
157.332293322912
 20
288.0352359356241
 30
0.0
 40
2.049999999999998
100
AcDbArc
 50
180.0
 51
188.0619600839821
  0
LINE
  5
1373
330
2
100
AcDbEntity
  8
0
100
AcDbLine
 10
153.3320953229121
 20
288.0352359356241
 30
0.0
 11
153.3320953229121
 21
284.535327935624
 31
0.0
  0
ARC
  5
1374
330
2
100
AcDbEntity
  8
0
100
AcDbCircle
 10
155.3025933229118
 20
290.064935935624
 30
0.0
 40
1.742199999999999
100
AcDbArc
 50
269.9986903345067
 51
0.0013096654997424
  0
ARC
  5
1375
330
2
100
AcDbEntity
  8
0
100
AcDbCircle
 10
155.3025933229118
 20
286.0055359356241
 30
0.0
 40
1.742199999999999
100
AcDbArc
 50
359.9986903345002
 51
90.00130966549322
  0
LINE
  5
1376
330
2
100
AcDbEntity
  8
0
100
AcDbLine
 10
157.3320953229121
 20
292.035327935624
 30
0.0
 11
160.832095322912
 21
292.035327935624
 31
0.0
  0
LINE
  5
1378
330
2
100
AcDbEntity
  8
0
100
AcDbLine
 10
112.832186322912
 20
334.5353279356241
 30
0.0
 11
158.832095322912
 21
334.5353279356241
 31
0.0
  0
LINE
  5
1379
330
2
100
AcDbEntity
  8
0
100
AcDbLine
 10
153.3320953229121
 20
332.5353279356241
 30
0.0
 11
118.332186322912
 21
332.535327935624
 31
0.0
  0
ARC
  5
137A
330
2
100
AcDbEntity
  8
0
100
AcDbCircle
 10
114.332186322912
 20
331.035327935624
 30
0.0
 40
4.0
100
AcDbArc
 50
270.0
 51
0.0
  0
LINE
  5
137B
330
2
100
AcDbEntity
  8
0
100
AcDbLine
 10
114.332186322912
 20
327.035327935624
 30
0.0
 11
110.832186322912
 21
327.035327935624
 31
0.0
  0
ARC
  5
137C
330
2
100
AcDbEntity
  8
0
100
AcDbCircle
 10
114.332186322912
 20
331.035327935624
 30
0.0
 40
2.049999999999998
100
AcDbArc
 50
90.0
 51
98.06196008398188
  0
ARC
  5
137D
330
2
100
AcDbEntity
  8
0
100
AcDbCircle
 10
114.332186322912
 20
331.035327935624
 30
0.0
 40
2.049999999999998
100
AcDbArc
 50
81.93803991601813
 51
90.0
  0
LINE
  5
137E
330
2
100
AcDbEntity
  8
0
100
AcDbLine
 10
110.832186322912
 20
332.5353279356241
 30
0.0
 11
112.832186322912
 21
334.5353279356241
 31
0.0
  0
LINE
  5
137F
330
2
100
AcDbEntity
  8
0
100
AcDbLine
 10
110.832186322912
 20
332.5353279356241
 30
0.0
 11
112.832186322912
 21
334.5353279356241
 31
0.0
  0
ARC
  5
1380
330
2
100
AcDbEntity
  8
0
100
AcDbCircle
 10
116.361886322912
 20
329.0056279356241
 30
0.0
 40
1.742199999999999
100
AcDbArc
 50
89.99869033450025
 51
180.0013096654997
  0
ARC
  5
1381
330
2
100
AcDbEntity
  8
0
100
AcDbCircle
 10
114.332186322912
 20
331.035327935624
 30
0.0
 40
2.049999999999998
100
AcDbArc
 50
351.9380399160179
 51
0.0
  0
ARC
  5
1382
330
2
100
AcDbEntity
  8
0
100
AcDbCircle
 10
114.332186322912
 20
331.035327935624
 30
0.0
 40
2.049999999999998
100
AcDbArc
 50
0.0
 51
8.061960083982105
  0
ARC
  5
1383
330
2
100
AcDbEntity
  8
0
100
AcDbCircle
 10
114.332186322912
 20
331.035327935624
 30
0.0
 40
2.049999999999998
100
AcDbArc
 50
261.9380399160181
 51
270.0
  0
ARC
  5
1384
330
2
100
AcDbEntity
  8
0
100
AcDbCircle
 10
114.332186322912
 20
331.035327935624
 30
0.0
 40
2.049999999999998
100
AcDbArc
 50
270.0
 51
278.0619600839818
  0
ARC
  5
1385
330
2
100
AcDbEntity
  8
0
100
AcDbCircle
 10
114.332186322912
 20
331.035327935624
 30
0.0
 40
2.049999999999998
100
AcDbArc
 50
180.0
 51
188.0619600839821
  0
ARC
  5
1386
330
2
100
AcDbEntity
  8
0
100
AcDbCircle
 10
114.332186322912
 20
331.035327935624
 30
0.0
 40
2.049999999999998
100
AcDbArc
 50
171.9380399160178
 51
180.0
  0
ARC
  5
1387
330
2
100
AcDbEntity
  8
0
100
AcDbCircle
 10
112.3024863229119
 20
329.0056279356241
 30
0.0
 40
1.742199999999999
100
AcDbArc
 50
359.9986903345002
 51
90.00130966549322
  0
CIRCLE
  5
1388
330
2
100
AcDbEntity
  8
0
100
AcDbCircle
 10
114.332186322912
 20
331.035327935624
 30
0.0
 40
3.500000000000028
  0
ARC
  5
1389
330
2
100
AcDbEntity
  8
0
100
AcDbCircle
 10
112.3024863229119
 20
333.065027935624
 30
0.0
 40
1.742199999999999
100
AcDbArc
 50
269.9986903345067
 51
0.0013096654997424
  0
ARC
  5
138A
330
2
100
AcDbEntity
  8
0
100
AcDbCircle
 10
116.361886322912
 20
333.065027935624
 30
0.0
 40
1.742199999999999
100
AcDbArc
 50
179.9986903345002
 51
270.0013096654997
  0
LINE
  5
138B
330
2
100
AcDbEntity
  8
0
100
AcDbLine
 10
118.332186322912
 20
331.035327935624
 30
0.0
 11
118.332186322912
 21
334.535143935624
 31
0.0
  0
ARC
  5
138C
330
2
100
AcDbEntity
  8
0
100
AcDbCircle
 10
157.332293322912
 20
331.035327935624
 30
0.0
 40
4.0
100
AcDbArc
 50
180.0
 51
270.0
  0
LINE
  5
138D
330
2
100
AcDbEntity
  8
0
100
AcDbLine
 10
157.3320953229121
 20
327.035327935624
 30
0.0
 11
160.832095322912
 21
327.035327935624
 31
0.0
  0
LINE
  5
138E
330
2
100
AcDbEntity
  8
0
100
AcDbLine
 10
160.832293322912
 20
332.5353279356241
 30
0.0
 11
158.832095322912
 21
334.5353279356241
 31
0.0
  0
LINE
  5
138F
330
2
100
AcDbEntity
  8
0
100
AcDbLine
 10
160.832095322912
 20
332.5353279356241
 30
0.0
 11
158.832095322912
 21
334.5353279356241
 31
0.0
  0
LINE
  5
1390
330
2
100
AcDbEntity
  8
0
100
AcDbLine
 10
160.832095322912
 20
332.5353279356241
 30
0.0
 11
158.832095322912
 21
334.5353279356241
 31
0.0
  0
CIRCLE
  5
1391
330
2
100
AcDbEntity
  8
0
100
AcDbCircle
 10
157.332293322912
 20
331.035327935624
 30
0.0
 40
3.500000000000028
  0
ARC
  5
1392
330
2
100
AcDbEntity
  8
0
100
AcDbCircle
 10
157.332293322912
 20
331.035327935624
 30
0.0
 40
2.049999999999998
100
AcDbArc
 50
90.0
 51
98.06196008398188
  0
ARC
  5
1393
330
2
100
AcDbEntity
  8
0
100
AcDbCircle
 10
157.332293322912
 20
331.035327935624
 30
0.0
 40
2.049999999999998
100
AcDbArc
 50
81.93803991601813
 51
90.0
  0
ARC
  5
1394
330
2
100
AcDbEntity
  8
0
100
AcDbCircle
 10
159.3619933229119
 20
329.0056279356241
 30
0.0
 40
1.742199999999999
100
AcDbArc
 50
89.99869033450025
 51
180.0013096654997
  0
ARC
  5
1395
330
2
100
AcDbEntity
  8
0
100
AcDbCircle
 10
157.332293322912
 20
331.035327935624
 30
0.0
 40
2.049999999999998
100
AcDbArc
 50
351.9380399160179
 51
0.0
  0
ARC
  5
1396
330
2
100
AcDbEntity
  8
0
100
AcDbCircle
 10
157.332293322912
 20
331.035327935624
 30
0.0
 40
2.049999999999998
100
AcDbArc
 50
0.0
 51
8.061960083982105
  0
ARC
  5
1397
330
2
100
AcDbEntity
  8
0
100
AcDbCircle
 10
157.332293322912
 20
331.035327935624
 30
0.0
 40
2.049999999999998
100
AcDbArc
 50
261.9380399160181
 51
270.0
  0
ARC
  5
1398
330
2
100
AcDbEntity
  8
0
100
AcDbCircle
 10
157.332293322912
 20
331.035327935624
 30
0.0
 40
2.049999999999998
100
AcDbArc
 50
270.0
 51
278.0619600839818
  0
ARC
  5
1399
330
2
100
AcDbEntity
  8
0
100
AcDbCircle
 10
159.3619933229119
 20
333.065027935624
 30
0.0
 40
1.742199999999999
100
AcDbArc
 50
179.9986903345002
 51
270.0013096654997
  0
ARC
  5
139A
330
2
100
AcDbEntity
  8
0
100
AcDbCircle
 10
157.332293322912
 20
331.035327935624
 30
0.0
 40
2.049999999999998
100
AcDbArc
 50
180.0
 51
188.0619600839821
  0
ARC
  5
139B
330
2
100
AcDbEntity
  8
0
100
AcDbCircle
 10
157.332293322912
 20
331.035327935624
 30
0.0
 40
2.049999999999998
100
AcDbArc
 50
171.9380399160178
 51
180.0
  0
LINE
  5
139C
330
2
100
AcDbEntity
  8
0
100
AcDbLine
 10
153.3320953229121
 20
331.035327935624
 30
0.0
 11
153.3320953229121
 21
334.535143935624
 31
0.0
  0
ARC
  5
139D
330
2
100
AcDbEntity
  8
0
100
AcDbCircle
 10
155.3025933229118
 20
333.065027935624
 30
0.0
 40
1.742199999999999
100
AcDbArc
 50
269.9986903345067
 51
0.0013096654997424
  0
ARC
  5
139E
330
2
100
AcDbEntity
  8
0
100
AcDbCircle
 10
155.3025933229118
 20
329.0056279356241
 30
0.0
 40
1.742199999999999
100
AcDbArc
 50
359.9986903345002
 51
90.00130966549322
  0
LINE
  5
139F
330
2
100
AcDbEntity
  8
0
100
AcDbLine
 10
343.8322893229119
 20
180.6243900696907
 30
0.0
 11
378.8322893229119
 21
180.6243900696907
 31
0.0
  0
LINE
  5
13A0
330
2
100
AcDbEntity
  8
0
100
AcDbLine
 10
341.1701981389387
 20
181.6243900696907
 30
0.0
 11
381.4943805068851
 21
181.6243900696907
 31
0.0
  0
LINE
  5
13A1
330
2
100
AcDbEntity
  8
0
100
AcDbLine
 10
343.8322893229119
 20
179.1243900696908
 30
0.0
 11
343.8322893229119
 21
181.1243900696909
 31
0.0
  0
LINE
  5
13A2
330
2
100
AcDbEntity
  8
0
100
AcDbLine
 10
343.3322893229118
 20
179.1243900696908
 30
0.0
 11
343.234353184024
 21
180.2438052595091
 31
0.0
  0
LINE
  5
13A3
330
2
100
AcDbEntity
  8
0
100
AcDbLine
 10
336.3322893229119
 20
179.1243900696908
 30
0.0
 11
336.4302254617997
 21
180.2438052595091
 31
0.0
  0
LINE
  5
13A4
330
2
100
AcDbEntity
  8
0
100
AcDbLine
 10
343.8322893229119
 20
179.1243900696908
 30
0.0
 11
336.3322893229119
 21
179.1243900696908
 31
0.0
  0
ARC
  5
13A5
330
2
100
AcDbEntity
  8
0
100
AcDbCircle
 10
337.725278569319
 20
180.1305027939372
 30
0.0
 40
1.3
100
AcDbArc
 50
105.8808500082777
 51
175.0000000000002
  0
LINE
  5
13A6
330
2
100
AcDbEntity
  8
0
100
AcDbLine
 10
338.4943805068853
 20
181.6243900696908
 30
0.0
 11
337.3322893229119
 21
181.6243900696908
 31
0.0
  0
LINE
  5
13A7
330
2
100
AcDbEntity
  8
0
100
AcDbLine
 10
337.3322893229119
 20
181.6243900696908
 30
0.0
 11
336.3322893229119
 21
180.6243900696908
 31
0.0
  0
ARC
  5
13A8
330
2
100
AcDbEntity
  8
0
100
AcDbCircle
 10
341.9393000765048
 20
180.1305027939372
 30
0.0
 40
1.3
100
AcDbArc
 50
4.999999999999743
 51
74.11914999171549
  0
LINE
  5
13A9
330
2
100
AcDbEntity
  8
0
100
AcDbLine
 10
343.8322893229119
 20
181.1243900696908
 30
0.0
 11
342.7772667125323
 21
181.1243900696908
 31
0.0
  0
LINE
  5
13AA
330
2
100
AcDbEntity
  8
0
100
AcDbLine
 10
341.862029146076
 20
181.2768316070685
 30
0.0
 11
341.8822893229119
 21
181.48780835253
 31
0.0
  0
LINE
  5
13AB
330
2
100
AcDbEntity
  8
0
100
AcDbLine
 10
344.3322893229119
 20
181.6243900696908
 30
0.0
 11
343.8322893229119
 21
181.1243900696908
 31
0.0
  0
SPLINE
  5
13AC
330
2
100
AcDbEntity
  8
0
100
AcDbSpline
210
0.0
220
0.0
230
1.0
 70
     8
 71
     3
 72
    11
 73
     7
 74
     0
 42
0.0000000001
 43
0.0000000001
 40
0.0
 40
0.0
 40
0.0
 40
0.0
 40
0.4601364636755307
 40
1.04988694485363
 40
1.713742833862792
 40
2.320347933405154
 40
2.320347933405154
 40
2.320347933405154
 40
2.320347933405179
 10
339.5447893224568
 20
180.2073900696908
 30
0.0
 10
339.5223716653489
 20
180.3624135093707
 30
0.0
 10
339.4712216101156
 20
180.7161283272882
 30
0.0
 10
339.0353364485821
 20
181.1408559988899
 30
0.0
 10
338.4302857335747
 20
181.3600431788557
 30
0.0
 10
338.0051011093988
 20
181.2910518792451
 30
0.0
 10
337.8025494997477
 20
181.2768316070685
 30
0.0
  0
LINE
  5
13AD
330
2
100
AcDbEntity
  8
0
100
AcDbLine
 10
339.5447893224568
 20
180.2073900696908
 30
0.0
 11
340.1197893233669
 21
180.2073900696908
 31
0.0
  0
LINE
  5
13AE
330
2
100
AcDbEntity
  8
0
100
AcDbLine
 10
337.8025494997477
 20
181.2768316070685
 30
0.0
 11
337.7822893229118
 21
181.48780835253
 31
0.0
  0
SPLINE
  5
13AF
330
2
100
AcDbEntity
  8
0
100
AcDbSpline
210
0.0
220
0.0
230
1.0
 70
     8
 71
     3
 72
    11
 73
     7
 74
     0
 42
0.0000000001
 43
0.0000000001
 40
0.0
 40
0.0
 40
0.0
 40
0.0
 40
0.4601364636755307
 40
1.04988694485363
 40
1.713742833862792
 40
2.320347933405154
 40
2.320347933405154
 40
2.320347933405154
 40
2.320347933405179
 10
340.1197893233669
 20
180.2073900696908
 30
0.0
 10
340.1422069804747
 20
180.3624135093707
 30
0.0
 10
340.193357035708
 20
180.7161283272882
 30
0.0
 10
340.6292421972416
 20
181.1408559988899
 30
0.0
 10
341.2342929122491
 20
181.3600431788557
 30
0.0
 10
341.6594775364249
 20
181.2910518792451
 30
0.0
 10
341.862029146076
 20
181.2768316070685
 30
0.0
  0
ARC
  5
13B0
330
2
100
AcDbEntity
  8
0
100
AcDbCircle
 10
339.8322893229118
 20
172.7243900696909
 30
0.0
 40
9.0
100
AcDbArc
 50
74.11914999171549
 51
105.8808500082777
  0
LINE
  5
13B1
330
2
100
AcDbEntity
  8
0
100
AcDbLine
 10
378.8322893229119
 20
179.1243900696908
 30
0.0
 11
386.3322893229119
 21
179.1243900696908
 31
0.0
  0
ARC
  5
13B2
330
2
100
AcDbEntity
  8
0
100
AcDbCircle
 10
380.725278569319
 20
180.1305027939372
 30
0.0
 40
1.3
100
AcDbArc
 50
105.8808500082777
 51
175.0000000000002
  0
LINE
  5
13B3
330
2
100
AcDbEntity
  8
0
100
AcDbLine
 10
379.332289322912
 20
179.1243900696908
 30
0.0
 11
379.4302254617998
 21
180.2438052595091
 31
0.0
  0
LINE
  5
13B4
330
2
100
AcDbEntity
  8
0
100
AcDbLine
 10
378.8322893229119
 20
179.1243900696908
 30
0.0
 11
378.8322893229119
 21
181.1243900696909
 31
0.0
  0
LINE
  5
13B5
330
2
100
AcDbEntity
  8
0
100
AcDbLine
 10
378.8322893229119
 20
181.1243900696908
 30
0.0
 11
379.8873119332915
 21
181.1243900696908
 31
0.0
  0
LINE
  5
13B6
330
2
100
AcDbEntity
  8
0
100
AcDbLine
 10
378.3322893229119
 20
181.6243900696908
 30
0.0
 11
378.8322893229119
 21
181.1243900696908
 31
0.0
  0
LINE
  5
13B7
330
2
100
AcDbEntity
  8
0
100
AcDbLine
 10
386.3322893229119
 20
179.1243900696908
 30
0.0
 11
386.2343531840241
 21
180.2438052595091
 31
0.0
  0
ARC
  5
13B8
330
2
100
AcDbEntity
  8
0
100
AcDbCircle
 10
384.9393000765049
 20
180.1305027939372
 30
0.0
 40
1.3
100
AcDbArc
 50
4.999999999999743
 51
74.11914999171549
  0
LINE
  5
13B9
330
2
100
AcDbEntity
  8
0
100
AcDbLine
 10
385.3322893229119
 20
181.6243900696908
 30
0.0
 11
386.3322893229119
 21
180.6243900696908
 31
0.0
  0
SPLINE
  5
13BA
330
2
100
AcDbEntity
  8
0
100
AcDbSpline
210
0.0
220
0.0
230
1.0
 70
     8
 71
     3
 72
    11
 73
     7
 74
     0
 42
0.0000000001
 43
0.0000000001
 40
0.0
 40
0.0
 40
0.0
 40
0.0
 40
0.4601364636755307
 40
1.04988694485363
 40
1.713742833862792
 40
2.320347933405154
 40
2.320347933405154
 40
2.320347933405154
 40
2.320347933405179
 10
382.5447893224569
 20
180.2073900696908
 30
0.0
 10
382.5223716653491
 20
180.3624135093707
 30
0.0
 10
382.4712216101159
 20
180.7161283272882
 30
0.0
 10
382.0353364485822
 20
181.1408559988899
 30
0.0
 10
381.4302857335748
 20
181.3600431788557
 30
0.0
 10
381.0051011093989
 20
181.2910518792451
 30
0.0
 10
380.8025494997479
 20
181.2768316070685
 30
0.0
  0
LINE
  5
13BB
330
2
100
AcDbEntity
  8
0
100
AcDbLine
 10
380.8025494997479
 20
181.2768316070685
 30
0.0
 11
380.7822893229119
 21
181.48780835253
 31
0.0
  0
LINE
  5
13BC
330
2
100
AcDbEntity
  8
0
100
AcDbLine
 10
384.8620291460761
 20
181.2768316070685
 30
0.0
 11
384.882289322912
 21
181.48780835253
 31
0.0
  0
LINE
  5
13BD
330
2
100
AcDbEntity
  8
0
100
AcDbLine
 10
383.119789323367
 20
180.2073900696908
 30
0.0
 11
382.5447893224569
 21
180.2073900696908
 31
0.0
  0
SPLINE
  5
13BE
330
2
100
AcDbEntity
  8
0
100
AcDbSpline
210
0.0
220
0.0
230
1.0
 70
     8
 71
     3
 72
    11
 73
     7
 74
     0
 42
0.0000000001
 43
0.0000000001
 40
0.0
 40
0.0
 40
0.0
 40
0.0
 40
0.4601364636755307
 40
1.04988694485363
 40
1.713742833862792
 40
2.320347933405154
 40
2.320347933405154
 40
2.320347933405154
 40
2.320347933405179
 10
383.119789323367
 20
180.2073900696908
 30
0.0
 10
383.1422069804749
 20
180.3624135093707
 30
0.0
 10
383.1933570357082
 20
180.7161283272882
 30
0.0
 10
383.6292421972417
 20
181.1408559988899
 30
0.0
 10
384.2342929122492
 20
181.3600431788557
 30
0.0
 10
384.659477536425
 20
181.2910518792451
 30
0.0
 10
384.8620291460761
 20
181.2768316070685
 30
0.0
  0
ARC
  5
13BF
330
2
100
AcDbEntity
  8
0
100
AcDbCircle
 10
382.832289322912
 20
172.7243900696909
 30
0.0
 40
9.0
100
AcDbArc
 50
74.11914999171549
 51
105.8808500082777
  0
LINE
  5
13C0
330
2
100
AcDbEntity
  8
0
100
AcDbLine
 10
384.1701981389385
 20
181.6243900696908
 30
0.0
 11
385.3322893229119
 21
181.6243900696908
 31
0.0
  0
ENDSEC
  0
SECTION
  2
OBJECTS
  0
DICTIONARY
  5
7
330
0
100
AcDbDictionary
  3
ACAD_GROUP
350
75
  3
ACAD_LAYOUT
350
61
  3
ACAD_MLINESTYLE
350
76
  3
ACAD_PLOTSETTINGS
350
77
  3
ACAD_PLOTSTYLENAME
350
6
  3
ACADDIM
350
480
  3
ACDBHEADERROUNDTRIPXREC
350
16EA
  3
ACDBVARIABLEDICTIONARY
350
102
  3
DWGPROPS
350
3D2
  0
DICTIONARY
  5
170B
330
2
100
AcDbDictionary
280
     1
  3
ACAD_LAYOUTSELFREF
360
170C
  0
DICTIONARY
  5
170D
330
16E4
100
AcDbDictionary
280
     1
  3
ACAD_LAYOUTSELFREF
360
170E
  0
DICTIONARY
  5
75
102
{ACAD_REACTORS
330
7
102
}
330
7
100
AcDbDictionary
  0
DICTIONARY
  5
61
102
{ACAD_REACTORS
330
7
102
}
330
7
100
AcDbDictionary
  0
DICTIONARY
  5
76
102
{ACAD_REACTORS
330
7
102
}
330
7
100
AcDbDictionary
  3
STANDARD
350
78
  0
DICTIONARY
  5
77
102
{ACAD_REACTORS
330
7
102
}
330
7
100
AcDbDictionary
  0
ACDBDICTIONARYWDFLT
  5
6
102
{ACAD_REACTORS
330
7
102
}
330
7
100
AcDbDictionary
281
     1
  3
Normal
350
5
100
AcDbDictionaryWithDefault
340
5
  0
XRECORD
  5
480
102
{ACAD_REACTORS
330
7
102
}
330
7
100
AcDbXrecord
 90
   990106
  3

 60
     0
 61
     0
 62
     1
 63
     3
 64
     1
 65
     0
 66
     0
 67
     3
 68
     1
 69
     0
 70
     0
 71
     0
 72
     0
 40
0.0
170
     2
  0
DICTIONARY
  5
16EA
102
{ACAD_REACTORS
330
7
102
}
330
7
100
AcDbDictionary
  3
CEPSNTYPE
350
16F4
  3
DIMSTYLEDATA
350
16F8
  3
FINGERPRINTGUID
350
16F5
  3
HYPERLINKBASE
350
16ED
  3
INSUNITS
350
16F3
  3
LAYOUTDICT
350
16EF
  3
LWETCUNION
350
16F2
  3
PLOTSETDICT
350
16F0
  3
PLOTSTYLNAMDICT
350
16F1
  3
PSVPSCALE
350
16F7
  3
PUCSBASE
350
16FB
  3
PUCSORGBACK
350
1701
  3
PUCSORGBOTTOM
350
16FD
  3
PUCSORGFRONT
350
1700
  3
PUCSORGLEFT
350
16FE
  3
PUCSORGRIGHT
350
16FF
  3
PUCSORGTOP
350
16FC
  3
PUCSORTHOREF
350
16F9
  3
PUCSORTHOVIEW
350
16FA
  3
STYLESHEET
350
16EE
  3
TSTACKALIGN
350
16EB
  3
TSTACKSIZE
350
16EC
  3
UCSBASE
350
1704
  3
UCSORGBACK
350
170A
  3
UCSORGBOTTOM
350
1706
  3
UCSORGFRONT
350
1709
  3
UCSORGLEFT
350
1707
  3
UCSORGRIGHT
350
1708
  3
UCSORGTOP
350
1705
  3
UCSORTHOREF
350
1702
  3
UCSORTHOVIEW
350
1703
  3
VERSIONGUID
350
16F6
  0
DICTIONARY
  5
102
102
{ACAD_REACTORS
330
7
102
}
330
7
100
AcDbDictionary
  3
DIMASSOC
350
103
  0
XRECORD
  5
3D2
102
{ACAD_REACTORS
330
7
102
}
330
7
100
AcDbXrecord
  1
DWGPROPS COOKIE
  2

  3

  4

  6

  7

  8

  9

300
=
301
=
302
=
303
=
304
=
305
=
306
=
307
=
308
=
309
=
 40
0.5353330671296296
 41
2452052.431989363
 42
2453406.550756377
  1

 90
        0
  0
XRECORD
  5
170C
102
{ACAD_REACTORS
330
170B
102
}
330
170B
100
AcDbXrecord
340
2
  0
XRECORD
  5
170E
102
{ACAD_REACTORS
330
170D
102
}
330
170D
100
AcDbXrecord
340
16E4
  0
MLINESTYLE
  5
78
102
{ACAD_REACTORS
330
76
102
}
330
76
100
AcDbMlineStyle
  2
STANDARD
 70
     0
  3

 62
     0
 51
90.0
 52
90.0
 71
     2
 49
0.5
 62
   256
  6
BYLAYER
 49
-0.5
 62
   256
  6
BYLAYER
  0
ACDBPLACEHOLDER
  5
5
102
{ACAD_REACTORS
330
6
102
}
330
6
100
AcDbPlaceHolder
280
     0
  0
XRECORD
  5
16F4
102
{ACAD_REACTORS
330
16EA
102
}
330
16EA
100
AcDbXrecord
 90
        0
  0
XRECORD
  5
16F8
102
{ACAD_REACTORS
330
16EA
102
}
330
16EA
100
AcDbXrecord
1000
DSTYLE
1002
{
1070
   179
 70
     2
1070
   277
 70
     6
1002
}
  0
XRECORD
  5
16F5
102
{ACAD_REACTORS
330
16EA
102
}
330
16EA
100
AcDbXrecord
  1
{6385560B-F4B1-4644-A7C2-A3E32AC3D232}
  0
XRECORD
  5
16ED
102
{ACAD_REACTORS
330
16EA
102
}
330
16EA
100
AcDbXrecord
  1

  0
XRECORD
  5
16F3
102
{ACAD_REACTORS
330
16EA
102
}
330
16EA
100
AcDbXrecord
 90
        0
  0
XRECORD
  5
16EF
102
{ACAD_REACTORS
330
16EA
102
}
330
16EA
100
AcDbXrecord
340
61
  0
XRECORD
  5
16F2
102
{ACAD_REACTORS
330
16EA
102
}
330
16EA
100
AcDbXrecord
 90
    10781
  0
XRECORD
  5
16F0
102
{ACAD_REACTORS
330
16EA
102
}
330
16EA
100
AcDbXrecord
340
77
  0
XRECORD
  5
16F1
102
{ACAD_REACTORS
330
16EA
102
}
330
16EA
100
AcDbXrecord
340
6
  0
XRECORD
  5
16F7
102
{ACAD_REACTORS
330
16EA
102
}
330
16EA
100
AcDbXrecord
 40
0.0
  0
XRECORD
  5
16FB
102
{ACAD_REACTORS
330
16EA
102
}
330
16EA
100
AcDbXrecord
340
0
  0
XRECORD
  5
1701
102
{ACAD_REACTORS
330
16EA
102
}
330
16EA
100
AcDbXrecord
 10
0.0
 20
0.0
 30
0.0
  0
XRECORD
  5
16FD
102
{ACAD_REACTORS
330
16EA
102
}
330
16EA
100
AcDbXrecord
 10
0.0
 20
0.0
 30
0.0
  0
XRECORD
  5
1700
102
{ACAD_REACTORS
330
16EA
102
}
330
16EA
100
AcDbXrecord
 10
0.0
 20
0.0
 30
0.0
  0
XRECORD
  5
16FE
102
{ACAD_REACTORS
330
16EA
102
}
330
16EA
100
AcDbXrecord
 10
0.0
 20
0.0
 30
0.0
  0
XRECORD
  5
16FF
102
{ACAD_REACTORS
330
16EA
102
}
330
16EA
100
AcDbXrecord
 10
0.0
 20
0.0
 30
0.0
  0
XRECORD
  5
16FC
102
{ACAD_REACTORS
330
16EA
102
}
330
16EA
100
AcDbXrecord
 10
0.0
 20
0.0
 30
0.0
  0
XRECORD
  5
16F9
102
{ACAD_REACTORS
330
16EA
102
}
330
16EA
100
AcDbXrecord
340
0
  0
XRECORD
  5
16FA
102
{ACAD_REACTORS
330
16EA
102
}
330
16EA
100
AcDbXrecord
 70
     0
  0
XRECORD
  5
16EE
102
{ACAD_REACTORS
330
16EA
102
}
330
16EA
100
AcDbXrecord
  1
Sekkei.ctb
  0
XRECORD
  5
16EB
102
{ACAD_REACTORS
330
16EA
102
}
330
16EA
100
AcDbXrecord
 90
        1
  0
XRECORD
  5
16EC
102
{ACAD_REACTORS
330
16EA
102
}
330
16EA
100
AcDbXrecord
 90
       70
  0
XRECORD
  5
1704
102
{ACAD_REACTORS
330
16EA
102
}
330
16EA
100
AcDbXrecord
340
0
  0
XRECORD
  5
170A
102
{ACAD_REACTORS
330
16EA
102
}
330
16EA
100
AcDbXrecord
 10
0.0
 20
0.0
 30
0.0
  0
XRECORD
  5
1706
102
{ACAD_REACTORS
330
16EA
102
}
330
16EA
100
AcDbXrecord
 10
0.0
 20
0.0
 30
0.0
  0
XRECORD
  5
1709
102
{ACAD_REACTORS
330
16EA
102
}
330
16EA
100
AcDbXrecord
 10
0.0
 20
0.0
 30
0.0
  0
XRECORD
  5
1707
102
{ACAD_REACTORS
330
16EA
102
}
330
16EA
100
AcDbXrecord
 10
0.0
 20
0.0
 30
0.0
  0
XRECORD
  5
1708
102
{ACAD_REACTORS
330
16EA
102
}
330
16EA
100
AcDbXrecord
 10
0.0
 20
0.0
 30
0.0
  0
XRECORD
  5
1705
102
{ACAD_REACTORS
330
16EA
102
}
330
16EA
100
AcDbXrecord
 10
0.0
 20
0.0
 30
0.0
  0
XRECORD
  5
1702
102
{ACAD_REACTORS
330
16EA
102
}
330
16EA
100
AcDbXrecord
340
0
  0
XRECORD
  5
1703
102
{ACAD_REACTORS
330
16EA
102
}
330
16EA
100
AcDbXrecord
 70
     0
  0
XRECORD
  5
16F6
102
{ACAD_REACTORS
330
16EA
102
}
330
16EA
100
AcDbXrecord
  1
{B484C926-9EA4-4C46-9D68-7EE224E95761}
  0
DICTIONARYVAR
  5
103
102
{ACAD_REACTORS
330
102
102
}
330
102
100
DictionaryVariables
280
     0
  1
1
  0
ENDSEC
  0
EOF
