  0
SECTION
  2
HEADER
  9
$CLAYER
  8
1
  9
$LTSCALE
 40
3.0
  0
ENDSEC
  0
SECTION
  2
TABLES
  0
TABLE
  2
LTYPE
 70
     4
  0
LTYPE
  2
CONTINUOUS
  3
solid line
 70
    64
 72
    65
 73
     0
 40
0.0
  0
LTYPE
  2
DASHED
  3
__ __ __ __ __ __ __ __ __ __ __ __ __ __ __
 70
    64
 72
    65
 73
     2
 40
0.75
 49
0.5
 49
-0.25
  0
LTYPE
  2
CENTER
  3
____ _ ____ _ ____ _ ____ _ ____ _ ____ _ ____
 70
    64
 72
    65
 73
     4
 40
2.0
 49
1.25
 49
-0.25
 49
0.25
 49
-0.25
  0
LTYPE
  2
PHANTOM
  3
_____ _ _ _____ _ _ _____ _ _ _____ _ _ ____
 70
    64
 72
    65
 73
     6
 40
2.5
 49
1.25
 49
-0.25
 49
0.25
 49
-0.25
 49
0.25
 49
-0.25
  0
ENDTAB
  0
TABLE
  2
LAYER
 70
     1
  0
LAYER
  2
0
 70
    64
 62
     7
  6
CONTINUOUS
  0
ENDTAB
  0
TABLE
  2
STYLE
 70
     1
  0
STYLE
  2
STANDARD
 70
     0
 40
0.000000
 41
1.000000
 50
0.000000
 71
     0
 42
3.000000
  3
txt
  4
BIGFONT
  0
ENDTAB
  0
ENDSEC
  0
SECTION
  2
BLOCKS
  0
ENDSEC
  0
SECTION
  2
ENTITIES
  0
LINE
  8
0
  6
CONTINUOUS
 10
57.055000
 20
84.642502
 11
66.555000
 21
84.642502
  0
LINE
  8
0
  6
CONTINUOUS
 10
57.055000
 20
8.642500
 11
66.555000
 21
8.642500
  0
LINE
  8
0
  6
CONTINUOUS
 10
57.055000
 20
6.642500
 11
57.055000
 21
86.642502
  0
LINE
  8
0
  6
CONTINUOUS
 10
57.055000
 20
76.891502
 11
66.555000
 21
76.891502
  0
LINE
  8
0
  6
CONTINUOUS
 10
57.055000
 20
16.393499
 11
66.555000
 21
16.393499
  0
LINE
  8
0
  6
CONTINUOUS
 10
13.055000
 20
86.642502
 11
57.055000
 21
86.642502
  0
LINE
  8
0
  6
CONTINUOUS
 10
13.055000
 20
6.642500
 11
57.055000
 21
6.642500
  0
LINE
  8
0
  6
CONTINUOUS
 10
8.055000
 20
11.642500
 11
8.055000
 21
81.642502
  0
ARC
  8
0
  6
CONTINUOUS
 10
13.055000
 20
81.642502
 40
5.000000
 50
90.000000
 51
180.000000
  0
ARC
  8
0
  6
CONTINUOUS
 10
13.055000
 20
11.642500
 40
5.000000
 50
180.000000
 51
270.000000
  0
LINE
  8
0
  6
CONTINUOUS
 10
10.555000
 20
72.642502
 11
57.055000
 21
72.642502
  0
LINE
  8
0
  6
CONTINUOUS
 10
10.555000
 20
22.642500
 11
57.055000
 21
22.642500
  0
LINE
  8
0
  6
CONTINUOUS
 10
66.555000
 20
8.642520
 11
66.555000
 21
84.642502
  0
LINE
  8
0
  6
CENTER
 10
-5.320156
 20
46.642502
 11
187.572495
 21
46.642502
  0
LINE
  8
0
  6
CONTINUOUS
 10
180.554993
 20
84.642502
 11
180.554993
 21
2.642500
  0
LINE
  8
0
  6
CONTINUOUS
 10
130.554993
 20
2.642500
 11
130.554993
 21
20.086439
  0
LINE
  8
0
  6
CENTER
 10
153.965500
 20
57.642502
 11
217.804993
 21
57.642502
  0
LINE
  8
0
  6
CONTINUOUS
 10
130.554993
 20
2.642500
 11
180.554993
 21
2.642500
  0
LINE
  8
0
  6
CENTER
 10
173.054993
 20
13.017500
 11
173.054993
 21
-1.107500
  0
LINE
  8
0
  6
CENTER
 10
138.054993
 20
12.017500
 11
138.054993
 21
-0.732500
  0
LINE
  8
0
  6
CONTINUOUS
 10
132.554993
 20
9.642500
 11
178.554993
 21
9.642500
  0
LINE
  8
0
  6
DASHED
 10
176.304993
 20
9.642500
 11
176.304993
 21
2.642500
  0
LINE
  8
0
  6
DASHED
 10
169.804993
 20
9.642500
 11
169.804993
 21
2.642500
  0
LINE
  8
0
  6
DASHED
 10
141.304993
 20
9.642500
 11
141.304993
 21
2.642500
  0
LINE
  8
0
  6
DASHED
 10
134.804993
 20
9.642500
 11
134.804993
 21
2.642500
  0
ARC
  8
0
  6
CONTINUOUS
 10
178.554993
 20
7.642480
 40
2.000000
 50
0.000000
 51
90.000000
  0
ARC
  8
0
  6
CONTINUOUS
 10
132.554993
 20
7.642510
 40
2.000000
 50
90.000000
 51
180.000000
  0
LINE
  8
0
  6
CONTINUOUS
 10
163.054993
 20
11.642480
 11
163.054993
 21
24.071791
  0
LINE
  8
0
  6
CONTINUOUS
 10
148.054993
 20
11.642500
 11
148.054993
 21
24.071791
  0
LINE
  8
0
  6
CONTINUOUS
 10
66.555000
 20
84.642502
 11
180.554993
 21
84.642502
  0
LINE
  8
0
  6
CONTINUOUS
 10
66.555000
 20
8.642520
 11
130.554993
 21
8.642520
  0
LINE
  8
0
  6
CONTINUOUS
 10
66.555000
 20
76.891502
 11
180.554993
 21
76.891502
  0
LINE
  8
0
  6
CONTINUOUS
 10
66.555000
 20
16.393530
 11
130.554993
 21
16.393530
  0
LINE
  8
0
  6
CONTINUOUS
 10
208.054993
 20
51.642502
 11
208.054993
 21
63.642502
  0
LINE
  8
0
  6
CONTINUOUS
 10
186.054993
 20
63.642502
 11
208.054993
 21
63.642502
  0
LINE
  8
0
  6
CONTINUOUS
 10
186.054993
 20
51.642502
 11
208.054993
 21
51.642502
  0
LINE
  8
0
  6
CONTINUOUS
 10
186.054993
 20
65.142502
 11
186.054993
 21
50.142502
  0
LINE
  8
0
  6
CONTINUOUS
 10
190.054993
 20
59.642502
 11
208.054993
 21
59.642502
  0
LINE
  8
0
  6
CONTINUOUS
 10
190.054993
 20
55.642502
 11
208.054993
 21
55.642502
  0
ARC
  8
0
  6
CONTINUOUS
 10
190.054993
 20
57.642502
 40
2.000000
 50
90.000000
 51
180.000000
  0
ARC
  8
0
  6
CONTINUOUS
 10
190.054993
 20
57.642502
 40
2.000000
 50
180.000000
 51
270.000000
  0
LINE
  8
0
  6
CONTINUOUS
 10
148.961304
 20
24.071791
 11
162.211304
 21
24.071791
  0
ARC
  8
0
  6
CONTINUOUS
 10
146.054993
 20
11.642500
 40
2.000000
 50
-90.000000
 51
0.000000
  0
ARC
  8
0
  6
CONTINUOUS
 10
165.054993
 20
11.642500
 40
2.000000
 50
180.000000
 51
270.000000
  0
ARC
  8
0
  6
CONTINUOUS
 10
132.554993
 20
20.086451
 40
2.000000
 50
90.000000
 51
180.000000
  0
LINE
  8
0
  6
CONTINUOUS
 10
132.804993
 20
22.086439
 11
147.429993
 21
22.086439
  0
LINE
  8
0
  6
CONTINUOUS
 10
180.179993
 20
22.086439
 11
163.304993
 21
22.086439
  0
ARC
  8
0
  6
CONTINUOUS
 10
165.054993
 20
24.071800
 40
2.000000
 50
90.000000
 51
180.000000
  0
ARC
  8
0
  6
CONTINUOUS
 10
146.054993
 20
24.071791
 40
2.000000
 50
0.000000
 51
90.000000
  0
LINE
  8
0
  6
CONTINUOUS
 10
183.054993
 20
75.142502
 11
180.554993
 21
75.142502
  0
LINE
  8
0
  6
CONTINUOUS
 10
183.054993
 20
40.142502
 11
180.554993
 21
40.142502
  0
LINE
  8
0
  6
CONTINUOUS
 10
184.054993
 20
41.142502
 11
184.054993
 21
74.142502
  0
ARC
  8
0
  6
CONTINUOUS
 10
183.054993
 20
74.142502
 40
1.000000
 50
0.000000
 51
90.000000
  0
ARC
  8
0
  6
CONTINUOUS
 10
183.054993
 20
41.142502
 40
1.000000
 50
-90.000000
 51
0.000000
  0
LINE
  8
0
  6
CONTINUOUS
 10
184.054993
 20
65.142502
 11
186.054993
 21
65.142502
  0
LINE
  8
0
  6
CONTINUOUS
 10
184.054993
 20
50.142502
 11
186.054993
 21
50.142502
  0
LINE
  8
0
  6
CENTER
 10
308.054993
 20
-2.607480
 11
308.054993
 21
142.063126
  0
LINE
  8
0
  6
CENTER
 10
261.304993
 20
46.642502
 11
356.054993
 21
46.642502
  0
LINE
  8
0
  6
CENTER
 10
287.554993
 20
57.642502
 11
331.563446
 21
57.642502
  0
LINE
  8
0
  6
CONTINUOUS
 10
336.054993
 20
2.642520
 11
353.054993
 21
2.642520
  0
LINE
  8
0
  6
CONTINUOUS
 10
335.054993
 20
3.642520
 11
281.054993
 21
3.642520
  0
LINE
  8
0
  6
CENTER
 10
346.054993
 20
13.142520
 11
346.054993
 21
-1.732480
  0
LINE
  8
0
  6
DASHED
 10
349.304993
 20
9.642520
 11
349.304993
 21
2.642520
  0
LINE
  8
0
  6
DASHED
 10
342.804993
 20
9.642520
 11
342.804993
 21
2.642520
  0
LINE
  8
0
  6
CONTINUOUS
 10
331.054993
 20
82.275597
 11
331.054993
 21
76.891502
  0
LINE
  8
0
  6
CONTINUOUS
 10
329.089905
 20
84.275398
 11
308.054993
 21
84.642502
  0
ARC
  8
0
  6
CONTINUOUS
 10
329.054993
 20
82.275597
 40
2.000000
 50
0.000000
 51
89.000137
  0
LINE
  8
0
  6
CONTINUOUS
 10
280.054993
 20
2.642520
 11
263.054993
 21
2.642520
  0
LINE
  8
0
  6
CONTINUOUS
 10
263.054993
 20
7.642520
 11
263.054993
 21
2.642520
  0
LINE
  8
0
  6
CENTER
 10
270.054993
 20
13.142520
 11
270.054993
 21
-1.732480
  0
LINE
  8
0
  6
DASHED
 10
266.804993
 20
9.642520
 11
266.804993
 21
2.642520
  0
LINE
  8
0
  6
DASHED
 10
273.304993
 20
9.642520
 11
273.304993
 21
2.642520
  0
LINE
  8
0
  6
CONTINUOUS
 10
285.054993
 20
82.275597
 11
285.054993
 21
76.891502
  0
LINE
  8
0
  6
CONTINUOUS
 10
287.020111
 20
84.275398
 11
308.054993
 21
84.642502
  0
ARC
  8
0
  6
CONTINUOUS
 10
287.054993
 20
82.275597
 40
2.000000
 50
90.999863
 51
180.000000
  0
ARC
  8
0
  6
CONTINUOUS
 10
308.054993
 20
46.642502
 40
38.000000
 50
-40.256561
 51
52.752159
  0
ARC
  8
0
  6
CONTINUOUS
 10
308.054993
 20
46.642502
 40
38.000000
 50
127.247803
 51
220.256607
  0
LINE
  8
0
  6
CONTINUOUS
 10
300.554993
 20
55.642502
 11
300.554993
 21
59.642502
  0
LINE
  8
0
  6
CONTINUOUS
 10
304.554993
 20
59.642502
 11
300.554993
 21
59.642502
  0
LINE
  8
0
  6
CONTINUOUS
 10
300.554993
 20
55.642502
 11
304.554993
 21
55.642502
  0
LINE
  8
0
  6
CONTINUOUS
 10
304.554993
 20
59.642502
 11
304.554993
 21
55.642502
  0
ARC
  8
0
  6
CONTINUOUS
 10
308.054993
 20
57.642502
 40
6.000000
 50
-160.528793
 51
160.528793
  0
LINE
  8
0
  6
CONTINUOUS
 10
337.054993
 20
12.642480
 11
337.054993
 21
22.086451
  0
LINE
  8
0
  6
CONTINUOUS
 10
279.054993
 20
12.642520
 11
279.054993
 21
22.086451
  0
ARC
  8
0
  6
CONTINUOUS
 10
351.054993
 20
7.642520
 40
2.000000
 50
0.000000
 51
90.000000
  0
ARC
  8
0
  6
CONTINUOUS
 10
265.054993
 20
7.642530
 40
2.000000
 50
90.000000
 51
180.000000
  0
ARC
  8
0
  6
CONTINUOUS
 10
276.054993
 20
12.642520
 40
3.000000
 50
-90.000000
 51
0.000000
  0
ARC
  8
0
  6
CONTINUOUS
 10
340.054993
 20
12.642520
 40
3.000000
 50
180.000000
 51
270.000000
  0
LINE
  8
0
  6
CONTINUOUS
 10
263.640808
 20
9.056730
 11
277.988495
 21
23.404440
  0
LINE
  8
0
  6
CONTINUOUS
 10
352.469208
 20
9.056730
 11
338.121490
 21
23.404470
  0
LINE
  8
0
  6
CONTINUOUS
 10
265.054993
 20
9.642520
 11
276.054993
 21
9.642520
  0
LINE
  8
0
  6
CONTINUOUS
 10
351.054901
 20
9.642520
 11
340.054993
 21
9.642520
  0
LINE
  8
0
  6
CONTINUOUS
 10
353.054993
 20
2.642520
 11
353.054993
 21
7.642520
  0
LINE
  8
0
  6
CONTINUOUS
 10
342.054993
 20
58.474701
 11
342.054993
 21
34.810349
  0
LINE
  8
0
  6
CONTINUOUS
 10
274.054993
 20
34.810329
 11
274.054993
 21
58.474701
  0
ARC
  8
0
  6
CONTINUOUS
 10
308.054993
 20
46.642502
 40
36.000000
 50
19.188120
 51
160.811905
  0
ARC
  8
0
  6
CONTINUOUS
 10
308.054993
 20
46.642502
 40
36.000000
 50
199.188095
 51
340.811890
  0
LINE
  8
0
  6
CONTINUOUS
 10
335.054993
 20
3.642520
 11
336.054993
 21
2.642520
  0
LINE
  8
0
  6
CONTINUOUS
 10
280.054993
 20
2.642520
 11
281.054993
 21
3.642520
  0
CIRCLE
  8
0
  6
CONTINUOUS
 10
308.054993
 20
57.642502
 40
17.500000
  0
LINE
  8
0
  6
CONTINUOUS
 10
302.804993
 20
32.215752
 11
302.804993
 21
27.642500
  0
LINE
  8
0
  6
CONTINUOUS
 10
305.429993
 20
33.876881
 11
305.429993
 21
35.517502
  0
LINE
  8
0
  6
CONTINUOUS
 10
310.679993
 20
33.876881
 11
310.679993
 21
35.517502
  0
LINE
  8
0
  6
CONTINUOUS
 10
307.542297
 20
34.553638
 11
307.542297
 21
28.503830
  0
LINE
  8
0
  6
CONTINUOUS
 10
308.526703
 20
34.553638
 11
308.526703
 21
28.503830
  0
LINE
  8
0
  6
CONTINUOUS
 10
313.694611
 20
34.553638
 11
313.694611
 21
28.462820
  0
LINE
  8
0
  6
CONTINUOUS
 10
314.596985
 20
31.323660
 11
314.596985
 21
28.462820
  0
LINE
  8
0
  6
CONTINUOUS
 10
301.559387
 20
34.471611
 11
299.029602
 21
34.471611
  0
LINE
  8
0
  6
CONTINUOUS
 10
299.029602
 20
34.471611
 11
298.436798
 21
33.736610
  0
LINE
  8
0
  6
CONTINUOUS
 10
298.508087
 20
35.517502
 11
297.554993
 21
34.297039
  0
LINE
  8
0
  6
CONTINUOUS
 10
298.436798
 20
29.199730
 11
299.039093
 21
28.565359
  0
LINE
  8
0
  6
CONTINUOUS
 10
297.554993
 20
28.664379
 11
298.567810
 21
27.642500
  0
LINE
  8
0
  6
CONTINUOUS
 10
297.554993
 20
34.297039
 11
297.554993
 21
28.664379
  0
LINE
  8
0
  6
CONTINUOUS
 10
298.436798
 20
33.736610
 11
298.436798
 21
29.199730
  0
LINE
  8
0
  6
CONTINUOUS
 10
302.046204
 20
34.001011
 11
301.549500
 21
34.471611
  0
LINE
  8
0
  6
CONTINUOUS
 10
302.038300
 20
35.517502
 11
302.804993
 21
34.666679
  0
LINE
  8
0
  6
CONTINUOUS
 10
302.046204
 20
33.876881
 11
302.804993
 21
33.876881
  0
LINE
  8
0
  6
CONTINUOUS
 10
298.508087
 20
35.517502
 11
302.038300
 21
35.517502
  0
LINE
  8
0
  6
CONTINUOUS
 10
302.046204
 20
31.354420
 11
300.672211
 21
31.354420
  0
LINE
  8
0
  6
CONTINUOUS
 10
302.046204
 20
30.534109
 11
302.046204
 21
31.190359
  0
LINE
  8
0
  6
CONTINUOUS
 10
300.405609
 20
28.565359
 11
299.039093
 21
28.565359
  0
ARC
  8
0
  6
CONTINUOUS
 10
300.405609
 20
30.205990
 40
1.640625
 50
-89.999786
 51
0.000109
  0
LINE
  8
0
  6
CONTINUOUS
 10
302.046204
 20
28.270260
 11
302.046204
 21
27.642500
  0
LINE
  8
0
  6
CONTINUOUS
 10
302.804993
 20
34.666679
 11
302.804993
 21
33.876881
  0
LINE
  8
0
  6
CONTINUOUS
 10
302.046204
 20
31.354420
 11
302.046204
 21
30.205990
  0
LINE
  8
0
  6
CONTINUOUS
 10
300.672211
 20
32.215752
 11
300.672211
 21
31.354420
  0
LINE
  8
0
  6
CONTINUOUS
 10
302.046204
 20
27.642500
 11
302.804993
 21
27.642500
  0
LINE
  8
0
  6
CONTINUOUS
 10
302.046204
 20
28.270260
 11
301.298004
 21
27.642500
  0
LINE
  8
0
  6
CONTINUOUS
 10
308.526703
 20
28.503830
 11
308.854797
 21
28.503830
  0
LINE
  8
0
  6
CONTINUOUS
 10
307.152710
 20
28.503830
 11
307.152710
 21
27.642500
  0
LINE
  8
0
  6
CONTINUOUS
 10
308.854797
 20
28.503830
 11
308.854797
 21
27.642500
  0
LINE
  8
0
  6
CONTINUOUS
 10
310.132385
 20
33.876881
 11
310.679993
 21
33.876881
  0
LINE
  8
0
  6
CONTINUOUS
 10
305.429993
 20
33.876881
 11
306.012787
 21
33.876881
  0
LINE
  8
0
  6
CONTINUOUS
 10
305.429993
 20
35.517502
 11
310.679993
 21
35.517502
  0
LINE
  8
0
  6
CONTINUOUS
 10
307.152710
 20
27.642500
 11
308.854797
 21
27.642500
  0
LINE
  8
0
  6
CONTINUOUS
 10
307.152710
 20
28.503830
 11
307.542297
 21
28.503830
  0
ARC
  8
0
  6
CONTINUOUS
 10
316.452911
 20
33.415451
 40
2.102051
 50
-73.981873
 51
90.003510
  0
ARC
  8
0
  6
CONTINUOUS
 10
316.452911
 20
33.415451
 40
1.282395
 50
-82.585274
 51
62.411850
  0
LINE
  8
0
  6
CONTINUOUS
 10
313.304993
 20
35.517502
 11
316.452911
 21
35.517502
  0
LINE
  8
0
  6
CONTINUOUS
 10
313.304993
 20
35.517502
 11
313.304993
 21
34.553638
  0
LINE
  8
0
  6
CONTINUOUS
 10
314.596985
 20
34.553638
 11
314.596985
 21
32.143780
  0
LINE
  8
0
  6
CONTINUOUS
 10
317.032990
 20
31.395020
 11
318.334015
 21
28.462820
  0
LINE
  8
0
  6
CONTINUOUS
 10
316.277313
 20
31.323660
 11
317.508606
 21
28.462820
  0
LINE
  8
0
  6
CONTINUOUS
 10
313.304993
 20
28.462820
 11
313.694611
 21
28.462820
  0
LINE
  8
0
  6
CONTINUOUS
 10
314.596985
 20
28.462820
 11
314.955902
 21
28.462820
  0
LINE
  8
0
  6
CONTINUOUS
 10
314.955902
 20
27.642500
 11
313.304993
 21
27.642500
  0
LINE
  8
0
  6
CONTINUOUS
 10
317.345001
 20
28.462820
 11
317.508606
 21
28.462820
  0
LINE
  8
0
  6
CONTINUOUS
 10
318.334015
 20
28.462820
 11
318.554993
 21
28.462820
  0
LINE
  8
0
  6
CONTINUOUS
 10
317.345001
 20
27.642500
 11
318.554993
 21
27.642500
  0
LINE
  8
0
  6
CONTINUOUS
 10
318.554993
 20
28.462820
 11
318.554993
 21
27.642500
  0
LINE
  8
0
  6
CONTINUOUS
 10
317.345001
 20
28.462820
 11
317.345001
 21
27.642500
  0
LINE
  8
0
  6
CONTINUOUS
 10
314.955902
 20
28.462820
 11
314.955902
 21
27.642500
  0
LINE
  8
0
  6
CONTINUOUS
 10
313.304993
 20
28.462820
 11
313.304993
 21
27.642500
  0
LINE
  8
0
  6
CONTINUOUS
 10
306.294708
 20
34.553638
 11
306.012787
 21
33.876881
  0
LINE
  8
0
  6
CONTINUOUS
 10
309.894592
 20
34.553638
 11
310.132385
 21
33.876881
  0
LINE
  8
0
  6
CONTINUOUS
 10
308.526703
 20
34.553638
 11
309.894592
 21
34.553638
  0
LINE
  8
0
  6
CONTINUOUS
 10
307.542297
 20
34.553638
 11
306.294708
 21
34.553638
  0
LINE
  8
0
  6
CONTINUOUS
 10
313.304993
 20
34.553638
 11
313.694611
 21
34.553638
  0
LINE
  8
0
  6
CONTINUOUS
 10
314.596985
 20
34.553638
 11
317.046906
 21
34.552040
  0
LINE
  8
0
  6
CONTINUOUS
 10
302.046204
 20
34.001011
 11
302.046204
 21
33.876881
  0
LINE
  8
0
  6
CONTINUOUS
 10
298.567810
 20
27.642500
 11
301.298004
 21
27.642500
  0
LINE
  8
0
  6
CONTINUOUS
 10
314.596985
 20
32.143780
 11
316.618408
 21
32.143780
  0
LINE
  8
0
  6
CONTINUOUS
 10
314.596985
 20
31.323660
 11
316.277313
 21
31.323660
  0
LINE
  8
0
  6
CONTINUOUS
 10
300.672211
 20
32.215752
 11
302.804993
 21
32.215752
  0
LINE
  8
0
  6
CONTINUOUS
 10
348.054993
 20
23.642509
 11
348.054993
 21
68.571404
  0
LINE
  8
0
  6
CONTINUOUS
 10
268.054993
 20
69.642502
 11
268.054993
 21
24.713619
  0
LINE
  8
0
  6
CONTINUOUS
 10
282.054993
 20
83.642502
 11
282.054993
 21
80.039497
  0
LINE
  8
0
  6
CONTINUOUS
 10
345.054993
 20
20.642509
 11
341.451904
 21
20.642509
  0
LINE
  8
0
  6
CONTINUOUS
 10
271.054993
 20
72.642502
 11
274.658112
 21
72.642502
  0
LINE
  8
0
  6
CONTINUOUS
 10
346.590515
 20
72.107002
 11
333.519440
 21
85.177963
  0
LINE
  8
0
  6
CONTINUOUS
 10
269.519440
 20
21.178085
 11
272.640808
 21
18.056730
  0
ARC
  8
0
  6
CONTINUOUS
 10
329.984009
 20
81.642502
 40
5.000000
 50
45.000179
 51
64.157806
  0
ARC
  8
0
  6
CONTINUOUS
 10
343.054993
 20
68.571404
 40
5.000000
 50
0.000000
 51
45.000179
  0
ARC
  8
0
  6
CONTINUOUS
 10
273.054993
 20
24.713619
 40
5.000000
 50
180.000000
 51
225.000397
  0
ARC
  8
0
  6
CONTINUOUS
 10
271.054993
 20
69.642502
 40
3.000000
 50
90.000000
 51
180.000000
  0
ARC
  8
0
  6
CONTINUOUS
 10
285.054993
 20
83.642502
 40
3.000000
 50
123.557655
 51
180.000000
  0
ARC
  8
0
  6
CONTINUOUS
 10
345.054993
 20
23.642500
 40
3.000000
 50
-90.000000
 51
0.000000
  0
LINE
  8
0
  6
CONTINUOUS
 10
282.054993
 20
80.039497
 11
274.658112
 21
72.642502
  0
LINE
  8
0
  6
CONTINUOUS
 10
341.451904
 20
20.642509
 11
341.167694
 21
20.358259
  0
LINE
  8
0
  6
CONTINUOUS
 10
180.554993
 20
290.652496
 11
180.554993
 21
204.652496
  0
LINE
  8
0
  6
CENTER
 10
-6.251250
 20
247.652496
 11
216.804993
 21
247.652496
  0
LINE
  8
0
  6
CONTINUOUS
 10
119.555000
 20
270.652496
 11
180.554993
 21
270.652496
  0
LINE
  8
0
  6
CONTINUOUS
 10
119.555000
 20
224.652496
 11
180.554993
 21
224.652496
  0
LINE
  8
0
  6
CONTINUOUS
 10
66.555000
 20
285.652496
 11
180.554993
 21
285.652496
  0
LINE
  8
0
  6
CONTINUOUS
 10
66.555000
 20
209.652496
 11
180.554993
 21
209.652496
  0
LINE
  8
0
  6
CONTINUOUS
 10
208.054993
 20
240.152496
 11
208.054993
 21
253.652496
  0
LINE
  8
0
  6
CONTINUOUS
 10
186.054993
 20
253.652496
 11
208.054993
 21
253.652496
  0
LINE
  8
0
  6
CONTINUOUS
 10
186.054993
 20
241.652496
 11
188.054993
 21
241.652496
  0
LINE
  8
0
  6
CONTINUOUS
 10
186.054993
 20
255.152496
 11
186.054993
 21
240.152496
  0
LINE
  8
0
  6
CONTINUOUS
 10
183.054993
 20
265.152496
 11
180.554993
 21
265.152496
  0
LINE
  8
0
  6
CONTINUOUS
 10
183.054993
 20
230.152496
 11
180.554993
 21
230.152496
  0
LINE
  8
0
  6
CONTINUOUS
 10
184.054993
 20
231.152496
 11
184.054993
 21
264.152496
  0
ARC
  8
0
  6
CONTINUOUS
 10
183.054993
 20
264.152496
 40
1.000000
 50
0.000000
 51
90.000000
  0
ARC
  8
0
  6
CONTINUOUS
 10
183.054993
 20
231.152496
 40
1.000000
 50
-90.000000
 51
0.000000
  0
LINE
  8
0
  6
CONTINUOUS
 10
184.054993
 20
255.152496
 11
186.054993
 21
255.152496
  0
LINE
  8
0
  6
CONTINUOUS
 10
184.054993
 20
240.152496
 11
186.054993
 21
240.152496
  0
LINE
  8
0
  6
CONTINUOUS
 10
188.054993
 20
240.152496
 11
208.054993
 21
240.152496
  0
LINE
  8
0
  6
CONTINUOUS
 10
188.054993
 20
241.995499
 11
188.054993
 21
240.152496
  0
LINE
  8
0
  6
CONTINUOUS
 10
188.054993
 20
241.995499
 11
208.054993
 21
241.995499
  0
LINE
  8
0
  6
CONTINUOUS
 10
66.555000
 20
285.652496
 11
66.555000
 21
278.652496
  0
LINE
  8
0
  6
CONTINUOUS
 10
132.554993
 20
292.652496
 11
178.554993
 21
292.652496
  0
LINE
  8
0
  6
CONTINUOUS
 10
132.554993
 20
202.652496
 11
178.554993
 21
202.652496
  0
LINE
  8
0
  6
CONTINUOUS
 10
130.554993
 20
290.652496
 11
130.554993
 21
285.652496
  0
LINE
  8
0
  6
CONTINUOUS
 10
130.554993
 20
204.652496
 11
130.554993
 21
209.652496
  0
LINE
  8
0
  6
CENTER
 10
173.054993
 20
291.777496
 11
173.054993
 21
279.402496
  0
LINE
  8
0
  6
CENTER
 10
138.054993
 20
291.277496
 11
138.054993
 21
280.402496
  0
ARC
  8
0
  6
CONTINUOUS
 10
173.054993
 20
285.652496
 40
3.250000
 50
0.000000
 51
180.000000
  0
ARC
  8
0
  6
CONTINUOUS
 10
138.054993
 20
285.652496
 40
3.250000
 50
0.000000
 51
180.000000
  0
LINE
  8
0
  6
CENTER
 10
173.054993
 20
203.527496
 11
173.054993
 21
215.152496
  0
LINE
  8
0
  6
CENTER
 10
138.054993
 20
203.527496
 11
138.054993
 21
215.277496
  0
ARC
  8
0
  6
CONTINUOUS
 10
173.054993
 20
209.652496
 40
3.250000
 50
-180.000000
 51
0.000000
  0
ARC
  8
0
  6
CONTINUOUS
 10
138.054993
 20
209.652496
 40
3.250000
 50
-180.000000
 51
0.000000
  0
LINE
  8
0
  6
CONTINUOUS
 10
163.054993
 20
203.277496
 11
163.054993
 21
209.652496
  0
LINE
  8
0
  6
CONTINUOUS
 10
148.054993
 20
203.277496
 11
148.054993
 21
209.652496
  0
LINE
  8
0
  6
CONTINUOUS
 10
66.555000
 20
285.652496
 11
57.055000
 21
285.652496
  0
LINE
  8
0
  6
CONTINUOUS
 10
66.555000
 20
209.652496
 11
57.055000
 21
209.652496
  0
LINE
  8
0
  6
CONTINUOUS
 10
57.555000
 20
224.652496
 11
57.055000
 21
224.652496
  0
LINE
  8
0
  6
CONTINUOUS
 10
57.555000
 20
270.652496
 11
57.055000
 21
270.652496
  0
ARC
  8
0
  6
DASHED
 10
173.054993
 20
209.652496
 40
3.250000
 50
0.000000
 51
180.000000
  0
ARC
  8
0
  6
DASHED
 10
138.054993
 20
209.652496
 40
3.250000
 50
0.000000
 51
180.000000
  0
ARC
  8
0
  6
DASHED
 10
138.054993
 20
285.652496
 40
3.250000
 50
-180.000000
 51
0.000000
  0
ARC
  8
0
  6
DASHED
 10
173.054993
 20
285.652496
 40
3.250000
 50
-180.000000
 51
0.000000
  0
LINE
  8
0
  6
CENTER
 10
132.804993
 20
285.652496
 11
143.054993
 21
285.652496
  0
LINE
  8
0
  6
CENTER
 10
167.804993
 20
285.652496
 11
178.429993
 21
285.652496
  0
LINE
  8
0
  6
CENTER
 10
132.679993
 20
209.652496
 11
143.429993
 21
209.652496
  0
LINE
  8
0
  6
CENTER
 10
167.679993
 20
209.652496
 11
178.429993
 21
209.652496
  0
LINE
  8
0
  6
CONTINUOUS
 10
163.054993
 20
292.027496
 11
163.054993
 21
285.652496
  0
LINE
  8
0
  6
CONTINUOUS
 10
148.054993
 20
292.027496
 11
148.054993
 21
285.652496
  0
ARC
  8
0
  6
CONTINUOUS
 10
178.554993
 20
204.652496
 40
2.000000
 50
-90.000000
 51
0.000000
  0
ARC
  8
0
  6
CONTINUOUS
 10
132.554993
 20
204.652496
 40
2.000000
 50
180.000000
 51
270.000000
  0
ARC
  8
0
  6
CONTINUOUS
 10
178.554993
 20
290.652496
 40
2.000000
 50
0.000000
 51
90.000000
  0
ARC
  8
0
  6
CONTINUOUS
 10
132.554993
 20
290.652496
 40
2.000000
 50
90.000000
 51
180.000000
  0
LINE
  8
0
  6
CONTINUOUS
 10
66.555000
 20
216.652496
 11
66.555000
 21
209.652496
  0
LINE
  8
0
  6
CONTINUOUS
 10
57.055000
 20
207.652496
 11
57.055000
 21
287.652496
  0
LINE
  8
0
  6
CONTINUOUS
 10
13.055000
 20
287.652496
 11
57.055000
 21
287.652496
  0
LINE
  8
0
  6
CONTINUOUS
 10
13.055000
 20
207.652496
 11
57.055000
 21
207.652496
  0
LINE
  8
0
  6
CONTINUOUS
 10
8.055000
 20
212.652496
 11
8.055000
 21
282.652496
  0
ARC
  8
0
  6
CONTINUOUS
 10
13.055000
 20
282.652496
 40
5.000000
 50
90.000000
 51
180.000000
  0
ARC
  8
0
  6
CONTINUOUS
 10
13.055000
 20
212.652496
 40
5.000000
 50
180.000000
 51
270.000000
  0
LINE
  8
0
  6
CONTINUOUS
 10
10.555000
 20
271.652496
 11
57.055000
 21
271.652496
  0
LINE
  8
0
  6
CONTINUOUS
 10
10.555000
 20
221.652496
 11
57.055000
 21
221.652496
  0
LINE
  8
0
  6
CONTINUOUS
 10
59.055000
 20
86.142509
 11
117.555000
 21
86.142502
  0
LINE
  8
0
  6
CONTINUOUS
 10
59.055000
 20
86.142502
 11
59.055000
 21
84.642502
  0
LINE
  8
0
  6
CONTINUOUS
 10
105.055000
 20
86.142502
 11
105.055000
 21
84.642502
  0
LINE
  8
0
  6
CONTINUOUS
 10
57.555000
 20
276.652496
 11
57.555000
 21
218.652496
  0
LINE
  8
0
  6
CONTINUOUS
 10
119.555000
 20
218.652496
 11
119.555000
 21
276.652496
  0
LINE
  8
0
  6
CONTINUOUS
 10
119.555000
 20
88.142502
 11
117.555000
 21
86.142502
  0
LINE
  8
0
  6
CONTINUOUS
 10
57.555000
 20
88.142509
 11
59.555000
 21
86.142509
  0
LINE
  8
0
  6
CONTINUOUS
 10
57.555000
 20
88.142509
 11
119.555000
 21
88.142502
  0
LINE
  8
0
  6
CONTINUOUS
 10
57.555000
 20
98.142509
 11
119.555000
 21
98.142509
  0
LINE
  8
0
  6
CENTER
 10
88.555000
 20
283.898743
 11
88.555000
 21
211.205933
  0
LINE
  8
0
  6
CONTINUOUS
 10
57.555000
 20
99.142509
 11
119.555000
 21
99.142509
  0
LINE
  8
0
  6
CONTINUOUS
 10
58.555000
 20
136.142502
 11
118.555000
 21
136.142517
  0
LINE
  8
0
  6
CONTINUOUS
 10
118.555000
 20
136.142517
 11
119.555000
 21
135.142517
  0
LINE
  8
0
  6
CONTINUOUS
 10
57.555000
 20
135.142502
 11
58.555000
 21
136.142502
  0
LINE
  8
0
  6
CONTINUOUS
 10
57.555000
 20
135.142502
 11
119.555000
 21
135.142517
  0
LINE
  8
0
  6
CENTER
 10
54.930000
 20
119.142517
 11
60.680000
 21
119.142517
  0
LINE
  8
0
  6
CONTINUOUS
 10
56.430000
 20
129.642517
 11
59.555000
 21
129.642517
  0
LINE
  8
0
  6
CONTINUOUS
 10
56.430000
 20
108.642509
 11
59.555000
 21
108.642509
  0
LINE
  8
0
  6
CONTINUOUS
 10
330.554993
 20
86.142487
 11
330.554993
 21
83.598511
  0
LINE
  8
0
  6
CONTINUOUS
 10
285.554993
 20
86.142487
 11
285.554993
 21
83.598503
  0
LINE
  8
0
  6
CONTINUOUS
 10
279.054993
 20
86.142487
 11
337.054993
 21
86.142487
  0
LINE
  8
0
  6
CONTINUOUS
 10
339.054993
 20
135.142487
 11
339.054993
 21
88.142487
  0
LINE
  8
0
  6
CONTINUOUS
 10
277.054993
 20
135.142487
 11
277.054993
 21
88.142487
  0
LINE
  8
0
  6
CONTINUOUS
 10
339.054993
 20
88.142487
 11
337.054993
 21
86.142487
  0
LINE
  8
0
  6
CONTINUOUS
 10
277.054993
 20
88.142487
 11
279.054993
 21
86.142487
  0
LINE
  8
0
  6
CONTINUOUS
 10
277.054993
 20
88.142487
 11
339.054993
 21
88.142487
  0
LINE
  8
0
  6
CONTINUOUS
 10
277.054993
 20
98.142487
 11
339.054993
 21
98.142487
  0
LINE
  8
0
  6
CONTINUOUS
 10
277.054993
 20
99.142487
 11
339.054993
 21
99.142487
  0
LINE
  8
0
  6
CONTINUOUS
 10
278.054993
 20
136.142487
 11
338.054993
 21
136.142487
  0
LINE
  8
0
  6
CONTINUOUS
 10
338.054993
 20
136.142487
 11
339.054993
 21
135.142487
  0
LINE
  8
0
  6
CONTINUOUS
 10
278.054993
 20
136.142487
 11
277.054993
 21
135.142487
  0
LINE
  8
0
  6
CONTINUOUS
 10
277.054993
 20
135.142487
 11
339.054993
 21
135.142487
  0
LINE
  8
0
  6
CONTINUOUS
 10
119.555000
 20
135.142517
 11
119.555000
 21
88.142502
  0
LINE
  8
0
  6
CONTINUOUS
 10
57.555000
 20
135.142502
 11
57.555000
 21
88.142509
  0
LINE
  8
0
  6
CENTER
 10
88.555000
 20
144.232498
 11
88.555000
 21
81.548492
  0
LINE
  8
0
  6
CONTINUOUS
 10
59.555000
 20
278.652496
 11
117.555000
 21
278.652496
  0
LINE
  8
0
  6
CONTINUOUS
 10
59.555000
 20
216.652496
 11
117.555000
 21
216.652496
  0
LINE
  8
0
  6
CONTINUOUS
 10
117.555000
 20
278.652496
 11
119.555000
 21
276.652496
  0
LINE
  8
0
  6
CONTINUOUS
 10
119.555000
 20
218.652496
 11
117.555000
 21
216.652496
  0
LINE
  8
0
  6
CONTINUOUS
 10
57.555000
 20
218.652496
 11
59.555000
 21
216.652496
  0
LINE
  8
0
  6
CONTINUOUS
 10
57.555000
 20
276.652496
 11
59.555000
 21
278.652496
  0
LINE
  8
0
  6
CONTINUOUS
 10
111.555000
 20
273.652496
 11
111.555000
 21
278.652496
  0
LINE
  8
0
  6
CONTINUOUS
 10
114.555000
 20
270.652496
 11
119.555000
 21
270.652496
  0
CIRCLE
  8
0
  6
CONTINUOUS
 10
115.555000
 20
274.652496
 40
2.250000
  0
ARC
  8
0
  6
CONTINUOUS
 10
114.555000
 20
273.652496
 40
3.000000
 50
180.000000
 51
270.000000
  0
LINE
  8
0
  6
CONTINUOUS
 10
118.555000
 20
269.652496
 11
118.555000
 21
225.652496
  0
LINE
  8
0
  6
CONTINUOUS
 10
114.555000
 20
269.652496
 11
118.555000
 21
269.652496
  0
ARC
  8
0
  6
CONTINUOUS
 10
114.555000
 20
273.652496
 40
4.000000
 50
180.000000
 51
270.000000
  0
LINE
  8
0
  6
CONTINUOUS
 10
110.555000
 20
277.652496
 11
110.555000
 21
273.652496
  0
LINE
  8
0
  6
CONTINUOUS
 10
118.555000
 20
269.652496
 11
119.555000
 21
270.652496
  0
LINE
  8
0
  6
CONTINUOUS
 10
66.555000
 20
277.652496
 11
110.555000
 21
277.652496
  0
LINE
  8
0
  6
CONTINUOUS
 10
110.555000
 20
277.652496
 11
111.555000
 21
278.652496
  0
LINE
  8
0
  6
CONTINUOUS
 10
62.555000
 20
270.652496
 11
57.555000
 21
270.652496
  0
LINE
  8
0
  6
CONTINUOUS
 10
65.555000
 20
273.652496
 11
65.555000
 21
278.652496
  0
CIRCLE
  8
0
  6
CONTINUOUS
 10
61.555000
 20
274.652496
 40
2.250000
  0
ARC
  8
0
  6
CONTINUOUS
 10
62.555000
 20
273.652496
 40
3.000000
 50
-90.000000
 51
0.000000
  0
LINE
  8
0
  6
CONTINUOUS
 10
66.555000
 20
273.652496
 11
66.555000
 21
277.652496
  0
ARC
  8
0
  6
CONTINUOUS
 10
62.555000
 20
273.652496
 40
4.000000
 50
-90.000000
 51
0.000000
  0
LINE
  8
0
  6
CONTINUOUS
 10
58.555000
 20
269.652496
 11
62.555000
 21
269.652496
  0
LINE
  8
0
  6
CONTINUOUS
 10
66.555000
 20
277.652496
 11
65.555000
 21
278.652496
  0
LINE
  8
0
  6
CONTINUOUS
 10
58.555000
 20
269.652496
 11
57.555000
 21
270.652496
  0
LINE
  8
0
  6
CONTINUOUS
 10
65.555000
 20
221.652496
 11
65.555000
 21
216.652496
  0
LINE
  8
0
  6
CONTINUOUS
 10
62.555000
 20
224.652496
 11
57.555000
 21
224.652496
  0
CIRCLE
  8
0
  6
CONTINUOUS
 10
61.555000
 20
220.652496
 40
2.250000
  0
ARC
  8
0
  6
CONTINUOUS
 10
62.555000
 20
221.652496
 40
3.000000
 50
0.000000
 51
90.000000
  0
LINE
  8
0
  6
CONTINUOUS
 10
62.555000
 20
225.652496
 11
58.555000
 21
225.652496
  0
ARC
  8
0
  6
CONTINUOUS
 10
62.555000
 20
221.652496
 40
4.000000
 50
0.000000
 51
90.000000
  0
LINE
  8
0
  6
CONTINUOUS
 10
66.555000
 20
217.652496
 11
66.555000
 21
221.652496
  0
LINE
  8
0
  6
CONTINUOUS
 10
58.555000
 20
225.652496
 11
57.555000
 21
224.652496
  0
LINE
  8
0
  6
CONTINUOUS
 10
66.555000
 20
217.652496
 11
65.555000
 21
216.652496
  0
LINE
  8
0
  6
CONTINUOUS
 10
114.555000
 20
224.652496
 11
119.555000
 21
224.652496
  0
LINE
  8
0
  6
CONTINUOUS
 10
111.555000
 20
221.652496
 11
111.555000
 21
216.652496
  0
CIRCLE
  8
0
  6
CONTINUOUS
 10
115.555000
 20
220.652496
 40
2.250000
  0
ARC
  8
0
  6
CONTINUOUS
 10
114.555000
 20
221.652496
 40
3.000000
 50
90.000000
 51
180.000000
  0
LINE
  8
0
  6
CONTINUOUS
 10
110.555000
 20
221.652496
 11
110.555000
 21
217.652496
  0
ARC
  8
0
  6
CONTINUOUS
 10
114.555000
 20
221.652496
 40
4.000000
 50
90.000000
 51
180.000000
  0
LINE
  8
0
  6
CONTINUOUS
 10
118.555000
 20
225.652496
 11
114.555000
 21
225.652496
  0
LINE
  8
0
  6
CONTINUOUS
 10
110.555000
 20
217.652496
 11
111.555000
 21
216.652496
  0
LINE
  8
0
  6
CONTINUOUS
 10
118.555000
 20
225.652496
 11
119.555000
 21
224.652496
  0
LINE
  8
0
  6
CONTINUOUS
 10
66.555000
 20
217.652496
 11
110.555000
 21
217.652496
  0
LINE
  8
0
  6
CONTINUOUS
 10
58.555000
 20
269.652496
 11
58.555000
 21
225.652496
  0
TEXT
  8
0
 10
-6.000000
 20
-2.000000
 40
4.000000
 41
1.000000
  1
GLMN-12-5~30-T60C
 50
0.000000
  0
ENDSEC
  0
EOF
