  0
SECTION
  2
HEADER
  9
$CLAYER
  8
1
  9
$LTSCALE
 40
3.0
  0
ENDSEC
  0
SECTION
  2
TABLES
  0
TABLE
  2
LTYPE
 70
     4
  0
LTYPE
  2
CONTINUOUS
  3
solid line
 70
    64
 72
    65
 73
     0
 40
0.0
  0
LTYPE
  2
DASHED
  3
__ __ __ __ __ __ __ __ __ __ __ __ __ __ __
 70
    64
 72
    65
 73
     2
 40
0.75
 49
0.5
 49
-0.25
  0
LTYPE
  2
CENTER
  3
____ _ ____ _ ____ _ ____ _ ____ _ ____ _ ____
 70
    64
 72
    65
 73
     4
 40
2.0
 49
1.25
 49
-0.25
 49
0.25
 49
-0.25
  0
LTYPE
  2
PHANTOM
  3
_____ _ _ _____ _ _ _____ _ _ _____ _ _ ____
 70
    64
 72
    65
 73
     6
 40
2.5
 49
1.25
 49
-0.25
 49
0.25
 49
-0.25
 49
0.25
 49
-0.25
  0
ENDTAB
  0
TABLE
  2
LAYER
 70
     1
  0
LAYER
  2
0
 70
    64
 62
     7
  6
CONTINUOUS
  0
ENDTAB
  0
TABLE
  2
STYLE
 70
     1
  0
STYLE
  2
STANDARD
 70
     0
 40
0.000000
 41
1.000000
 50
0.000000
 71
     0
 42
3.000000
  3
txt
  4
BIGFONT
  0
ENDTAB
  0
ENDSEC
  0
SECTION
  2
BLOCKS
  0
ENDSEC
  0
SECTION
  2
ENTITIES
  0
LINE
  8
0
  6
CONTINUOUS
 10
53.764999
 20
104.649376
 11
63.264999
 21
104.649376
  0
LINE
  8
0
  6
CONTINUOUS
 10
63.264999
 20
94.058678
 11
53.764999
 21
94.058678
  0
LINE
  8
0
  6
CONTINUOUS
 10
53.764999
 20
14.649375
 11
63.264999
 21
14.649375
  0
LINE
  8
0
  6
CONTINUOUS
 10
63.264999
 20
25.240086
 11
53.764999
 21
25.240086
  0
LINE
  8
0
  6
CONTINUOUS
 10
53.764999
 20
106.649376
 11
53.764999
 21
12.649375
  0
LINE
  8
0
  6
CONTINUOUS
 10
53.764999
 20
88.649376
 11
9.789970
 21
88.649376
  0
LINE
  8
0
  6
CONTINUOUS
 10
53.764999
 20
30.649376
 11
9.789970
 21
30.649376
  0
LINE
  8
0
  6
CONTINUOUS
 10
11.264980
 20
106.649376
 11
53.764999
 21
106.649376
  0
LINE
  8
0
  6
CONTINUOUS
 10
11.264980
 20
12.649375
 11
53.764999
 21
12.649375
  0
ARC
  8
0
  6
CONTINUOUS
 10
11.265010
 20
101.649376
 40
5.000000
 50
90.000000
 51
180.000000
  0
ARC
  8
0
  6
CONTINUOUS
 10
11.264980
 20
17.649376
 40
5.000000
 50
180.000000
 51
270.000000
  0
LINE
  8
0
  6
CONTINUOUS
 10
6.265010
 20
101.649376
 11
6.264980
 21
17.649364
  0
LINE
  8
0
  6
CONTINUOUS
 10
63.264999
 20
14.649375
 11
63.264999
 21
104.649376
  0
LINE
  8
0
  6
CENTER
 10
-8.082344
 20
59.649376
 11
191.541702
 21
59.649376
  0
LINE
  8
0
  6
CONTINUOUS
 10
182.264999
 20
104.649376
 11
182.264999
 21
7.649375
  0
LINE
  8
0
  6
CONTINUOUS
 10
126.264999
 20
23.240086
 11
126.264999
 21
7.649375
  0
LINE
  8
0
  6
CENTER
 10
160.684692
 20
72.649376
 11
222.764999
 21
72.649376
  0
LINE
  8
0
  6
CONTINUOUS
 10
126.264999
 20
7.649375
 11
182.264999
 21
7.649375
  0
LINE
  8
0
  6
CONTINUOUS
 10
128.264999
 20
15.649375
 11
180.264999
 21
15.649375
  0
LINE
  8
0
  6
CENTER
 10
174.264999
 20
20.344755
 11
174.264999
 21
0.399375
  0
LINE
  8
0
  6
CENTER
 10
134.264999
 20
20.344755
 11
134.264999
 21
-0.350625
  0
LINE
  8
0
  6
CONTINUOUS
 10
63.264999
 20
104.649376
 11
182.264999
 21
104.649376
  0
LINE
  8
0
  6
CONTINUOUS
 10
63.264999
 20
14.649375
 11
126.264999
 21
14.649375
  0
LINE
  8
0
  6
CONTINUOUS
 10
215.264999
 20
80.149376
 11
215.264999
 21
65.149376
  0
LINE
  8
0
  6
CONTINUOUS
 10
188.264999
 20
81.149376
 11
188.264999
 21
64.149376
  0
LINE
  8
0
  6
CONTINUOUS
 10
188.264999
 20
80.149376
 11
215.264999
 21
80.149376
  0
LINE
  8
0
  6
CONTINUOUS
 10
188.264999
 20
65.149376
 11
215.264999
 21
65.149376
  0
ARC
  8
0
  6
CONTINUOUS
 10
180.264999
 20
13.649365
 40
2.000000
 50
0.000000
 51
90.000000
  0
ARC
  8
0
  6
CONTINUOUS
 10
128.264999
 20
13.649385
 40
2.000000
 50
90.000000
 51
180.000000
  0
LINE
  8
0
  6
DASHED
 10
177.514999
 20
15.649375
 11
177.514999
 21
7.649375
  0
LINE
  8
0
  6
DASHED
 10
171.014999
 20
15.649375
 11
171.014999
 21
7.649375
  0
LINE
  8
0
  6
DASHED
 10
137.514999
 20
15.649375
 11
137.514999
 21
7.649375
  0
LINE
  8
0
  6
DASHED
 10
131.014999
 20
15.649375
 11
131.014999
 21
7.649375
  0
LINE
  8
0
  6
CONTINUOUS
 10
164.264999
 20
17.649364
 11
164.264999
 21
32.649376
  0
LINE
  8
0
  6
CONTINUOUS
 10
144.264999
 20
17.649376
 11
144.264999
 21
32.649364
  0
LINE
  8
0
  6
CONTINUOUS
 10
182.264999
 20
94.058678
 11
63.264999
 21
94.058678
  0
LINE
  8
0
  6
CONTINUOUS
 10
124.264999
 20
25.240086
 11
63.264999
 21
25.240086
  0
LINE
  8
0
  6
CONTINUOUS
 10
163.639999
 20
32.081985
 11
144.764999
 21
32.081985
  0
ARC
  8
0
  6
CONTINUOUS
 10
166.264999
 20
32.649376
 40
2.000000
 50
90.000000
 51
180.000000
  0
ARC
  8
0
  6
CONTINUOUS
 10
142.264999
 20
32.649364
 40
2.000000
 50
0.000000
 51
90.000000
  0
ARC
  8
0
  6
CONTINUOUS
 10
166.264999
 20
17.649376
 40
2.000000
 50
180.000000
 51
270.000000
  0
ARC
  8
0
  6
CONTINUOUS
 10
142.264999
 20
17.649376
 40
2.000000
 50
-90.000000
 51
0.000000
  0
ARC
  8
0
  6
CONTINUOUS
 10
124.264999
 20
23.240086
 40
2.000000
 50
0.000000
 51
90.000000
  0
LINE
  8
0
  6
CONTINUOUS
 10
182.264999
 20
25.240086
 11
165.264999
 21
25.240086
  0
LINE
  8
0
  6
CONTINUOUS
 10
143.639999
 20
25.240086
 11
125.952499
 21
25.240086
  0
LINE
  8
0
  6
CONTINUOUS
 10
193.764999
 20
75.149376
 11
215.264999
 21
75.149376
  0
LINE
  8
0
  6
CONTINUOUS
 10
193.764999
 20
70.149376
 11
215.264999
 21
70.149376
  0
ARC
  8
0
  6
CONTINUOUS
 10
193.764999
 20
72.649376
 40
2.500000
 50
90.000000
 51
180.000000
  0
ARC
  8
0
  6
CONTINUOUS
 10
193.764999
 20
72.649376
 40
2.500000
 50
180.000000
 51
270.000000
  0
LINE
  8
0
  6
CONTINUOUS
 10
185.264999
 20
92.649376
 11
182.264999
 21
92.649376
  0
LINE
  8
0
  6
CONTINUOUS
 10
185.264999
 20
52.649376
 11
182.264999
 21
52.649376
  0
LINE
  8
0
  6
CONTINUOUS
 10
186.264999
 20
53.649376
 11
186.264999
 21
91.649376
  0
ARC
  8
0
  6
CONTINUOUS
 10
185.264999
 20
91.649376
 40
1.000000
 50
0.000000
 51
90.000000
  0
ARC
  8
0
  6
CONTINUOUS
 10
185.264999
 20
53.649376
 40
1.000000
 50
-90.000000
 51
0.000000
  0
LINE
  8
0
  6
CONTINUOUS
 10
186.264999
 20
81.149376
 11
188.264999
 21
81.149376
  0
LINE
  8
0
  6
CONTINUOUS
 10
186.264999
 20
64.149376
 11
188.264999
 21
64.149376
  0
LINE
  8
0
  6
CENTER
 10
300.656525
 20
-1.350625
 11
300.656525
 21
165.443756
  0
LINE
  8
0
  6
CENTER
 10
247.156525
 20
59.649376
 11
354.156525
 21
59.649376
  0
LINE
  8
0
  6
CENTER
 10
274.552338
 20
72.649376
 11
327.818268
 21
72.649376
  0
LINE
  8
0
  6
CONTINUOUS
 10
333.656525
 20
7.649375
 11
352.656525
 21
7.649375
  0
LINE
  8
0
  6
CONTINUOUS
 10
352.656525
 20
13.649375
 11
352.656525
 21
7.649375
  0
LINE
  8
0
  6
CONTINUOUS
 10
350.656525
 20
15.649375
 11
338.656525
 21
15.649375
  0
LINE
  8
0
  6
CONTINUOUS
 10
332.656525
 20
8.649375
 11
300.656525
 21
8.649375
  0
ARC
  8
0
  6
CONTINUOUS
 10
300.656525
 20
59.649376
 40
45.000000
 50
-38.942410
 51
49.875912
  0
LINE
  8
0
  6
CONTINUOUS
 10
327.691406
 20
104.177475
 11
300.656525
 21
104.649376
  0
ARC
  8
0
  6
CONTINUOUS
 10
327.656525
 20
102.177773
 40
2.000000
 50
0.000000
 51
89.000191
  0
LINE
  8
0
  6
CONTINUOUS
 10
329.656525
 20
102.177773
 11
329.656525
 21
94.058678
  0
ARC
  8
0
  6
CONTINUOUS
 10
350.656525
 20
13.649365
 40
2.000000
 50
0.000000
 51
90.000000
  0
LINE
  8
0
  6
CENTER
 10
345.656525
 20
19.024376
 11
345.656525
 21
1.899375
  0
LINE
  8
0
  6
DASHED
 10
348.906525
 20
15.649375
 11
348.906525
 21
7.649375
  0
LINE
  8
0
  6
DASHED
 10
342.406525
 20
15.649375
 11
342.406525
 21
7.649375
  0
LINE
  8
0
  6
CONTINUOUS
 10
340.656525
 20
74.010773
 11
340.656525
 21
45.288235
  0
ARC
  8
0
  6
CONTINUOUS
 10
300.656525
 20
59.649376
 40
42.500000
 50
270.000000
 51
340.250092
  0
ARC
  8
0
  6
CONTINUOUS
 10
300.656525
 20
59.649376
 40
42.500000
 50
19.749901
 51
90.000000
  0
LINE
  8
0
  6
CONTINUOUS
 10
267.656525
 20
7.649375
 11
248.656525
 21
7.649375
  0
LINE
  8
0
  6
CONTINUOUS
 10
248.656525
 20
13.649375
 11
248.656525
 21
7.649375
  0
LINE
  8
0
  6
CONTINUOUS
 10
250.656525
 20
15.649375
 11
262.656525
 21
15.649375
  0
LINE
  8
0
  6
CONTINUOUS
 10
268.656525
 20
8.649375
 11
300.656525
 21
8.649375
  0
ARC
  8
0
  6
CONTINUOUS
 10
300.656525
 20
59.649376
 40
45.000000
 50
130.124100
 51
218.942398
  0
LINE
  8
0
  6
CONTINUOUS
 10
273.621613
 20
104.177475
 11
300.656525
 21
104.649376
  0
ARC
  8
0
  6
CONTINUOUS
 10
273.656525
 20
102.177773
 40
2.000000
 50
90.999809
 51
180.000000
  0
LINE
  8
0
  6
CONTINUOUS
 10
271.656525
 20
102.177773
 11
271.656525
 21
94.058678
  0
ARC
  8
0
  6
CONTINUOUS
 10
250.656525
 20
13.649365
 40
2.000000
 50
90.000000
 51
180.000000
  0
LINE
  8
0
  6
CENTER
 10
255.656525
 20
19.024376
 11
255.656525
 21
1.899375
  0
LINE
  8
0
  6
DASHED
 10
252.406525
 20
15.649375
 11
252.406525
 21
7.649375
  0
LINE
  8
0
  6
DASHED
 10
258.906525
 20
15.649375
 11
258.906525
 21
7.649375
  0
LINE
  8
0
  6
CONTINUOUS
 10
260.656525
 20
74.010773
 11
260.656525
 21
45.288235
  0
ARC
  8
0
  6
CONTINUOUS
 10
300.656525
 20
59.649376
 40
42.500000
 50
-160.250107
 51
-90.000000
  0
ARC
  8
0
  6
CONTINUOUS
 10
300.656525
 20
59.649376
 40
42.500000
 50
90.000000
 51
160.250107
  0
CIRCLE
  8
0
  6
CONTINUOUS
 10
300.656525
 20
72.649376
 40
20.000000
  0
LINE
  8
0
  6
CONTINUOUS
 10
291.156525
 20
75.149376
 11
296.156525
 21
75.149376
  0
LINE
  8
0
  6
CONTINUOUS
 10
291.156525
 20
70.149376
 11
296.156525
 21
70.149376
  0
LINE
  8
0
  6
CONTINUOUS
 10
291.156525
 20
70.149376
 11
291.156525
 21
75.149376
  0
ARC
  8
0
  6
CONTINUOUS
 10
300.656525
 20
72.649376
 40
7.500000
 50
-160.528793
 51
160.528793
  0
LINE
  8
0
  6
CONTINUOUS
 10
296.156525
 20
75.149376
 11
296.156525
 21
70.149376
  0
LINE
  8
0
  6
CONTINUOUS
 10
335.656525
 20
31.365095
 11
335.656525
 21
18.649364
  0
LINE
  8
0
  6
CONTINUOUS
 10
265.656525
 20
18.649376
 11
265.656525
 21
31.365114
  0
LINE
  8
0
  6
CONTINUOUS
 10
352.070709
 20
15.063575
 11
335.723907
 21
31.410465
  0
LINE
  8
0
  6
CONTINUOUS
 10
249.242325
 20
15.063575
 11
265.606110
 21
31.427534
  0
ARC
  8
0
  6
CONTINUOUS
 10
338.656525
 20
18.649376
 40
3.000000
 50
180.000000
 51
270.000000
  0
ARC
  8
0
  6
CONTINUOUS
 10
262.656525
 20
18.649376
 40
3.000000
 50
-90.000000
 51
0.000000
  0
LINE
  8
0
  6
CONTINUOUS
 10
333.656525
 20
7.649375
 11
332.656525
 21
8.649375
  0
LINE
  8
0
  6
CONTINUOUS
 10
267.656525
 20
7.649375
 11
268.656525
 21
8.649375
  0
LINE
  8
0
  6
CONTINUOUS
 10
294.281525
 20
42.202595
 11
294.281525
 21
36.649376
  0
LINE
  8
0
  6
CONTINUOUS
 10
297.469025
 20
44.219685
 11
297.469025
 21
46.211876
  0
LINE
  8
0
  6
CONTINUOUS
 10
303.844025
 20
44.219685
 11
303.844025
 21
46.211876
  0
LINE
  8
0
  6
CONTINUOUS
 10
300.033905
 20
45.041466
 11
300.033905
 21
37.695286
  0
LINE
  8
0
  6
CONTINUOUS
 10
301.229309
 20
45.041466
 11
301.229309
 21
37.695286
  0
LINE
  8
0
  6
CONTINUOUS
 10
307.504608
 20
45.041466
 11
307.504608
 21
37.645466
  0
LINE
  8
0
  6
CONTINUOUS
 10
308.600311
 20
41.119347
 11
308.600311
 21
37.645466
  0
LINE
  8
0
  6
CONTINUOUS
 10
292.769012
 20
44.941856
 11
289.697113
 21
44.941856
  0
LINE
  8
0
  6
CONTINUOUS
 10
289.697113
 20
44.941856
 11
288.977325
 21
44.049366
  0
LINE
  8
0
  6
CONTINUOUS
 10
289.063904
 20
46.211876
 11
287.906525
 21
44.729866
  0
LINE
  8
0
  6
CONTINUOUS
 10
288.977325
 20
38.540295
 11
289.708618
 21
37.769985
  0
LINE
  8
0
  6
CONTINUOUS
 10
287.906525
 20
37.890224
 11
289.136322
 21
36.649376
  0
LINE
  8
0
  6
CONTINUOUS
 10
287.906525
 20
44.729866
 11
287.906525
 21
37.890224
  0
LINE
  8
0
  6
CONTINUOUS
 10
288.977325
 20
44.049366
 11
288.977325
 21
38.540295
  0
LINE
  8
0
  6
CONTINUOUS
 10
293.360107
 20
44.370426
 11
292.756927
 21
44.941856
  0
LINE
  8
0
  6
CONTINUOUS
 10
293.350525
 20
46.211876
 11
294.281525
 21
45.178726
  0
LINE
  8
0
  6
CONTINUOUS
 10
293.360107
 20
44.219685
 11
294.281525
 21
44.219685
  0
LINE
  8
0
  6
CONTINUOUS
 10
289.063904
 20
46.211876
 11
293.350525
 21
46.211876
  0
LINE
  8
0
  6
CONTINUOUS
 10
293.360107
 20
41.156696
 11
291.691711
 21
41.156696
  0
LINE
  8
0
  6
CONTINUOUS
 10
293.360107
 20
40.160606
 11
293.360107
 21
40.957485
  0
LINE
  8
0
  6
CONTINUOUS
 10
291.367920
 20
37.769985
 11
289.708618
 21
37.769985
  0
ARC
  8
0
  6
CONTINUOUS
 10
291.367920
 20
39.762165
 40
1.992187
 50
-89.999786
 51
0.000109
  0
LINE
  8
0
  6
CONTINUOUS
 10
293.360107
 20
37.411636
 11
293.360107
 21
36.649376
  0
LINE
  8
0
  6
CONTINUOUS
 10
294.281525
 20
45.178726
 11
294.281525
 21
44.219685
  0
LINE
  8
0
  6
CONTINUOUS
 10
293.360107
 20
41.156696
 11
293.360107
 21
39.762165
  0
LINE
  8
0
  6
CONTINUOUS
 10
291.691711
 20
42.202595
 11
291.691711
 21
41.156696
  0
LINE
  8
0
  6
CONTINUOUS
 10
293.360107
 20
36.649376
 11
294.281525
 21
36.649376
  0
LINE
  8
0
  6
CONTINUOUS
 10
293.360107
 20
37.411636
 11
292.451508
 21
36.649376
  0
LINE
  8
0
  6
CONTINUOUS
 10
301.229309
 20
37.695286
 11
301.627716
 21
37.695286
  0
LINE
  8
0
  6
CONTINUOUS
 10
299.560822
 20
37.695286
 11
299.560822
 21
36.649376
  0
LINE
  8
0
  6
CONTINUOUS
 10
301.627716
 20
37.695286
 11
301.627716
 21
36.649376
  0
LINE
  8
0
  6
CONTINUOUS
 10
303.179108
 20
44.219685
 11
303.844025
 21
44.219685
  0
LINE
  8
0
  6
CONTINUOUS
 10
297.469025
 20
44.219685
 11
298.176605
 21
44.219685
  0
LINE
  8
0
  6
CONTINUOUS
 10
297.469025
 20
46.211876
 11
303.844025
 21
46.211876
  0
LINE
  8
0
  6
CONTINUOUS
 10
299.560822
 20
36.649376
 11
301.627716
 21
36.649376
  0
LINE
  8
0
  6
CONTINUOUS
 10
299.560822
 20
37.695286
 11
300.033905
 21
37.695286
  0
ARC
  8
0
  6
CONTINUOUS
 10
310.854004
 20
43.659386
 40
2.552490
 50
-73.981873
 51
90.003510
  0
ARC
  8
0
  6
CONTINUOUS
 10
310.854004
 20
43.659386
 40
1.557193
 50
-82.585274
 51
62.411850
  0
LINE
  8
0
  6
CONTINUOUS
 10
307.031525
 20
46.211876
 11
310.854004
 21
46.211876
  0
LINE
  8
0
  6
CONTINUOUS
 10
307.031525
 20
46.211876
 11
307.031525
 21
45.041466
  0
LINE
  8
0
  6
CONTINUOUS
 10
308.600311
 20
45.041466
 11
308.600311
 21
42.115215
  0
LINE
  8
0
  6
CONTINUOUS
 10
311.558411
 20
41.205986
 11
313.138214
 21
37.645466
  0
LINE
  8
0
  6
CONTINUOUS
 10
310.640808
 20
41.119347
 11
312.135803
 21
37.645466
  0
LINE
  8
0
  6
CONTINUOUS
 10
307.031525
 20
37.645466
 11
307.504608
 21
37.645466
  0
LINE
  8
0
  6
CONTINUOUS
 10
308.600311
 20
37.645466
 11
309.036133
 21
37.645466
  0
LINE
  8
0
  6
CONTINUOUS
 10
309.036133
 20
36.649376
 11
307.031525
 21
36.649376
  0
LINE
  8
0
  6
CONTINUOUS
 10
311.937317
 20
37.645466
 11
312.135803
 21
37.645466
  0
LINE
  8
0
  6
CONTINUOUS
 10
313.138214
 20
37.645466
 11
313.406525
 21
37.645466
  0
LINE
  8
0
  6
CONTINUOUS
 10
311.937317
 20
36.649376
 11
313.406525
 21
36.649376
  0
LINE
  8
0
  6
CONTINUOUS
 10
313.406525
 20
37.645466
 11
313.406525
 21
36.649376
  0
LINE
  8
0
  6
CONTINUOUS
 10
311.937317
 20
37.645466
 11
311.937317
 21
36.649376
  0
LINE
  8
0
  6
CONTINUOUS
 10
309.036133
 20
37.645466
 11
309.036133
 21
36.649376
  0
LINE
  8
0
  6
CONTINUOUS
 10
307.031525
 20
37.645466
 11
307.031525
 21
36.649376
  0
LINE
  8
0
  6
CONTINUOUS
 10
298.519012
 20
45.041466
 11
298.176605
 21
44.219685
  0
LINE
  8
0
  6
CONTINUOUS
 10
302.890320
 20
45.041466
 11
303.179108
 21
44.219685
  0
LINE
  8
0
  6
CONTINUOUS
 10
301.229309
 20
45.041466
 11
302.890320
 21
45.041466
  0
LINE
  8
0
  6
CONTINUOUS
 10
300.033905
 20
45.041466
 11
298.519012
 21
45.041466
  0
LINE
  8
0
  6
CONTINUOUS
 10
307.031525
 20
45.041466
 11
307.504608
 21
45.041466
  0
LINE
  8
0
  6
CONTINUOUS
 10
308.600311
 20
45.041466
 11
311.575226
 21
45.039524
  0
LINE
  8
0
  6
CONTINUOUS
 10
293.360107
 20
44.370426
 11
293.360107
 21
44.219685
  0
LINE
  8
0
  6
CONTINUOUS
 10
289.136322
 20
36.649376
 11
292.451508
 21
36.649376
  0
LINE
  8
0
  6
CONTINUOUS
 10
308.600311
 20
42.115215
 11
311.055023
 21
42.115215
  0
LINE
  8
0
  6
CONTINUOUS
 10
308.600311
 20
41.119347
 11
310.640808
 21
41.119347
  0
LINE
  8
0
  6
CONTINUOUS
 10
291.691711
 20
42.202595
 11
294.281525
 21
42.202595
  0
LINE
  8
0
  6
CONTINUOUS
 10
253.656525
 20
85.749878
 11
253.656525
 21
33.548866
  0
LINE
  8
0
  6
CONTINUOUS
 10
347.656525
 20
33.548855
 11
347.656525
 21
85.749878
  0
LINE
  8
0
  6
CONTINUOUS
 10
269.606262
 20
104.599106
 11
255.706818
 21
90.699577
  0
LINE
  8
0
  6
CONTINUOUS
 10
345.606232
 20
90.699577
 11
331.706818
 21
104.599075
  0
LINE
  8
0
  6
CONTINUOUS
 10
255.706818
 20
28.599125
 11
259.242310
 21
25.063625
  0
LINE
  8
0
  6
CONTINUOUS
 10
345.606323
 20
28.599125
 11
342.070709
 21
25.063555
  0
ARC
  8
0
  6
CONTINUOUS
 10
260.656525
 20
33.548923
 40
7.000000
 50
180.000000
 51
225.000397
  0
ARC
  8
0
  6
CONTINUOUS
 10
260.656525
 20
85.749878
 40
7.000000
 50
135.000305
 51
180.000000
  0
ARC
  8
0
  6
CONTINUOUS
 10
274.556030
 20
99.649376
 40
7.000000
 50
111.786789
 51
135.000198
  0
ARC
  8
0
  6
CONTINUOUS
 10
326.757019
 20
99.649376
 40
7.000000
 50
45.000141
 51
68.213211
  0
ARC
  8
0
  6
CONTINUOUS
 10
340.656525
 20
85.749878
 40
7.000000
 50
0.000000
 51
45.000141
  0
ARC
  8
0
  6
CONTINUOUS
 10
340.656525
 20
33.548836
 40
7.000000
 50
-44.999569
 51
0.000000
  0
LINE
  8
0
  6
CONTINUOUS
 10
182.264999
 20
307.361237
 11
182.264999
 21
209.361252
  0
LINE
  8
0
  6
CENTER
 10
-4.090625
 20
258.361237
 11
218.182495
 21
258.361237
  0
LINE
  8
0
  6
CONTINUOUS
 10
116.264992
 20
287.361237
 11
182.264999
 21
287.361237
  0
LINE
  8
0
  6
CONTINUOUS
 10
63.264999
 20
303.361237
 11
182.264999
 21
303.361237
  0
LINE
  8
0
  6
CONTINUOUS
 10
63.264999
 20
213.361252
 11
182.264999
 21
213.361252
  0
LINE
  8
0
  6
CONTINUOUS
 10
53.764999
 20
303.361237
 11
63.264999
 21
303.361237
  0
LINE
  8
0
  6
CONTINUOUS
 10
54.264992
 20
287.361237
 11
53.764999
 21
287.361237
  0
LINE
  8
0
  6
CONTINUOUS
 10
53.764999
 20
213.361252
 11
63.264999
 21
213.361252
  0
LINE
  8
0
  6
CONTINUOUS
 10
63.264999
 20
213.361252
 11
63.264999
 21
227.361237
  0
LINE
  8
0
  6
CONTINUOUS
 10
215.264999
 20
265.861237
 11
215.264999
 21
248.861252
  0
LINE
  8
0
  6
CONTINUOUS
 10
188.264999
 20
266.861237
 11
188.264999
 21
249.861252
  0
LINE
  8
0
  6
CONTINUOUS
 10
188.264999
 20
265.861237
 11
215.264999
 21
265.861237
  0
LINE
  8
0
  6
CONTINUOUS
 10
188.264999
 20
250.861252
 11
191.264999
 21
250.861252
  0
LINE
  8
0
  6
CONTINUOUS
 10
185.264999
 20
278.361237
 11
182.264999
 21
278.361237
  0
LINE
  8
0
  6
CONTINUOUS
 10
185.264999
 20
238.361252
 11
182.264999
 21
238.361252
  0
LINE
  8
0
  6
CONTINUOUS
 10
186.264999
 20
239.361252
 11
186.264999
 21
277.361237
  0
ARC
  8
0
  6
CONTINUOUS
 10
185.264999
 20
277.361237
 40
1.000000
 50
0.000000
 51
90.000000
  0
ARC
  8
0
  6
CONTINUOUS
 10
185.264999
 20
239.361252
 40
1.000000
 50
-90.000000
 51
0.000000
  0
LINE
  8
0
  6
CONTINUOUS
 10
186.264999
 20
266.861237
 11
188.264999
 21
266.861237
  0
LINE
  8
0
  6
CONTINUOUS
 10
186.264999
 20
249.861252
 11
188.264999
 21
249.861252
  0
LINE
  8
0
  6
CONTINUOUS
 10
191.264999
 20
251.290253
 11
191.264999
 21
248.861252
  0
LINE
  8
0
  6
CONTINUOUS
 10
191.264999
 20
248.861252
 11
215.264999
 21
248.861252
  0
LINE
  8
0
  6
CONTINUOUS
 10
191.264999
 20
251.290253
 11
215.264999
 21
251.290253
  0
LINE
  8
0
  6
CONTINUOUS
 10
129.264999
 20
310.361237
 11
179.264999
 21
310.361237
  0
LINE
  8
0
  6
CONTINUOUS
 10
126.264999
 20
307.361237
 11
126.264999
 21
303.361237
  0
LINE
  8
0
  6
CENTER
 10
168.483902
 20
303.361237
 11
180.632507
 21
303.361237
  0
LINE
  8
0
  6
CENTER
 10
174.264999
 20
313.961548
 11
174.264999
 21
295.924988
  0
LINE
  8
0
  6
CENTER
 10
134.264999
 20
313.514374
 11
134.264999
 21
297.266571
  0
LINE
  8
0
  6
CENTER
 10
127.268127
 20
303.361237
 11
142.770630
 21
303.361237
  0
ARC
  8
0
  6
DASHED
 10
174.264999
 20
303.361237
 40
3.250000
 50
-180.000000
 51
0.000000
  0
ARC
  8
0
  6
CONTINUOUS
 10
134.264999
 20
303.361237
 40
3.250000
 50
0.000000
 51
180.000000
  0
ARC
  8
0
  6
DASHED
 10
134.264999
 20
303.361237
 40
3.250000
 50
-180.000000
 51
0.000000
  0
ARC
  8
0
  6
CONTINUOUS
 10
174.264999
 20
303.361237
 40
3.250000
 50
0.000000
 51
180.000000
  0
ARC
  8
0
  6
CONTINUOUS
 10
179.264999
 20
307.361237
 40
3.000000
 50
0.000000
 51
90.000000
  0
ARC
  8
0
  6
CONTINUOUS
 10
129.264999
 20
307.361237
 40
3.000000
 50
90.000000
 51
180.000000
  0
LINE
  8
0
  6
CONTINUOUS
 10
129.264999
 20
206.361252
 11
179.264999
 21
206.361252
  0
LINE
  8
0
  6
CONTINUOUS
 10
126.264999
 20
209.361252
 11
126.264999
 21
213.361252
  0
LINE
  8
0
  6
CENTER
 10
168.483902
 20
213.361252
 11
180.632507
 21
213.361252
  0
LINE
  8
0
  6
CENTER
 10
174.264999
 20
202.760941
 11
174.264999
 21
220.797501
  0
LINE
  8
0
  6
CENTER
 10
134.264999
 20
203.208130
 11
134.264999
 21
219.455933
  0
LINE
  8
0
  6
CENTER
 10
127.268127
 20
213.361252
 11
142.770630
 21
213.361252
  0
ARC
  8
0
  6
DASHED
 10
174.264999
 20
213.361252
 40
3.250000
 50
0.000000
 51
180.000000
  0
ARC
  8
0
  6
CONTINUOUS
 10
134.264999
 20
213.361252
 40
3.250000
 50
-180.000000
 51
0.000000
  0
ARC
  8
0
  6
DASHED
 10
134.264999
 20
213.361252
 40
3.250000
 50
0.000000
 51
180.000000
  0
ARC
  8
0
  6
CONTINUOUS
 10
174.264999
 20
213.361252
 40
3.250000
 50
-180.000000
 51
0.000000
  0
ARC
  8
0
  6
CONTINUOUS
 10
179.264999
 20
209.361252
 40
3.000000
 50
-90.000000
 51
0.000000
  0
ARC
  8
0
  6
CONTINUOUS
 10
129.264999
 20
209.361252
 40
3.000000
 50
-180.000000
 51
-90.000000
  0
LINE
  8
0
  6
CONTINUOUS
 10
116.264992
 20
229.361252
 11
182.264999
 21
229.361252
  0
LINE
  8
0
  6
CONTINUOUS
 10
54.264992
 20
229.361252
 11
53.764999
 21
229.361252
  0
LINE
  8
0
  6
CONTINUOUS
 10
63.264999
 20
289.361237
 11
63.264999
 21
303.361237
  0
LINE
  8
0
  6
CONTINUOUS
 10
53.764999
 20
305.361237
 11
53.764999
 21
211.361252
  0
LINE
  8
0
  6
CONTINUOUS
 10
53.764999
 20
287.361237
 11
9.789970
 21
287.361237
  0
LINE
  8
0
  6
CONTINUOUS
 10
53.764999
 20
229.361252
 11
9.789970
 21
229.361252
  0
LINE
  8
0
  6
CONTINUOUS
 10
11.264980
 20
305.361237
 11
53.764999
 21
305.361237
  0
LINE
  8
0
  6
CONTINUOUS
 10
11.264980
 20
211.361252
 11
53.764999
 21
211.361252
  0
ARC
  8
0
  6
CONTINUOUS
 10
11.265010
 20
300.361237
 40
5.000000
 50
90.000000
 51
180.000000
  0
ARC
  8
0
  6
CONTINUOUS
 10
11.264980
 20
216.361252
 40
5.000000
 50
180.000000
 51
270.000000
  0
LINE
  8
0
  6
CONTINUOUS
 10
6.265010
 20
300.361237
 11
6.264980
 21
216.361237
  0
LINE
  8
0
  6
CONTINUOUS
 10
55.764992
 20
106.149384
 11
114.265007
 21
106.149376
  0
LINE
  8
0
  6
CONTINUOUS
 10
55.764992
 20
106.149376
 11
55.764992
 21
104.649376
  0
LINE
  8
0
  6
CONTINUOUS
 10
101.764992
 20
106.149376
 11
101.764992
 21
104.649376
  0
LINE
  8
0
  6
CONTINUOUS
 10
54.264992
 20
155.149368
 11
54.264992
 21
108.149384
  0
LINE
  8
0
  6
CONTINUOUS
 10
116.265007
 20
155.149399
 11
116.265007
 21
108.149376
  0
LINE
  8
0
  6
CONTINUOUS
 10
116.265007
 20
108.149376
 11
114.265007
 21
106.149376
  0
LINE
  8
0
  6
CONTINUOUS
 10
54.264992
 20
108.149384
 11
56.264992
 21
106.149384
  0
LINE
  8
0
  6
CONTINUOUS
 10
54.264992
 20
108.149384
 11
116.265007
 21
108.149376
  0
LINE
  8
0
  6
CONTINUOUS
 10
54.264992
 20
118.149384
 11
116.265007
 21
118.149384
  0
LINE
  8
0
  6
CENTER
 10
85.264992
 20
166.705627
 11
85.264992
 21
101.555351
  0
LINE
  8
0
  6
CONTINUOUS
 10
54.264992
 20
119.149384
 11
116.265007
 21
119.149384
  0
LINE
  8
0
  6
CONTINUOUS
 10
55.264992
 20
156.149368
 11
115.265007
 21
156.149399
  0
LINE
  8
0
  6
CONTINUOUS
 10
115.265007
 20
156.149399
 11
116.265007
 21
155.149399
  0
LINE
  8
0
  6
CONTINUOUS
 10
54.264992
 20
155.149368
 11
55.264992
 21
156.149368
  0
LINE
  8
0
  6
CONTINUOUS
 10
54.264992
 20
155.149368
 11
116.265007
 21
155.149399
  0
LINE
  8
0
  6
CENTER
 10
51.639992
 20
139.149399
 11
57.389992
 21
139.149399
  0
LINE
  8
0
  6
CONTINUOUS
 10
53.139992
 20
149.649399
 11
56.264992
 21
149.649399
  0
LINE
  8
0
  6
CONTINUOUS
 10
53.139992
 20
128.649384
 11
56.264992
 21
128.649384
  0
LINE
  8
0
  6
CONTINUOUS
 10
271.656525
 20
106.149376
 11
329.656525
 21
106.149376
  0
LINE
  8
0
  6
CONTINUOUS
 10
331.656525
 20
155.149368
 11
331.656525
 21
108.149376
  0
LINE
  8
0
  6
CONTINUOUS
 10
269.656525
 20
155.149368
 11
269.656525
 21
108.149376
  0
LINE
  8
0
  6
CONTINUOUS
 10
331.656525
 20
108.149376
 11
329.656525
 21
106.149376
  0
LINE
  8
0
  6
CONTINUOUS
 10
269.656525
 20
108.149376
 11
271.656525
 21
106.149376
  0
LINE
  8
0
  6
CONTINUOUS
 10
269.656525
 20
108.149376
 11
331.656525
 21
108.149376
  0
LINE
  8
0
  6
CONTINUOUS
 10
269.656525
 20
118.149376
 11
331.656525
 21
118.149376
  0
LINE
  8
0
  6
CONTINUOUS
 10
269.656525
 20
119.149376
 11
331.656525
 21
119.149376
  0
LINE
  8
0
  6
CONTINUOUS
 10
270.656525
 20
156.149368
 11
330.656525
 21
156.149368
  0
LINE
  8
0
  6
CONTINUOUS
 10
330.656525
 20
156.149368
 11
331.656525
 21
155.149368
  0
LINE
  8
0
  6
CONTINUOUS
 10
270.656525
 20
156.149368
 11
269.656525
 21
155.149368
  0
LINE
  8
0
  6
CONTINUOUS
 10
269.656525
 20
155.149368
 11
331.656525
 21
155.149368
  0
LINE
  8
0
  6
CONTINUOUS
 10
323.156525
 20
106.149376
 11
323.156525
 21
104.256638
  0
LINE
  8
0
  6
CONTINUOUS
 10
278.156525
 20
106.149376
 11
278.156525
 21
104.256645
  0
LINE
  8
0
  6
CONTINUOUS
 10
54.264992
 20
287.361237
 11
54.264992
 21
229.361237
  0
LINE
  8
0
  6
CONTINUOUS
 10
116.264992
 20
229.361237
 11
116.264992
 21
287.361237
  0
LINE
  8
0
  6
CONTINUOUS
 10
56.264992
 20
289.361237
 11
114.264992
 21
289.361237
  0
LINE
  8
0
  6
CONTINUOUS
 10
56.264992
 20
227.361237
 11
114.264992
 21
227.361237
  0
LINE
  8
0
  6
CONTINUOUS
 10
114.264992
 20
289.361237
 11
116.264992
 21
287.361237
  0
LINE
  8
0
  6
CONTINUOUS
 10
116.264992
 20
229.361237
 11
114.264992
 21
227.361237
  0
LINE
  8
0
  6
CONTINUOUS
 10
54.264992
 20
229.361237
 11
56.264992
 21
227.361237
  0
LINE
  8
0
  6
CONTINUOUS
 10
54.264992
 20
287.361237
 11
56.264992
 21
289.361237
  0
LINE
  8
0
  6
CONTINUOUS
 10
108.264992
 20
284.361237
 11
108.264992
 21
289.361237
  0
LINE
  8
0
  6
CONTINUOUS
 10
111.264992
 20
281.361237
 11
116.264992
 21
281.361237
  0
CIRCLE
  8
0
  6
CONTINUOUS
 10
112.264992
 20
285.361237
 40
2.250000
  0
ARC
  8
0
  6
CONTINUOUS
 10
111.264992
 20
284.361237
 40
3.000000
 50
180.000000
 51
270.000000
  0
LINE
  8
0
  6
CONTINUOUS
 10
115.264992
 20
280.361237
 11
115.264992
 21
236.361237
  0
LINE
  8
0
  6
CONTINUOUS
 10
111.264992
 20
280.361237
 11
115.264992
 21
280.361237
  0
ARC
  8
0
  6
CONTINUOUS
 10
111.264992
 20
284.361237
 40
4.000000
 50
180.000000
 51
270.000000
  0
LINE
  8
0
  6
CONTINUOUS
 10
107.264992
 20
288.361237
 11
107.264992
 21
284.361237
  0
LINE
  8
0
  6
CONTINUOUS
 10
115.264992
 20
280.361237
 11
116.264992
 21
281.361237
  0
LINE
  8
0
  6
CONTINUOUS
 10
63.264992
 20
288.361237
 11
107.264992
 21
288.361237
  0
LINE
  8
0
  6
CONTINUOUS
 10
107.264992
 20
288.361237
 11
108.264992
 21
289.361237
  0
LINE
  8
0
  6
CONTINUOUS
 10
59.264992
 20
281.361237
 11
54.264992
 21
281.361237
  0
LINE
  8
0
  6
CONTINUOUS
 10
62.264992
 20
284.361237
 11
62.264992
 21
289.361237
  0
CIRCLE
  8
0
  6
CONTINUOUS
 10
58.264992
 20
285.361237
 40
2.250000
  0
ARC
  8
0
  6
CONTINUOUS
 10
59.264992
 20
284.361237
 40
3.000000
 50
-90.000000
 51
0.000000
  0
LINE
  8
0
  6
CONTINUOUS
 10
63.264992
 20
284.361237
 11
63.264992
 21
288.361237
  0
ARC
  8
0
  6
CONTINUOUS
 10
59.264992
 20
284.361237
 40
4.000000
 50
-90.000000
 51
0.000000
  0
LINE
  8
0
  6
CONTINUOUS
 10
55.264992
 20
280.361237
 11
59.264992
 21
280.361237
  0
LINE
  8
0
  6
CONTINUOUS
 10
63.264992
 20
288.361237
 11
62.264992
 21
289.361237
  0
LINE
  8
0
  6
CONTINUOUS
 10
55.264992
 20
280.361237
 11
54.264992
 21
281.361237
  0
LINE
  8
0
  6
CONTINUOUS
 10
62.264992
 20
232.361237
 11
62.264992
 21
227.361237
  0
LINE
  8
0
  6
CONTINUOUS
 10
59.264992
 20
235.361237
 11
54.264992
 21
235.361237
  0
CIRCLE
  8
0
  6
CONTINUOUS
 10
58.264992
 20
231.361237
 40
2.250000
  0
ARC
  8
0
  6
CONTINUOUS
 10
59.264992
 20
232.361237
 40
3.000000
 50
0.000000
 51
90.000000
  0
LINE
  8
0
  6
CONTINUOUS
 10
59.264992
 20
236.361237
 11
55.264992
 21
236.361237
  0
ARC
  8
0
  6
CONTINUOUS
 10
59.264992
 20
232.361237
 40
4.000000
 50
0.000000
 51
90.000000
  0
LINE
  8
0
  6
CONTINUOUS
 10
63.264992
 20
228.361237
 11
63.264992
 21
232.361237
  0
LINE
  8
0
  6
CONTINUOUS
 10
55.264992
 20
236.361237
 11
54.264992
 21
235.361237
  0
LINE
  8
0
  6
CONTINUOUS
 10
63.264992
 20
228.361237
 11
62.264992
 21
227.361237
  0
LINE
  8
0
  6
CONTINUOUS
 10
111.264992
 20
235.361237
 11
116.264992
 21
235.361237
  0
LINE
  8
0
  6
CONTINUOUS
 10
108.264992
 20
232.361237
 11
108.264992
 21
227.361237
  0
CIRCLE
  8
0
  6
CONTINUOUS
 10
112.264992
 20
231.361237
 40
2.250000
  0
ARC
  8
0
  6
CONTINUOUS
 10
111.264992
 20
232.361237
 40
3.000000
 50
90.000000
 51
180.000000
  0
LINE
  8
0
  6
CONTINUOUS
 10
107.264992
 20
232.361237
 11
107.264992
 21
228.361237
  0
ARC
  8
0
  6
CONTINUOUS
 10
111.264992
 20
232.361237
 40
4.000000
 50
90.000000
 51
180.000000
  0
LINE
  8
0
  6
CONTINUOUS
 10
115.264992
 20
236.361237
 11
111.264992
 21
236.361237
  0
LINE
  8
0
  6
CONTINUOUS
 10
107.264992
 20
228.361237
 11
108.264992
 21
227.361237
  0
LINE
  8
0
  6
CONTINUOUS
 10
115.264992
 20
236.361237
 11
116.264992
 21
235.361237
  0
LINE
  8
0
  6
CONTINUOUS
 10
63.264992
 20
228.361237
 11
107.264992
 21
228.361237
  0
LINE
  8
0
  6
CONTINUOUS
 10
55.264992
 20
280.361237
 11
55.264992
 21
236.361237
  0
LINE
  8
0
  6
CENTER
 10
85.264992
 20
294.607483
 11
85.264992
 21
221.914673
  0
TEXT
  8
0
 10
-8.000000
 20
-1.000000
 40
4.000000
 41
1.000000
  1
GLMN-15-80~120-S40C
 50
0.000000
  0
ENDSEC
  0
EOF
