  0
SECTION
  2
HEADER
  9
$ACADVER
  1
AC1014
  9
$ACADMAINTVER
 70
     9
  9
$DWGCODEPAGE
  3
ANSI_932
  9
$INSBASE
 10
0.0
 20
0.0
 30
0.0
  9
$EXTMIN
 10
35.73769295715874
 20
47.49436780136142
 30
0.0
  9
$EXTMAX
 10
508.6708026776467
 20
389.6934435611602
 30
0.0
  9
$LIMMIN
 10
0.0
 20
0.0
  9
$LIMMAX
 10
297.0
 20
210.0
  9
$ORTHOMODE
 70
     1
  9
$REGENMODE
 70
     1
  9
$FILLMODE
 70
     1
  9
$QTEXTMODE
 70
     0
  9
$MIRRTEXT
 70
     0
  9
$DRAGMODE
 70
     2
  9
$LTSCALE
 40
2.0
  9
$OSMODE
 70
    37
  9
$ATTMODE
 70
     1
  9
$TEXTSIZE
 40
2.0
  9
$TRACEWID
 40
1.0
  9
$TEXTSTYLE
  7
STANDARD
  9
$CLAYER
  8
0
  9
$CELTYPE
  6
BYLAYER
  9
$CECOLOR
 62
   256
  9
$CELTSCALE
 40
1.0
  9
$DELOBJ
 70
     1
  9
$DISPSILH
 70
     0
  9
$DIMSCALE
 40
2.0
  9
$DIMASZ
 40
1.8
  9
$DIMEXO
 40
0.625
  9
$DIMDLI
 40
3.75
  9
$DIMRND
 40
0.0
  9
$DIMDLE
 40
0.0
  9
$DIMEXE
 40
0.8
  9
$DIMTP
 40
0.0
  9
$DIMTM
 40
0.0
  9
$DIMTXT
 40
1.8
  9
$DIMCEN
 40
2.5
  9
$DIMTSZ
 40
0.0
  9
$DIMTOL
 70
     0
  9
$DIMLIM
 70
     0
  9
$DIMTIH
 70
     0
  9
$DIMTOH
 70
     0
  9
$DIMSE1
 70
     0
  9
$DIMSE2
 70
     0
  9
$DIMTAD
 70
     1
  9
$DIMZIN
 70
     8
  9
$DIMBLK
  1

  9
$DIMASO
 70
     1
  9
$DIMSHO
 70
     1
  9
$DIMPOST
  1

  9
$DIMAPOST
  1

  9
$DIMALT
 70
     0
  9
$DIMALTD
 70
     4
  9
$DIMALTF
 40
0.0394
  9
$DIMLFAC
 40
1.0
  9
$DIMTOFL
 70
     1
  9
$DIMTVP
 40
0.0
  9
$DIMTIX
 70
     0
  9
$DIMSOXD
 70
     0
  9
$DIMSAH
 70
     0
  9
$DIMBLK1
  1

  9
$DIMBLK2
  1

  9
$DIMSTYLE
  2
STANDARD
  9
$DIMCLRD
 70
     0
  9
$DIMCLRE
 70
     0
  9
$DIMCLRT
 70
     0
  9
$DIMTFAC
 40
1.0
  9
$DIMGAP
 40
0.75
  9
$DIMJUST
 70
     0
  9
$DIMSD1
 70
     0
  9
$DIMSD2
 70
     0
  9
$DIMTOLJ
 70
     1
  9
$DIMTZIN
 70
     0
  9
$DIMALTZ
 70
     0
  9
$DIMALTTZ
 70
     0
  9
$DIMFIT
 70
     3
  9
$DIMUPT
 70
     0
  9
$DIMUNIT
 70
     8
  9
$DIMDEC
 70
     2
  9
$DIMTDEC
 70
     2
  9
$DIMALTU
 70
     8
  9
$DIMALTTD
 70
     4
  9
$DIMTXSTY
  7
STANDARD
  9
$DIMAUNIT
 70
     0
  9
$LUNITS
 70
     2
  9
$LUPREC
 70
     3
  9
$SKETCHINC
 40
1.0
  9
$FILLETRAD
 40
10.0
  9
$AUNITS
 70
     0
  9
$AUPREC
 70
     2
  9
$MENU
  1
.
  9
$ELEVATION
 40
0.0
  9
$PELEVATION
 40
0.0
  9
$THICKNESS
 40
0.0
  9
$LIMCHECK
 70
     0
  9
$BLIPMODE
 70
     0
  9
$CHAMFERA
 40
0.0
  9
$CHAMFERB
 40
0.0
  9
$CHAMFERC
 40
20.0
  9
$CHAMFERD
 40
0.0
  9
$SKPOLY
 70
     0
  9
$TDCREATE
 40
2453761.379776829
  9
$TDUPDATE
 40
2453832.507118414
  9
$TDINDWG
 40
0.4263823727
  9
$TDUSRTIMER
 40
0.4263823727
  9
$USRTIMER
 70
     1
  9
$ANGBASE
 50
0.0
  9
$ANGDIR
 70
     0
  9
$PDMODE
 70
     0
  9
$PDSIZE
 40
-10.0
  9
$PLINEWID
 40
0.0
  9
$COORDS
 70
     0
  9
$SPLFRAME
 70
     0
  9
$SPLINETYPE
 70
     6
  9
$SPLINESEGS
 70
     8
  9
$ATTDIA
 70
     0
  9
$ATTREQ
 70
     1
  9
$HANDLING
 70
-16383
  9
$HANDSEED
  5
17F6
  9
$SURFTAB1
 70
     6
  9
$SURFTAB2
 70
     6
  9
$SURFTYPE
 70
     6
  9
$SURFU
 70
     6
  9
$SURFV
 70
     6
  9
$UCSNAME
  2

  9
$UCSORG
 10
0.0
 20
0.0
 30
0.0
  9
$UCSXDIR
 10
1.0
 20
0.0
 30
0.0
  9
$UCSYDIR
 10
0.0
 20
1.0
 30
0.0
  9
$PUCSNAME
  2

  9
$PUCSORG
 10
0.0
 20
0.0
 30
0.0
  9
$PUCSXDIR
 10
1.0
 20
0.0
 30
0.0
  9
$PUCSYDIR
 10
0.0
 20
1.0
 30
0.0
  9
$USERI1
 70
     0
  9
$USERI2
 70
     0
  9
$USERI3
 70
     0
  9
$USERI4
 70
     0
  9
$USERI5
 70
     0
  9
$USERR1
 40
0.0
  9
$USERR2
 40
0.0
  9
$USERR3
 40
0.0
  9
$USERR4
 40
0.0
  9
$USERR5
 40
0.0
  9
$WORLDVIEW
 70
     1
  9
$SHADEDGE
 70
     3
  9
$SHADEDIF
 70
    70
  9
$TILEMODE
 70
     1
  9
$MAXACTVP
 70
    48
  9
$PINSBASE
 10
0.0
 20
0.0
 30
0.0
  9
$PLIMCHECK
 70
     0
  9
$PEXTMIN
 10
3.0
 20
3.999999999999998
 30
0.0
  9
$PEXTMAX
 10
280.0
 20
194.0
 30
0.0
  9
$PLIMMIN
 10
-5.873748779296875
 20
-5.873749732971191
  9
$PLIMMAX
 10
291.05224609375
 20
204.0995779037475
  9
$UNITMODE
 70
     0
  9
$VISRETAIN
 70
     1
  9
$PLINEGEN
 70
     0
  9
$PSLTSCALE
 70
     0
  9
$TREEDEPTH
 70
  3020
  9
$PICKSTYLE
 70
     1
  9
$CMLSTYLE
  2
STANDARD
  9
$CMLJUST
 70
     0
  9
$CMLSCALE
 40
1.0
  9
$PROXYGRAPHICS
 70
     1
  9
$MEASUREMENT
 70
     0
  0
ENDSEC
  0
SECTION
  2
CLASSES
  0
CLASS
  1
DICTIONARYVAR
  2
AcDbDictionaryVar
  3
AutoCAD 2000
 90
        0
280
     0
281
     0
  0
CLASS
  1
ACDBDICTIONARYWDFLT
  2
AcDbDictionaryWithDefault
  3
AutoCAD 2000
 90
        0
280
     0
281
     0
  0
CLASS
  1
ACDBPLACEHOLDER
  2
AcDbPlaceHolder
  3
AutoCAD 2000
 90
        0
280
     0
281
     0
  0
CLASS
  1
LAYOUT
  2
AcDbLayout
  3
AutoCAD 2000
 90
        0
280
     0
281
     0
  0
CLASS
  1
LONG_TRANSACTION
  2
AcDbLongTransaction
  3
AutoCAD 2000
 90
        0
280
     0
281
     0
  0
CLASS
  1
LWPOLYLINE
  2
AcDbPolyline
  3
AutoCAD 2000
 90
        0
280
     0
281
     1
  0
CLASS
  1
HATCH
  2
AcDbHatch
  3
AutoCAD 2000
 90
        0
280
     0
281
     1
  0
CLASS
  1
XRECORD
  2
AcDbXrecord
  3
AutoCAD 2000
 90
        0
280
     0
281
     0
  0
ENDSEC
  0
SECTION
  2
TABLES
  0
TABLE
  2
VPORT
  5
6E
330
0
100
AcDbSymbolTable
 70
     2
  0
VPORT
  5
17CB
330
6E
100
AcDbSymbolTableRecord
100
AcDbViewportTableRecord
  2
*ACTIVE
 70
     0
 10
0.0
 20
0.0
 11
1.0
 21
1.0
 12
264.5808471691021
 22
204.8661540411311
 13
0.0
 23
0.0
 14
10.0
 24
10.0
 15
10.0
 25
10.0
 16
0.0
 26
0.0
 36
1.0
 17
0.0
 27
0.0
 37
0.0
 40
372.5589764979801
 41
1.566970091027308
 42
50.0
 43
0.0
 44
0.0
 50
0.0
 51
0.0
 71
     0
 72
   100
 73
     1
 74
     3
 75
     0
 76
     0
 77
     0
 78
     0
  0
ENDTAB
  0
TABLE
  2
LTYPE
  5
69
330
0
100
AcDbSymbolTable
 70
     4
  0
LTYPE
  5
6A
330
69
100
AcDbSymbolTableRecord
100
AcDbLinetypeTableRecord
  2
BYBLOCK
 70
     0
  3

 72
    65
 73
     0
 40
0.0
  0
LTYPE
  5
6B
330
69
100
AcDbSymbolTableRecord
100
AcDbLinetypeTableRecord
  2
BYLAYER
 70
     0
  3

 72
    65
 73
     0
 40
0.0
  0
LTYPE
  5
8
330
69
100
AcDbSymbolTableRecord
100
AcDbLinetypeTableRecord
  2
CONTINUOUS
 70
     0
  3
Solid line
 72
    65
 73
     0
 40
0.0
  0
LTYPE
  5
27C
330
69
100
AcDbSymbolTableRecord
100
AcDbLinetypeTableRecord
  2
SEKKEI_A2_
 70
     0
  3
center(A2)  ____ _ ____ _ ____ _ ____ _ ____ _ 
 72
    65
 73
     4
 40
14.28749999999999
 49
9.525
 74
     0
 49
-1.587499999999999
 74
     0
 49
1.587499999999999
 74
     0
 49
-1.587499999999999
 74
     0
  0
LTYPE
  5
2B4
330
69
100
AcDbSymbolTableRecord
100
AcDbLinetypeTableRecord
  2
HIDDEN2
 70
     0
  3
Hidden (.5x) _ _ _ _ _ _ _ _ _ _ _ _ _ _ _ _ _
 72
    65
 73
     2
 40
4.762499999999999
 49
3.174999999999999
 74
     0
 49
-1.587499999999999
 74
     0
  0
LTYPE
  5
48F
330
69
100
AcDbSymbolTableRecord
100
AcDbLinetypeTableRecord
  2
SEKKEI_H
 70
     0
  3
Hidden-S _ _ _ _ _ _ _ _ _ _ _ _ _ _ _ _ _
 72
    65
 73
     2
 40
2.381249999999999
 49
1.587499999999999
 74
     0
 49
-0.79375
 74
     0
  0
ENDTAB
  0
TABLE
  2
LAYER
  5
66
330
0
100
AcDbSymbolTable
 70
     9
  0
LAYER
  5
5E
330
66
100
AcDbSymbolTableRecord
100
AcDbLayerTableRecord
  2
0
 70
     0
 62
     7
  6
CONTINUOUS
  0
LAYER
  5
3E
330
66
100
AcDbSymbolTableRecord
100
AcDbLayerTableRecord
  2
CENTER
 70
     0
 62
     3
  6
SEKKEI_A2_
  0
LAYER
  5
4
330
66
100
AcDbSymbolTableRecord
100
AcDbLayerTableRecord
  2
WAKU
 70
     0
 62
     5
  6
CONTINUOUS
  0
LAYER
  5
E4
330
66
100
AcDbSymbolTableRecord
100
AcDbLayerTableRecord
  2
TEXT
 70
     0
 62
     4
  6
CONTINUOUS
  0
LAYER
  5
135
330
66
100
AcDbSymbolTableRecord
100
AcDbLayerTableRecord
  2
DEFPOINTS
 70
     0
 62
     7
  6
CONTINUOUS
  0
LAYER
  5
2B5
330
66
100
AcDbSymbolTableRecord
100
AcDbLayerTableRecord
  2
HIDS
 70
     0
 62
     1
  6
HIDDEN2
  0
LAYER
  5
2BA
330
66
100
AcDbSymbolTableRecord
100
AcDbLayerTableRecord
  2
HOJO
 70
     0
 62
     4
  6
CONTINUOUS
  0
LAYER
  5
3FA
330
66
100
AcDbSymbolTableRecord
100
AcDbLayerTableRecord
  2
TITLE
 70
     0
 62
     4
  6
CONTINUOUS
  0
ENDTAB
  0
TABLE
  2
STYLE
  5
67
330
0
100
AcDbSymbolTable
 70
     1
  0
STYLE
  5
16
330
67
100
AcDbSymbolTableRecord
100
AcDbTextStyleTableRecord
  2
STANDARD
 70
     0
 40
0.0
 41
1.0
 50
0.0
 71
     0
 42
2.0
  3
simplex.shx
  4
extfont.shx
  0
ENDTAB
  0
TABLE
  2
VIEW
  5
6C
330
0
100
AcDbSymbolTable
 70
     0
  0
ENDTAB
  0
TABLE
  2
UCS
  5
6D
330
0
100
AcDbSymbolTable
 70
     0
  0
ENDTAB
  0
TABLE
  2
APPID
  5
70
330
0
100
AcDbSymbolTable
 70
     2
  0
APPID
  5
71
330
70
100
AcDbSymbolTableRecord
100
AcDbRegAppTableRecord
  2
ACAD
 70
     0
  0
APPID
  5
17EF
330
70
100
AcDbSymbolTableRecord
100
AcDbRegAppTableRecord
  2
CONTENTBLOCKICON
 70
     0
  0
ENDTAB
  0
TABLE
  2
DIMSTYLE
  5
72
330
0
100
AcDbSymbolTable
 70
     1
  0
DIMSTYLE
105
73
330
72
100
AcDbSymbolTableRecord
100
AcDbDimStyleTableRecord
  2
STANDARD
 70
     0
  3

  4

  5

  6

  7

 40
2.0
 41
1.8
 42
0.625
 43
3.75
 44
0.8
 45
0.0
 46
0.0
 47
0.0
 48
0.0
140
1.8
141
2.5
142
0.0
143
0.0394
144
1.0
145
0.0
146
1.0
147
0.75
 71
     0
 72
     0
 73
     0
 74
     0
 75
     0
 76
     0
 77
     1
 78
     8
170
     0
171
     4
172
     1
173
     0
174
     0
175
     0
176
     0
177
     0
178
     0
270
     8
271
     2
272
     2
273
     8
274
     4
340
16
275
     0
280
     0
281
     0
282
     0
283
     1
284
     0
285
     0
286
     0
287
     3
288
     0
  0
ENDTAB
  0
TABLE
  2
BLOCK_RECORD
  5
1
330
0
100
AcDbSymbolTable
 70
    66
  0
BLOCK_RECORD
  5
2
102
{ACAD_XDICTIONARY
360
17ED
102
}
330
1
100
AcDbSymbolTableRecord
100
AcDbBlockTableRecord
  2
*MODEL_SPACE
  0
BLOCK_RECORD
  5
DD3
102
{ACAD_XDICTIONARY
360
17F0
102
}
330
1
100
AcDbSymbolTableRecord
100
AcDbBlockTableRecord
  2
*PAPER_SPACE
  0
BLOCK_RECORD
  5
40C
330
1
100
AcDbSymbolTableRecord
100
AcDbBlockTableRecord
  2
外寸枠A4テンプレート
1001
CONTENTBLOCKICON
1071
        0
1004
2800000020000000200000000100080000000000000400000000000000000000000000000000000000000000000080000080000000808000800000008000800080800000C0C0C000C0DCC000F0CAA6000020400000206000002080000020A0000020C0000020E00000400000004020000040400000406000004080000040A0
1004
000040C0000040E00000600000006020000060400000606000006080000060A0000060C0000060E00000800000008020000080400000806000008080000080A0000080C0000080E00000A0000000A0200000A0400000A0600000A0800000A0A00000A0C00000A0E00000C0000000C0200000C0400000C0600000C0800000C0
1004
A00000C0C00000C0E00000E0000000E0200000E0400000E0600000E0800000E0A00000E0C00000E0E00040000000400020004000400040006000400080004000A0004000C0004000E00040200000402020004020400040206000402080004020A0004020C0004020E000404000004040200040404000404060004040800040
1004
40A0004040C0004040E00040600000406020004060400040606000406080004060A0004060C0004060E00040800000408020004080400040806000408080004080A0004080C0004080E00040A0000040A0200040A0400040A0600040A0800040A0A00040A0C00040A0E00040C0000040C0200040C0400040C0600040C08000
1004
40C0A00040C0C00040C0E00040E0000040E0200040E0400040E0600040E0800040E0A00040E0C00040E0E00080000000800020008000400080006000800080008000A0008000C0008000E00080200000802020008020400080206000802080008020A0008020C0008020E00080400000804020008040400080406000804080
1004
008040A0008040C0008040E00080600000806020008060400080606000806080008060A0008060C0008060E00080800000808020008080400080806000808080008080A0008080C0008080E00080A0000080A0200080A0400080A0600080A0800080A0A00080A0C00080A0E00080C0000080C0200080C0400080C0600080C0
1004
800080C0A00080C0C00080C0E00080E0000080E0200080E0400080E0600080E0800080E0A00080E0C00080E0E000C0000000C0002000C0004000C0006000C0008000C000A000C000C000C000E000C0200000C0202000C0204000C0206000C0208000C020A000C020C000C020E000C0400000C0402000C0404000C0406000C0
1004
408000C040A000C040C000C040E000C0600000C0602000C0604000C0606000C0608000C060A000C060C000C060E000C0800000C0802000C0804000C0806000C0808000C080A000C080C000C080E000C0A00000C0A02000C0A04000C0A06000C0A08000C0A0A000C0A0C000C0A0E000C0C00000C0C02000C0C04000C0C06000
1004
C0C08000C0C0A000F0FBFF00A4A0A000808080000000FF0000FF000000FFFF00FF000000FF00FF00FFFF0000FFFFFF0000000000000000000000000000000000000000000000000000000000000000000000000000000000000000000000000000000000000000000000000000000000000000000000000000000000000000
1004
000000000000000000000000000000000000000000000000000000000000000000000000000000000000000000000000000000000000000000000000000000000000000000000000000000000000000000000000000000000000000000000000000000000000000000000000000000000000FCFCFCFCFCFCFCFCFCFCFCFCFC
1004
FCFCFCFCFCFCFCFCFEFEFEFDFDFCFDFDFD0000FC0000000000000000000000000000000000000000FDFDFDFDFDFDFDFDFD0000FC0000000000000000000000000000000000000000FDFDFEFEFEFEFDFDFD0000FC0000000000000000000000000000000000000000FDFCFEFEFEFEFCFCFC0000FC0000000000000000000000
1004
0000000000000000000000000000000000FC0000FC00000000000000000000000000000000000000000000000000000000FC0000FC00000000000000000000000000000000000000000000000000000000FC0000FC00000000000000000000000000000000000000000000000000000000FC0000FC00000000000000000000
1004
000000000000000000000000000000000000FC0000FC00000000000000000000000000000000000000000000000000000000FC0000FC00000000000000000000000000000000000000000000000000000000FC0000FC00000000000000000000000000000000000000000000000000000000FC0000FC000000000000000000
1004
00000000000000000000000000000000000000FC0000FC00000000000000000000000000000000000000000000000000000000FC0000FC00000000000000000000000000000000000000000000000000000000FC0000FC00000000000000000000000000000000000000000000000000000000FC0000FC0000000000000000
1004
0000000000000000000000000000000000000000FC0000FC00000000000000000000000000000000000000000000000000000000FC0000FC00000000000000000000000000000000000000000000FCFCFCFCFCFCFC0000FCFCFCFCFCFCFCFCFCFCFCFCFCFCFCFCFCFCFCFCFCFCFCFCFDFCFCFCFCFC00000000000000000000
1004
00000000000000000000000000000000000000000000000000000000000000000000000000000000000000000000000000000000000000000000000000000000000000000000000000000000000000000000000000000000000000000000000000000000000000000000000000000000000000000000000000000000000000
1004
0000000000000000000000000000000000000000000000000000000000000000000000000000000000000000000000000000000000000000
  0
BLOCK_RECORD
  5
4E3
330
1
100
AcDbSymbolTableRecord
100
AcDbBlockTableRecord
  2
1
  0
BLOCK_RECORD
  5
BC6
330
1
100
AcDbSymbolTableRecord
100
AcDbBlockTableRecord
  2
BSPEC_90-90-0038
  0
BLOCK_RECORD
  5
E99
330
1
100
AcDbSymbolTableRecord
100
AcDbBlockTableRecord
  2
BSPEC_90-90-0055
  0
BLOCK_RECORD
  5
EBC
330
1
100
AcDbSymbolTableRecord
100
AcDbBlockTableRecord
  2
BSPEC_90-45-0055
  0
BLOCK_RECORD
  5
FA9
330
1
100
AcDbSymbolTableRecord
100
AcDbBlockTableRecord
  2
GSPEC_G-15-5-60
  0
BLOCK_RECORD
  5
FC9
330
1
100
AcDbSymbolTableRecord
100
AcDbBlockTableRecord
  2
GSPEC_G-15-5-30
  0
BLOCK_RECORD
  5
11EF
330
1
100
AcDbSymbolTableRecord
100
AcDbBlockTableRecord
  2
MSPEC_S60WF-90
  0
BLOCK_RECORD
  5
1219
330
1
100
AcDbSymbolTableRecord
100
AcDbBlockTableRecord
  2
MSPEC_S90F-90
  0
BLOCK_RECORD
  5
123F
330
1
100
AcDbSymbolTableRecord
100
AcDbBlockTableRecord
  2
MSPEC_S90WF-90
  0
BLOCK_RECORD
  5
12B8
330
1
100
AcDbSymbolTableRecord
100
AcDbBlockTableRecord
  2
17
  0
ENDTAB
  0
ENDSEC
  0
SECTION
  2
BLOCKS
  0
BLOCK
  5
5D
330
2
100
AcDbEntity
  8
0
100
AcDbBlockBegin
  2
*MODEL_SPACE
 70
     0
 10
0.0
 20
0.0
 30
0.0
  3
*MODEL_SPACE
  1

  0
ENDBLK
  5
5F
330
2
100
AcDbEntity
  8
0
100
AcDbBlockEnd
  0
BLOCK
  5
DE0
330
DD3
100
AcDbEntity
 67
     1
  8
0
100
AcDbBlockBegin
  2
*PAPER_SPACE
 70
     0
 10
0.0
 20
0.0
 30
0.0
  3
*PAPER_SPACE
  1

  0
ENDBLK
  5
DE1
330
DD3
100
AcDbEntity
 67
     1
  8
0
100
AcDbBlockEnd
  0
BLOCK
  5
463
330
40C
100
AcDbEntity
  8
0
100
AcDbBlockBegin
  2
外寸枠A4テンプレート
 70
     2
 10
0.0
 20
0.0
 30
0.0
  3
外寸枠A4テンプレート
  1

  0
LWPOLYLINE
  5
40D
330
40C
100
AcDbEntity
  8
WAKU
100
AcDbPolyline
 90
        4
 70
     1
 43
0.0
 10
3.0
 20
4.0
 10
280.0
 20
4.0
 10
280.0
 20
194.0
 10
3.0
 20
194.0
  0
LWPOLYLINE
  5
40E
330
40C
100
AcDbEntity
  8
WAKU
100
AcDbPolyline
 90
        4
 70
     1
 43
0.0
 10
3.0
 20
4.0
 10
280.0
 20
4.0
 10
280.0
 20
194.0
 10
3.0
 20
194.0
  0
LINE
  5
40F
330
40C
100
AcDbEntity
  8
WAKU
100
AcDbLine
 10
280.0
 20
182.0
 30
0.0
 11
226.4018178786999
 21
182.0
 31
0.0
  0
TEXT
  5
410
330
40C
100
AcDbEntity
  8
WAKU
 62
     6
100
AcDbText
 10
228.3816999999999
 20
190.11095
 30
0.0
 40
2.1213
  1
REVISIONS
 41
0.7
100
AcDbText
  0
LINE
  5
411
330
40C
100
AcDbEntity
  8
WAKU
100
AcDbLine
 10
226.4018178786999
 20
194.0
 30
0.0
 11
226.4018178786999
 21
181.9999999999999
 31
0.0
  0
LINE
  5
412
330
40C
100
AcDbEntity
  8
WAKU
 62
     6
100
AcDbLine
 10
203.6331999999998
 20
29.0030567071
 30
0.0
 11
280.0
 21
29.0030567071
 31
0.0
  0
LINE
  5
413
330
40C
100
AcDbEntity
  8
WAKU
 62
     6
100
AcDbLine
 10
203.6331999999998
 20
24.47761529289999
 30
0.0
 11
280.0
 21
24.47761529289999
 31
0.0
  0
LINE
  5
414
330
40C
100
AcDbEntity
  8
WAKU
 62
     6
100
AcDbLine
 10
203.6331999999998
 20
19.9521752929
 30
0.0
 11
280.0
 21
19.9521752929
 31
0.0
  0
LINE
  5
415
330
40C
100
AcDbEntity
  8
WAKU
 62
     6
100
AcDbLine
 10
203.6331999999998
 20
15.42673599999999
 30
0.0
 11
280.0
 21
15.42673599999999
 31
0.0
  0
LINE
  5
416
330
40C
100
AcDbEntity
  8
WAKU
 62
     6
100
AcDbLine
 10
203.6331999999998
 20
29.0030567071
 30
0.0
 11
280.0
 21
29.0030567071
 31
0.0
  0
LINE
  5
417
330
40C
100
AcDbEntity
  8
WAKU
 62
     6
100
AcDbLine
 10
203.6331999999998
 20
24.47761529289999
 30
0.0
 11
280.0
 21
24.47761529289999
 31
0.0
  0
LINE
  5
418
330
40C
100
AcDbEntity
  8
WAKU
 62
     6
100
AcDbLine
 10
203.6331999999998
 20
19.9521752929
 30
0.0
 11
280.0
 21
19.9521752929
 31
0.0
  0
LINE
  5
419
330
40C
100
AcDbEntity
  8
WAKU
 62
     6
100
AcDbLine
 10
203.6331999999998
 20
15.42673599999999
 30
0.0
 11
280.0
 21
15.42673599999999
 31
0.0
  0
LINE
  5
41A
330
40C
100
AcDbEntity
  8
WAKU
 62
     6
100
AcDbLine
 10
203.6331999999998
 20
29.0030567071
 30
0.0
 11
280.0
 21
29.0030567071
 31
0.0
  0
LINE
  5
41B
330
40C
100
AcDbEntity
  8
WAKU
 62
     6
100
AcDbLine
 10
203.6331999999998
 20
24.47761529289999
 30
0.0
 11
280.0
 21
24.47761529289999
 31
0.0
  0
LINE
  5
41C
330
40C
100
AcDbEntity
  8
WAKU
 62
     6
100
AcDbLine
 10
203.6331999999998
 20
19.9521752929
 30
0.0
 11
280.0
 21
19.9521752929
 31
0.0
  0
LINE
  5
41D
330
40C
100
AcDbEntity
  8
WAKU
 62
     6
100
AcDbLine
 10
203.6331999999998
 20
15.42673599999999
 30
0.0
 11
280.0
 21
15.42673599999999
 31
0.0
  0
LINE
  5
41E
330
40C
100
AcDbEntity
  8
WAKU
100
AcDbLine
 10
203.6331999999998
 20
38.053936
 30
0.0
 11
280.0
 21
38.053936
 31
0.0
  0
LINE
  5
41F
330
40C
100
AcDbEntity
  8
WAKU
100
AcDbLine
 10
203.6331999999998
 20
38.053936
 30
0.0
 11
280.0
 21
38.053936
 31
0.0
  0
LINE
  5
420
330
40C
100
AcDbEntity
  8
WAKU
100
AcDbLine
 10
203.6331999999998
 20
38.053936
 30
0.0
 11
280.0
 21
38.053936
 31
0.0
  0
TEXT
  5
421
330
40C
100
AcDbEntity
  8
WAKU
 62
     6
100
AcDbText
 10
231.4464545235218
 20
12.856420429
 30
0.0
 40
1.76775
  1
SCALE
 41
0.7
100
AcDbText
  0
TEXT
  5
422
330
40C
100
AcDbEntity
  8
TEXT
100
AcDbText
 10
228.8293221750166
 20
29.96641277760619
 30
0.0
 40
2.5
  1
外　形　寸　法　図
100
AcDbText
  0
ATTDEF
  5
423
330
40C
100
AcDbEntity
  8
TEXT
100
AcDbText
 10
241.8165999999999
 20
35.58735183158626
 30
0.0
 40
2.500000000000001
  1

 72
     4
 11
241.8165999999999
 21
35.58735183158626
 31
0.0
100
AcDbAttributeDefinition
  3
タイトル
  2
T　I　T　L　E
 70
     0
  0
LINE
  5
424
330
40C
100
AcDbEntity
  8
WAKU
100
AcDbLine
 10
203.6331999999998
 20
38.053936
 30
0.0
 11
203.6331999999998
 21
3.999999999999998
 31
0.0
  0
LINE
  5
425
330
40C
100
AcDbEntity
  8
WAKU
100
AcDbLine
 10
203.6331999999998
 20
38.053936
 30
0.0
 11
203.6331999999998
 21
3.999999999999998
 31
0.0
  0
LINE
  5
426
330
40C
100
AcDbEntity
  8
WAKU
100
AcDbLine
 10
203.6331999999998
 20
38.053936
 30
0.0
 11
203.6331999999998
 21
3.999999999999998
 31
0.0
  0
TEXT
  5
427
330
40C
100
AcDbEntity
  8
WAKU
 62
     6
100
AcDbText
 10
204.7645642425999
 20
25.805189179
 30
0.0
 40
2.1213
  1
DRAWING  NO.
 41
0.7
100
AcDbText
  0
TEXT
  5
428
330
40C
100
AcDbEntity
  8
WAKU
 62
     6
100
AcDbText
 10
204.7645642425999
 20
16.75430988609998
 30
0.0
 40
2.1213
  1
NOTICE
 41
0.7
100
AcDbText
  0
TEXT
  5
429
330
40C
100
AcDbEntity
  8
WAKU
 62
     6
100
AcDbText
 10
204.8446469479863
 20
12.674695729
 30
0.0
 40
1.8097340625
  1
APPROVE
 41
0.512174
100
AcDbText
  0
TEXT
  5
42A
330
40C
100
AcDbEntity
  8
WAKU
 62
     6
100
AcDbText
 10
204.7645642425999
 20
21.279749179
 30
0.0
 40
2.1213
  1
USER
 41
0.7
100
AcDbText
  0
TEXT
  5
42B
330
40C
100
AcDbEntity
  8
WAKU
 62
     6
100
AcDbText
 10
222.3147516895863
 20
12.6973292929
 30
0.0
 40
1.7832163983
  1
DESIGN
 41
0.5729449999999999
100
AcDbText
  0
LINE
  5
42C
330
40C
100
AcDbEntity
  8
WAKU
 62
     6
100
AcDbLine
 10
212.3823646725999
 20
15.42673599999999
 30
0.0
 11
212.3823646725999
 21
3.999999999999998
 31
0.0
  0
LINE
  5
42D
330
40C
100
AcDbEntity
  8
WAKU
 62
     6
100
AcDbLine
 10
212.3823646725999
 20
15.42673599999999
 30
0.0
 11
212.3823646725999
 21
3.999999999999998
 31
0.0
  0
LINE
  5
42E
330
40C
100
AcDbEntity
  8
WAKU
 62
     6
100
AcDbLine
 10
212.3823646725999
 20
15.42673599999999
 30
0.0
 11
212.3823646725999
 21
3.999999999999998
 31
0.0
  0
LINE
  5
42F
330
40C
100
AcDbEntity
  8
WAKU
 62
     6
100
AcDbLine
 10
221.1033047415999
 20
15.42673599999999
 30
0.0
 11
221.1033047415999
 21
3.999999999999998
 31
0.0
  0
LINE
  5
430
330
40C
100
AcDbEntity
  8
WAKU
 62
     6
100
AcDbLine
 10
221.1033047415999
 20
15.42673599999999
 30
0.0
 11
221.1033047415999
 21
3.999999999999998
 31
0.0
  0
LINE
  5
431
330
40C
100
AcDbEntity
  8
WAKU
 62
     6
100
AcDbLine
 10
221.1033047415999
 20
15.42673599999999
 30
0.0
 11
221.1033047415999
 21
3.999999999999998
 31
0.0
  0
TEXT
  5
432
330
40C
100
AcDbEntity
  8
WAKU
 62
     6
100
AcDbText
 10
213.5938010140863
 20
12.674695729
 30
0.0
 40
1.76775
  1
CHECK
 41
0.7
100
AcDbText
  0
LINE
  5
433
330
40C
100
AcDbEntity
  8
WAKU
 62
     6
100
AcDbLine
 10
229.8241790502999
 20
15.42673599999999
 30
0.0
 11
229.8241790502999
 21
3.999999999999998
 31
0.0
  0
LINE
  5
434
330
40C
100
AcDbEntity
  8
WAKU
 62
     6
100
AcDbLine
 10
229.8241790502999
 20
15.42673599999999
 30
0.0
 11
229.8241790502999
 21
3.999999999999998
 31
0.0
  0
LINE
  5
435
330
40C
100
AcDbEntity
  8
WAKU
 62
     6
100
AcDbLine
 10
229.8241790502999
 20
15.42673599999999
 30
0.0
 11
229.8241790502999
 21
3.999999999999998
 31
0.0
  0
TEXT
  5
436
330
40C
100
AcDbEntity
  8
WAKU
 62
     6
100
AcDbText
 10
204.7645642425999
 20
35.31568488609999
 30
0.0
 40
2.1213
  1
TITLE
 41
0.7
100
AcDbText
  0
ATTDEF
  5
437
330
40C
100
AcDbEntity
  8
TEXT
100
AcDbText
 10
234.056163734276
 20
8.134449518875573
 30
0.0
 40
2.0
  1

 72
     4
 11
234.056163734276
 21
8.134449518875573
 31
0.0
100
AcDbAttributeDefinition
  3
SCALE
  2
FREE
 70
     0
  0
ATTDEF
  5
438
330
40C
100
AcDbEntity
  8
TEXT
100
AcDbText
 10
207.865184683976
 20
8.134449518875573
 30
0.0
 40
2.500000000000004
  1

 72
     4
 11
207.865184683976
 21
8.134449518875573
 31
0.0
100
AcDbAttributeDefinition
  3
承認
  2
海野
 70
     0
  0
ATTDEF
  5
439
330
40C
100
AcDbEntity
  8
TEXT
100
AcDbText
 10
225.335289425576
 20
8.134449518875575
 30
0.0
 40
2.500000000000004
  1

 72
     4
 11
225.335289425576
 21
8.134449518875575
 31
0.0
100
AcDbAttributeDefinition
  3
作成
  2
鳥居
 70
     0
  0
ATTDEF
  5
43A
330
40C
100
AcDbEntity
  8
TEXT
100
AcDbText
 10
216.614349356576
 20
8.134449518875575
 30
0.0
 40
2.500000000000004
  1

 72
     4
 11
216.614349356576
 21
8.134449518875575
 31
0.0
100
AcDbAttributeDefinition
  3
確認
  2
永坂
 70
     0
  0
LINE
  5
43B
330
40C
100
AcDbEntity
  8
WAKU
 62
     6
100
AcDbLine
 10
238.6487948283999
 20
8.638576
 30
0.0
 11
280.0
 21
8.638576
 31
0.0
  0
LINE
  5
43C
330
40C
100
AcDbEntity
  8
WAKU
 62
     6
100
AcDbLine
 10
238.6487948283999
 20
8.638576
 30
0.0
 11
280.0
 21
8.638576
 31
0.0
  0
LINE
  5
43D
330
40C
100
AcDbEntity
  8
WAKU
 62
     6
100
AcDbLine
 10
238.6487948283999
 20
8.638576
 30
0.0
 11
280.0
 21
8.638576
 31
0.0
  0
TEXT
  5
43E
330
40C
100
AcDbEntity
  8
WAKU
 62
     6
100
AcDbText
 10
241.15294501234
 20
5.246258800300003
 30
0.0
 40
2.1213
  1
NISSEI  CORPORATION
100
AcDbText
  0
LINE
  5
43F
330
40C
100
AcDbEntity
  8
WAKU
100
AcDbLine
 10
246.5683127070999
 20
13.02259600000001
 30
0.0
 11
250.5280769496998
 21
14.01253599999999
 31
0.0
  0
LINE
  5
440
330
40C
100
AcDbEntity
  8
WAKU
100
AcDbLine
 10
246.5683127070999
 20
13.02259600000001
 30
0.0
 11
250.5280769496998
 21
14.01253599999999
 31
0.0
  0
LINE
  5
441
330
40C
100
AcDbEntity
  8
WAKU
100
AcDbLine
 10
246.5683127070999
 20
13.02259600000001
 30
0.0
 11
250.5280769496998
 21
14.01253599999999
 31
0.0
  0
LINE
  5
442
330
40C
100
AcDbEntity
  8
WAKU
100
AcDbLine
 10
246.5683127070999
 20
11.0427152929
 30
0.0
 11
250.5280769496998
 21
10.052776
 31
0.0
  0
LINE
  5
443
330
40C
100
AcDbEntity
  8
WAKU
100
AcDbLine
 10
246.5683127070999
 20
11.0427152929
 30
0.0
 11
250.5280769496998
 21
10.052776
 31
0.0
  0
LINE
  5
444
330
40C
100
AcDbEntity
  8
WAKU
100
AcDbLine
 10
246.5683127070999
 20
11.0427152929
 30
0.0
 11
250.5280769496998
 21
10.052776
 31
0.0
  0
LINE
  5
445
330
40C
100
AcDbEntity
  8
CENTER
 62
     6
100
AcDbLine
 10
239.4478107573998
 20
12.0326567071
 30
0.0
 11
251.3624499999998
 21
12.0326567071
 31
0.0
  0
LINE
  5
446
330
40C
100
AcDbEntity
  8
CENTER
 62
     6
100
AcDbLine
 10
239.4478107573998
 20
12.0326567071
 30
0.0
 11
251.3624499999998
 21
12.0326567071
 31
0.0
  0
LINE
  5
447
330
40C
100
AcDbEntity
  8
CENTER
 62
     6
100
AcDbLine
 10
239.4478107573998
 20
12.0326567071
 30
0.0
 11
251.3624499999998
 21
12.0326567071
 31
0.0
  0
LINE
  5
448
330
40C
100
AcDbEntity
  8
WAKU
 62
     6
100
AcDbLine
 10
238.6487948283999
 20
15.42673599999999
 30
0.0
 11
238.6487948283999
 21
3.999999999999998
 31
0.0
  0
LINE
  5
449
330
40C
100
AcDbEntity
  8
WAKU
 62
     6
100
AcDbLine
 10
238.6487948283999
 20
15.42673599999999
 30
0.0
 11
238.6487948283999
 21
3.999999999999998
 31
0.0
  0
LINE
  5
44A
330
40C
100
AcDbEntity
  8
WAKU
 62
     6
100
AcDbLine
 10
238.6487948283999
 20
15.42673599999999
 30
0.0
 11
238.6487948283999
 21
3.999999999999998
 31
0.0
  0
CIRCLE
  5
44B
330
40C
100
AcDbEntity
  8
WAKU
100
AcDbCircle
 10
242.0428769496999
 20
12.0326567071
 30
0.0
 40
0.9899399999999999
  0
CIRCLE
  5
44C
330
40C
100
AcDbEntity
  8
WAKU
100
AcDbCircle
 10
242.0428769496999
 20
12.0326567071
 30
0.0
 40
0.9899399999999999
  0
CIRCLE
  5
44D
330
40C
100
AcDbEntity
  8
WAKU
100
AcDbCircle
 10
242.0428769496999
 20
12.0326567071
 30
0.0
 40
0.9899399999999999
  0
CIRCLE
  5
44E
330
40C
100
AcDbEntity
  8
WAKU
100
AcDbCircle
 10
242.0428769496999
 20
12.0326567071
 30
0.0
 40
1.979879999999999
  0
CIRCLE
  5
44F
330
40C
100
AcDbEntity
  8
WAKU
100
AcDbCircle
 10
242.0428769496999
 20
12.0326567071
 30
0.0
 40
1.979879999999999
  0
CIRCLE
  5
450
330
40C
100
AcDbEntity
  8
WAKU
100
AcDbCircle
 10
242.0428769496999
 20
12.0326567071
 30
0.0
 40
1.979879999999999
  0
LINE
  5
451
330
40C
100
AcDbEntity
  8
WAKU
100
AcDbLine
 10
246.5683127070999
 20
13.02259600000001
 30
0.0
 11
246.5683127070999
 21
11.0427152929
 31
0.0
  0
LINE
  5
452
330
40C
100
AcDbEntity
  8
WAKU
100
AcDbLine
 10
246.5683127070999
 20
13.02259600000001
 30
0.0
 11
246.5683127070999
 21
11.0427152929
 31
0.0
  0
LINE
  5
453
330
40C
100
AcDbEntity
  8
WAKU
100
AcDbLine
 10
246.5683127070999
 20
13.02259600000001
 30
0.0
 11
246.5683127070999
 21
11.0427152929
 31
0.0
  0
LINE
  5
454
330
40C
100
AcDbEntity
  8
CENTER
 62
     6
100
AcDbLine
 10
242.0428769496999
 20
14.96005
 30
0.0
 11
242.0428769496999
 21
9.267895000000009
 31
0.0
  0
LINE
  5
455
330
40C
100
AcDbEntity
  8
CENTER
 62
     6
100
AcDbLine
 10
242.0428769496999
 20
14.96005
 30
0.0
 11
242.0428769496999
 21
9.267895000000009
 31
0.0
  0
LINE
  5
456
330
40C
100
AcDbEntity
  8
CENTER
 62
     6
100
AcDbLine
 10
242.0428769496999
 20
14.96005
 30
0.0
 11
242.0428769496999
 21
9.267895000000009
 31
0.0
  0
TEXT
  5
457
330
40C
100
AcDbEntity
  8
TEXT
100
AcDbText
 10
257.3078171288039
 20
9.492177985111482
 30
0.0
 40
2.0
  1
mm
100
AcDbText
  0
LINE
  5
458
330
40C
100
AcDbEntity
  8
WAKU
 62
     6
100
AcDbLine
 10
252.2251127070999
 20
15.42673599999999
 30
0.0
 11
252.2251127070999
 21
8.638576
 31
0.0
  0
LINE
  5
459
330
40C
100
AcDbEntity
  8
WAKU
 62
     6
100
AcDbLine
 10
252.2251127070999
 20
15.42673599999999
 30
0.0
 11
252.2251127070999
 21
8.638576
 31
0.0
  0
LINE
  5
45A
330
40C
100
AcDbEntity
  8
WAKU
 62
     6
100
AcDbLine
 10
252.2251127070999
 20
15.42673599999999
 30
0.0
 11
252.2251127070999
 21
8.638576
 31
0.0
  0
LINE
  5
45B
330
40C
100
AcDbEntity
  8
WAKU
100
AcDbLine
 10
250.5280769496998
 20
14.01253599999999
 30
0.0
 11
250.5280769496998
 21
10.052776
 31
0.0
  0
LINE
  5
45C
330
40C
100
AcDbEntity
  8
WAKU
100
AcDbLine
 10
250.5280769496998
 20
14.01253599999999
 30
0.0
 11
250.5280769496998
 21
10.052776
 31
0.0
  0
LINE
  5
45D
330
40C
100
AcDbEntity
  8
WAKU
100
AcDbLine
 10
250.5280769496998
 20
14.01253599999999
 30
0.0
 11
250.5280769496998
 21
10.052776
 31
0.0
  0
TEXT
  5
45E
330
40C
100
AcDbEntity
  8
WAKU
 62
     6
100
AcDbText
 10
253.4130357573999
 20
13.0508792929
 30
0.0
 40
1.76775
  1
UNIT
 41
0.7
100
AcDbText
  0
TEXT
  5
45F
330
40C
100
AcDbEntity
  8
WAKU
 62
     6
100
AcDbText
 10
266.9893642426
 20
13.0508792929
 30
0.0
 40
1.76775
  1
DATE
 41
0.7
100
AcDbText
  0
LINE
  5
460
330
40C
100
AcDbEntity
  8
WAKU
 62
     6
100
AcDbLine
 10
265.7448611715999
 20
15.42673599999999
 30
0.0
 11
265.7448611715999
 21
8.638576
 31
0.0
  0
LINE
  5
461
330
40C
100
AcDbEntity
  8
WAKU
 62
     6
100
AcDbLine
 10
265.7448611715999
 20
15.42673599999999
 30
0.0
 11
265.7448611715999
 21
8.638576
 31
0.0
  0
LINE
  5
462
330
40C
100
AcDbEntity
  8
WAKU
 62
     6
100
AcDbLine
 10
265.7448611715999
 20
15.42673599999999
 30
0.0
 11
265.7448611715999
 21
8.638576
 31
0.0
  0
ENDBLK
  5
464
330
40C
100
AcDbEntity
  8
0
100
AcDbBlockEnd
  0
BLOCK
  5
4E5
330
4E3
100
AcDbEntity
  8
0
100
AcDbBlockBegin
  2
1
 70
     0
 10
0.0
 20
0.0
 30
0.0
  3
1
  1

  0
TEXT
  5
4E4
330
4E3
100
AcDbEntity
  8
0
100
AcDbText
 10
0.0
 20
0.0
 30
0.0
 40
2.0
  1
注。出力軸キーは JIS B 1301-1976平行キーに依ります。
100
AcDbText
  0
ENDBLK
  5
4E6
330
4E3
100
AcDbEntity
  8
0
100
AcDbBlockEnd
  0
BLOCK
  5
BDD
330
BC6
100
AcDbEntity
  8
0
100
AcDbBlockBegin
  2
BSPEC_90-90-0038
 70
     0
 10
0.0
 20
0.0
 30
0.0
  3
BSPEC_90-90-0038
  1

  0
TEXT
  5
BC7
330
BC6
100
AcDbEntity
  8
0
100
AcDbText
 10
35.94757247309064
 20
40.47485
 30
0.0
 40
2.0
  1
ブレーキ仕様
100
AcDbText
  0
LINE
  5
BC8
330
BC6
100
AcDbEntity
  8
0
100
AcDbLine
 10
35.94757247309064
 20
40.12129999999999
 30
0.0
 11
50.05242752690936
 21
40.12129999999999
 31
0.0
  0
LINE
  5
BC9
330
BC6
100
AcDbEntity
  8
0
100
AcDbLine
 10
35.94757247309064
 20
39.41419999999999
 30
0.0
 11
50.05242752690936
 21
39.41419999999999
 31
0.0
  0
TEXT
  5
BCA
330
BC6
100
AcDbEntity
  8
0
100
AcDbText
 10
29.35319943225727
 20
21.29776682820352
 30
0.0
 40
2.0
  1
0.37N・m（0.038kgf・m）
100
AcDbText
  0
TEXT
  5
BCB
330
BC6
100
AcDbEntity
  8
0
100
AcDbText
 10
29.35319943225727
 20
24.56510000000003
 30
0.0
 40
2.0
  1
12 W （於75℃）
100
AcDbText
  0
TEXT
  5
BCC
330
BC6
100
AcDbEntity
  8
0
100
AcDbText
 10
29.35319943225727
 20
31.6361
 30
0.0
 40
2.0
  1
無励磁作動形（スプリングクローズ）
100
AcDbText
  0
LINE
  5
BCD
330
BC6
100
AcDbEntity
  8
0
100
AcDbLine
 10
17.0
 20
20.32249999999996
 30
0.0
 11
69.0
 21
20.32249999999996
 31
0.0
  0
LINE
  5
BCE
330
BC6
100
AcDbEntity
  8
0
100
AcDbLine
 10
17.0
 20
23.85799999999994
 30
0.0
 11
69.0
 21
23.85799999999994
 31
0.0
  0
LINE
  5
BCF
330
BC6
100
AcDbEntity
  8
0
100
AcDbLine
 10
17.0
 20
27.39349999999999
 30
0.0
 11
69.0
 21
27.39349999999999
 31
0.0
  0
LINE
  5
BD0
330
BC6
100
AcDbEntity
  8
0
100
AcDbLine
 10
17.0
 20
30.929
 30
0.0
 11
69.0
 21
30.92899999999997
 31
0.0
  0
LINE
  5
BD1
330
BC6
100
AcDbEntity
  8
0
100
AcDbLine
 10
17.0
 20
34.46450000000001
 30
0.0
 11
69.0
 21
34.46450000000001
 31
0.0
  0
LINE
  5
BD2
330
BC6
100
AcDbEntity
  8
0
100
AcDbLine
 10
17.0
 20
38.0
 30
0.0
 11
69.0
 21
38.0
 31
0.0
  0
TEXT
  5
BD3
330
BC6
100
AcDbEntity
  8
0
100
AcDbText
 10
29.35319943225727
 20
28.10060000000001
 30
0.0
 40
2.0
  1
DC 90V
100
AcDbText
  0
TEXT
  5
BD4
330
BC6
100
AcDbEntity
  8
0
100
AcDbText
 10
17.67809444174622
 20
28.10059999999998
 30
0.0
 40
2.0
  1
入力電圧
100
AcDbText
  0
LINE
  5
BD5
330
BC6
100
AcDbEntity
  8
0
100
AcDbLine
 10
28.5
 20
20.32249999999996
 30
0.0
 11
28.5
 21
38.0
 31
0.0
  0
LINE
  5
BD6
330
BC6
100
AcDbEntity
  8
0
100
AcDbLine
 10
17.0
 20
20.32249999999996
 30
0.0
 11
17.0
 21
38.0
 31
0.0
  0
TEXT
  5
BD7
330
BC6
100
AcDbEntity
  8
0
100
AcDbText
 10
17.67809444174622
 20
20.93604220928048
 30
0.0
 40
2.0
  1
定格トルク
 41
0.85
100
AcDbText
  0
TEXT
  5
BD8
330
BC6
100
AcDbEntity
  8
0
100
AcDbText
 10
17.67809444174622
 20
24.56509999999994
 30
0.0
 40
2.0
  1
容量
100
AcDbText
  0
TEXT
  5
BD9
330
BC6
100
AcDbEntity
  8
0
100
AcDbText
 10
17.67809444174622
 20
35.17159999999998
 30
0.0
 40
2.0
  1
型式
100
AcDbText
  0
TEXT
  5
BDA
330
BC6
100
AcDbEntity
  8
0
100
AcDbText
 10
17.67809444174622
 20
31.6361
 30
0.0
 40
2.0
  1
方式
100
AcDbText
  0
TEXT
  5
BDB
330
BC6
100
AcDbEntity
  8
0
100
AcDbText
 10
29.35319943225727
 20
35.17159999999998
 30
0.0
 40
2.0
  1
BS-90
100
AcDbText
  0
LINE
  5
BDC
330
BC6
100
AcDbEntity
  8
0
100
AcDbLine
 10
69.0
 20
20.32249999999996
 30
0.0
 11
69.0
 21
38.0
 31
0.0
  0
ENDBLK
  5
BDE
330
BC6
100
AcDbEntity
  8
0
100
AcDbBlockEnd
  0
BLOCK
  5
EB0
330
E99
100
AcDbEntity
  8
0
100
AcDbBlockBegin
  2
BSPEC_90-90-0055
 70
     0
 10
0.0
 20
0.0
 30
0.0
  3
BSPEC_90-90-0055
  1

  0
TEXT
  5
E9A
330
E99
100
AcDbEntity
  8
0
100
AcDbText
 10
35.94757247309064
 20
40.47485
 30
0.0
 40
2.0
  1
ブレーキ仕様
100
AcDbText
  0
LINE
  5
E9B
330
E99
100
AcDbEntity
  8
0
100
AcDbLine
 10
35.94757247309064
 20
40.12129999999999
 30
0.0
 11
50.05242752690936
 21
40.12129999999999
 31
0.0
  0
LINE
  5
E9C
330
E99
100
AcDbEntity
  8
0
100
AcDbLine
 10
35.94757247309064
 20
39.41419999999999
 30
0.0
 11
50.05242752690936
 21
39.41419999999999
 31
0.0
  0
TEXT
  5
E9D
330
E99
100
AcDbEntity
  8
0
100
AcDbText
 10
29.35319943225727
 20
21.29776682820352
 30
0.0
 40
2.0
  1
0.54N・m（0.055kgf・m）
100
AcDbText
  0
TEXT
  5
E9E
330
E99
100
AcDbEntity
  8
0
100
AcDbText
 10
29.35319943225727
 20
24.56510000000003
 30
0.0
 40
2.0
  1
12 W （於75℃）
100
AcDbText
  0
TEXT
  5
E9F
330
E99
100
AcDbEntity
  8
0
100
AcDbText
 10
29.35319943225727
 20
31.6361
 30
0.0
 40
2.0
  1
無励磁作動形（スプリングクローズ）
100
AcDbText
  0
LINE
  5
EA0
330
E99
100
AcDbEntity
  8
0
100
AcDbLine
 10
17.0
 20
20.32249999999996
 30
0.0
 11
69.0
 21
20.32249999999996
 31
0.0
  0
LINE
  5
EA1
330
E99
100
AcDbEntity
  8
0
100
AcDbLine
 10
17.0
 20
23.85799999999994
 30
0.0
 11
69.0
 21
23.85799999999994
 31
0.0
  0
LINE
  5
EA2
330
E99
100
AcDbEntity
  8
0
100
AcDbLine
 10
17.0
 20
27.39349999999999
 30
0.0
 11
69.0
 21
27.39349999999999
 31
0.0
  0
LINE
  5
EA3
330
E99
100
AcDbEntity
  8
0
100
AcDbLine
 10
17.0
 20
30.929
 30
0.0
 11
69.0
 21
30.92899999999997
 31
0.0
  0
LINE
  5
EA4
330
E99
100
AcDbEntity
  8
0
100
AcDbLine
 10
17.0
 20
34.46450000000001
 30
0.0
 11
69.0
 21
34.46450000000001
 31
0.0
  0
LINE
  5
EA5
330
E99
100
AcDbEntity
  8
0
100
AcDbLine
 10
17.0
 20
38.0
 30
0.0
 11
69.0
 21
38.0
 31
0.0
  0
TEXT
  5
EA6
330
E99
100
AcDbEntity
  8
0
100
AcDbText
 10
29.35319943225727
 20
28.10060000000001
 30
0.0
 40
2.0
  1
DC 90V
100
AcDbText
  0
TEXT
  5
EA7
330
E99
100
AcDbEntity
  8
0
100
AcDbText
 10
17.67809444174622
 20
28.10059999999998
 30
0.0
 40
2.0
  1
入力電圧
100
AcDbText
  0
LINE
  5
EA8
330
E99
100
AcDbEntity
  8
0
100
AcDbLine
 10
28.5
 20
20.32249999999996
 30
0.0
 11
28.5
 21
38.0
 31
0.0
  0
LINE
  5
EA9
330
E99
100
AcDbEntity
  8
0
100
AcDbLine
 10
17.0
 20
20.32249999999996
 30
0.0
 11
17.0
 21
38.0
 31
0.0
  0
TEXT
  5
EAA
330
E99
100
AcDbEntity
  8
0
100
AcDbText
 10
17.67809444174622
 20
20.93604220928048
 30
0.0
 40
2.0
  1
定格トルク
 41
0.85
100
AcDbText
  0
TEXT
  5
EAB
330
E99
100
AcDbEntity
  8
0
100
AcDbText
 10
17.67809444174622
 20
24.56509999999994
 30
0.0
 40
2.0
  1
容量
100
AcDbText
  0
TEXT
  5
EAC
330
E99
100
AcDbEntity
  8
0
100
AcDbText
 10
17.67809444174622
 20
35.17159999999998
 30
0.0
 40
2.0
  1
型式
100
AcDbText
  0
TEXT
  5
EAD
330
E99
100
AcDbEntity
  8
0
100
AcDbText
 10
17.67809444174622
 20
31.6361
 30
0.0
 40
2.0
  1
方式
100
AcDbText
  0
TEXT
  5
EAE
330
E99
100
AcDbEntity
  8
0
100
AcDbText
 10
29.35319943225727
 20
35.17159999999998
 30
0.0
 40
2.0
  1
BS-90
100
AcDbText
  0
LINE
  5
EAF
330
E99
100
AcDbEntity
  8
0
100
AcDbLine
 10
69.0
 20
20.32249999999996
 30
0.0
 11
69.0
 21
38.0
 31
0.0
  0
ENDBLK
  5
EB1
330
E99
100
AcDbEntity
  8
0
100
AcDbBlockEnd
  0
BLOCK
  5
ED3
330
EBC
100
AcDbEntity
  8
0
100
AcDbBlockBegin
  2
BSPEC_90-45-0055
 70
     0
 10
0.0
 20
0.0
 30
0.0
  3
BSPEC_90-45-0055
  1

  0
TEXT
  5
EBD
330
EBC
100
AcDbEntity
  8
0
100
AcDbText
 10
35.94757247309064
 20
40.47485
 30
0.0
 40
2.0
  1
ブレーキ仕様
100
AcDbText
  0
LINE
  5
EBE
330
EBC
100
AcDbEntity
  8
0
100
AcDbLine
 10
35.94757247309064
 20
40.12129999999999
 30
0.0
 11
50.05242752690936
 21
40.12129999999999
 31
0.0
  0
LINE
  5
EBF
330
EBC
100
AcDbEntity
  8
0
100
AcDbLine
 10
35.94757247309064
 20
39.41419999999999
 30
0.0
 11
50.05242752690936
 21
39.41419999999999
 31
0.0
  0
TEXT
  5
EC0
330
EBC
100
AcDbEntity
  8
0
100
AcDbText
 10
29.35319943225727
 20
21.29776682820352
 30
0.0
 40
2.0
  1
0.54N・m（0.055kgf・m）
100
AcDbText
  0
TEXT
  5
EC1
330
EBC
100
AcDbEntity
  8
0
100
AcDbText
 10
29.35319943225727
 20
24.56510000000003
 30
0.0
 40
2.0
  1
10 W （於75℃）
100
AcDbText
  0
TEXT
  5
EC2
330
EBC
100
AcDbEntity
  8
0
100
AcDbText
 10
29.35319943225727
 20
31.6361
 30
0.0
 40
2.0
  1
無励磁作動形（スプリングクローズ）
100
AcDbText
  0
LINE
  5
EC3
330
EBC
100
AcDbEntity
  8
0
100
AcDbLine
 10
17.0
 20
20.32249999999996
 30
0.0
 11
69.0
 21
20.32249999999996
 31
0.0
  0
LINE
  5
EC4
330
EBC
100
AcDbEntity
  8
0
100
AcDbLine
 10
17.0
 20
23.85799999999994
 30
0.0
 11
69.0
 21
23.85799999999994
 31
0.0
  0
LINE
  5
EC5
330
EBC
100
AcDbEntity
  8
0
100
AcDbLine
 10
17.0
 20
27.39349999999999
 30
0.0
 11
69.0
 21
27.39349999999999
 31
0.0
  0
LINE
  5
EC6
330
EBC
100
AcDbEntity
  8
0
100
AcDbLine
 10
17.0
 20
30.929
 30
0.0
 11
69.0
 21
30.92899999999997
 31
0.0
  0
LINE
  5
EC7
330
EBC
100
AcDbEntity
  8
0
100
AcDbLine
 10
17.0
 20
34.46450000000001
 30
0.0
 11
69.0
 21
34.46450000000001
 31
0.0
  0
LINE
  5
EC8
330
EBC
100
AcDbEntity
  8
0
100
AcDbLine
 10
17.0
 20
38.0
 30
0.0
 11
69.0
 21
38.0
 31
0.0
  0
TEXT
  5
EC9
330
EBC
100
AcDbEntity
  8
0
100
AcDbText
 10
29.35319943225727
 20
28.10060000000001
 30
0.0
 40
2.0
  1
DC 45V
100
AcDbText
  0
TEXT
  5
ECA
330
EBC
100
AcDbEntity
  8
0
100
AcDbText
 10
17.67809444174622
 20
28.10059999999998
 30
0.0
 40
2.0
  1
入力電圧
100
AcDbText
  0
LINE
  5
ECB
330
EBC
100
AcDbEntity
  8
0
100
AcDbLine
 10
28.5
 20
20.32249999999996
 30
0.0
 11
28.5
 21
38.0
 31
0.0
  0
LINE
  5
ECC
330
EBC
100
AcDbEntity
  8
0
100
AcDbLine
 10
17.0
 20
20.32249999999996
 30
0.0
 11
17.0
 21
38.0
 31
0.0
  0
TEXT
  5
ECD
330
EBC
100
AcDbEntity
  8
0
100
AcDbText
 10
17.67809444174622
 20
20.93604220928048
 30
0.0
 40
2.0
  1
定格トルク
 41
0.85
100
AcDbText
  0
TEXT
  5
ECE
330
EBC
100
AcDbEntity
  8
0
100
AcDbText
 10
17.67809444174622
 20
24.56509999999994
 30
0.0
 40
2.0
  1
容量
100
AcDbText
  0
TEXT
  5
ECF
330
EBC
100
AcDbEntity
  8
0
100
AcDbText
 10
17.67809444174622
 20
35.17159999999998
 30
0.0
 40
2.0
  1
型式
100
AcDbText
  0
TEXT
  5
ED0
330
EBC
100
AcDbEntity
  8
0
100
AcDbText
 10
17.67809444174622
 20
31.6361
 30
0.0
 40
2.0
  1
方式
100
AcDbText
  0
TEXT
  5
ED1
330
EBC
100
AcDbEntity
  8
0
100
AcDbText
 10
29.35319943225727
 20
35.17159999999998
 30
0.0
 40
2.0
  1
BS-90
100
AcDbText
  0
LINE
  5
ED2
330
EBC
100
AcDbEntity
  8
0
100
AcDbLine
 10
69.0
 20
20.32249999999996
 30
0.0
 11
69.0
 21
38.0
 31
0.0
  0
ENDBLK
  5
ED4
330
EBC
100
AcDbEntity
  8
0
100
AcDbBlockEnd
  0
BLOCK
  5
FC4
330
FA9
100
AcDbEntity
  8
0
100
AcDbBlockBegin
  2
GSPEC_G-15-5-60
 70
     0
 10
0.0
 20
0.0
 30
0.0
  3
GSPEC_G-15-5-60
  1

  0
LINE
  5
FAA
330
FA9
100
AcDbEntity
  8
0
100
AcDbLine
 10
131.0
 20
16.78699999999992
 30
0.0
 11
183.0
 21
16.78699999999992
 31
0.0
  0
LINE
  5
FAB
330
FA9
100
AcDbEntity
  8
0
100
AcDbLine
 10
131.0
 20
13.25149999999993
 30
0.0
 11
183.0
 21
13.25149999999993
 31
0.0
  0
LINE
  5
FAC
330
FA9
100
AcDbEntity
  8
0
100
AcDbLine
 10
131.0
 20
20.3224999999999
 30
0.0
 11
183.0
 21
20.3224999999999
 31
0.0
  0
LINE
  5
FAD
330
FA9
100
AcDbEntity
  8
0
100
AcDbLine
 10
131.0
 20
34.46450000000001
 30
0.0
 11
183.0
 21
34.46450000000001
 31
0.0
  0
LINE
  5
FAE
330
FA9
100
AcDbEntity
  8
0
100
AcDbLine
 10
131.0
 20
30.929
 30
0.0
 11
183.0
 21
30.92899999999997
 31
0.0
  0
LINE
  5
FAF
330
FA9
100
AcDbEntity
  8
0
100
AcDbLine
 10
131.0
 20
38.0
 30
0.0
 11
183.0
 21
38.0
 31
0.0
  0
LINE
  5
FB0
330
FA9
100
AcDbEntity
  8
0
100
AcDbLine
 10
131.0
 20
13.25149999999993
 30
0.0
 11
131.0
 21
38.0
 31
0.0
  0
TEXT
  5
FB1
330
FA9
100
AcDbEntity
  8
0
100
AcDbText
 10
131.6780944417463
 20
17.49409999999991
 30
0.0
 40
2.0
  1
潤滑
100
AcDbText
  0
TEXT
  5
FB2
330
FA9
100
AcDbEntity
  8
0
100
AcDbText
 10
131.6780944417462
 20
13.86504220928046
 30
0.0
 40
2.0
  1
塗色
100
AcDbText
  0
TEXT
  5
FB3
330
FA9
100
AcDbEntity
  8
0
100
AcDbText
 10
131.6780944417462
 20
24.60966832202135
 30
0.0
 40
2.0
  1
減速比
100
AcDbText
  0
TEXT
  5
FB4
330
FA9
100
AcDbEntity
  8
0
100
AcDbText
 10
131.6780944417462
 20
31.6361
 30
0.0
 40
2.0
  1
枠番
100
AcDbText
  0
TEXT
  5
FB5
330
FA9
100
AcDbEntity
  8
0
100
AcDbText
 10
131.6780944417462
 20
35.17159999999998
 30
0.0
 40
2.0
  1
名称
100
AcDbText
  0
LINE
  5
FB6
330
FA9
100
AcDbEntity
  8
0
100
AcDbLine
 10
183.0
 20
13.25149999999993
 30
0.0
 11
183.0
 21
38.0
 31
0.0
  0
LINE
  5
FB7
330
FA9
100
AcDbEntity
  8
0
100
AcDbLine
 10
142.5
 20
13.25149999999993
 30
0.0
 11
142.5
 21
38.0
 31
0.0
  0
TEXT
  5
FB8
330
FA9
100
AcDbEntity
  8
0
100
AcDbText
 10
143.3531994322572
 20
28.10060000000001
 30
0.0
 40
2.0
  1
1/5 1/7.5 1/10 1/15
100
AcDbText
  0
TEXT
  5
FB9
330
FA9
100
AcDbEntity
  8
0
100
AcDbText
 10
143.3531994322572
 20
24.56510000000003
 30
0.0
 40
2.0
  1
1/20 1/25 1/30 1/40
100
AcDbText
  0
TEXT
  5
FBA
330
FA9
100
AcDbEntity
  8
0
100
AcDbText
 10
143.3531994322572
 20
13.9585999999999
 30
0.0
 40
2.0
  1
グレー（マンセル値 9B6/0.5）
100
AcDbText
  0
LINE
  5
FBB
330
FA9
100
AcDbEntity
  8
0
100
AcDbLine
 10
142.5
 20
27.39349999999999
 30
0.0
 11
183.0
 21
27.39349999999999
 31
0.0
  0
TEXT
  5
FBC
330
FA9
100
AcDbEntity
  8
0
100
AcDbText
 10
143.3531994322572
 20
17.49409999999991
 30
0.0
 40
2.0
  1
グリース
100
AcDbText
  0
LINE
  5
FBD
330
FA9
100
AcDbEntity
  8
0
100
AcDbLine
 10
150.4725366217368
 20
39.41419999999999
 30
0.0
 11
163.5274633782631
 21
39.41419999999999
 31
0.0
  0
LINE
  5
FBE
330
FA9
100
AcDbEntity
  8
0
100
AcDbLine
 10
150.4725366217368
 20
40.12129999999999
 30
0.0
 11
163.5274633782631
 21
40.12129999999999
 31
0.0
  0
TEXT
  5
FBF
330
FA9
100
AcDbEntity
  8
0
100
AcDbText
 10
151.1299348544099
 20
40.47485
 30
0.0
 40
2.0
  1
減速機仕様
100
AcDbText
  0
TEXT
  5
FC0
330
FA9
100
AcDbEntity
  8
0
100
AcDbText
 10
143.3531994322572
 20
31.6361
 30
0.0
 40
2.0
  1
15
100
AcDbText
  0
TEXT
  5
FC1
330
FA9
100
AcDbEntity
  8
0
100
AcDbText
 10
143.3531994322572
 20
35.17159999999998
 30
0.0
 40
2.0
  1
GTR
100
AcDbText
  0
TEXT
  5
FC2
330
FA9
100
AcDbEntity
  8
0
100
AcDbText
 10
143.3531994322572
 20
21.02960000000004
 30
0.0
 40
2.0
  1
1/50 1/60
100
AcDbText
  0
LINE
  5
FC3
330
FA9
100
AcDbEntity
  8
0
100
AcDbLine
 10
142.5
 20
23.85799999999995
 30
0.0
 11
183.0
 21
23.85799999999994
 31
0.0
  0
ENDBLK
  5
FC5
330
FA9
100
AcDbEntity
  8
0
100
AcDbBlockEnd
  0
BLOCK
  5
FE2
330
FC9
100
AcDbEntity
  8
0
100
AcDbBlockBegin
  2
GSPEC_G-15-5-30
 70
     0
 10
0.0
 20
0.0
 30
0.0
  3
GSPEC_G-15-5-30
  1

  0
LINE
  5
FCA
330
FC9
100
AcDbEntity
  8
0
100
AcDbLine
 10
131.0
 20
20.3224999999999
 30
0.0
 11
183.0
 21
20.3224999999999
 31
0.0
  0
LINE
  5
FCB
330
FC9
100
AcDbEntity
  8
0
100
AcDbLine
 10
131.0
 20
16.78699999999992
 30
0.0
 11
183.0
 21
16.78699999999992
 31
0.0
  0
LINE
  5
FCC
330
FC9
100
AcDbEntity
  8
0
100
AcDbLine
 10
131.0
 20
23.85799999999989
 30
0.0
 11
183.0
 21
23.85799999999989
 31
0.0
  0
LINE
  5
FCD
330
FC9
100
AcDbEntity
  8
0
100
AcDbLine
 10
131.0
 20
34.46450000000001
 30
0.0
 11
183.0
 21
34.46450000000001
 31
0.0
  0
LINE
  5
FCE
330
FC9
100
AcDbEntity
  8
0
100
AcDbLine
 10
131.0
 20
30.929
 30
0.0
 11
183.0
 21
30.92899999999997
 31
0.0
  0
LINE
  5
FCF
330
FC9
100
AcDbEntity
  8
0
100
AcDbLine
 10
131.0
 20
38.0
 30
0.0
 11
183.0
 21
38.0
 31
0.0
  0
LINE
  5
FD0
330
FC9
100
AcDbEntity
  8
0
100
AcDbLine
 10
131.0
 20
16.78699999999992
 30
0.0
 11
131.0
 21
38.0
 31
0.0
  0
TEXT
  5
FD1
330
FC9
100
AcDbEntity
  8
0
100
AcDbText
 10
131.6780944417463
 20
21.0295999999999
 30
0.0
 40
2.0
  1
潤滑
100
AcDbText
  0
TEXT
  5
FD2
330
FC9
100
AcDbEntity
  8
0
100
AcDbText
 10
131.6780944417462
 20
17.40054220928044
 30
0.0
 40
2.0
  1
塗色
100
AcDbText
  0
TEXT
  5
FD3
330
FC9
100
AcDbEntity
  8
0
100
AcDbText
 10
131.6780944417462
 20
26.37741832202137
 30
0.0
 40
2.0
  1
減速比
100
AcDbText
  0
TEXT
  5
FD4
330
FC9
100
AcDbEntity
  8
0
100
AcDbText
 10
131.6780944417462
 20
31.6361
 30
0.0
 40
2.0
  1
枠番
100
AcDbText
  0
TEXT
  5
FD5
330
FC9
100
AcDbEntity
  8
0
100
AcDbText
 10
131.6780944417462
 20
35.17159999999998
 30
0.0
 40
2.0
  1
名称
100
AcDbText
  0
LINE
  5
FD6
330
FC9
100
AcDbEntity
  8
0
100
AcDbLine
 10
183.0
 20
16.78699999999992
 30
0.0
 11
183.0
 21
38.0
 31
0.0
  0
LINE
  5
FD7
330
FC9
100
AcDbEntity
  8
0
100
AcDbLine
 10
142.5
 20
16.78699999999992
 30
0.0
 11
142.5
 21
38.0
 31
0.0
  0
TEXT
  5
FD8
330
FC9
100
AcDbEntity
  8
0
100
AcDbText
 10
143.3531994322572
 20
28.10060000000001
 30
0.0
 40
2.0
  1
1/5 1/7.5 1/10 1/15
100
AcDbText
  0
TEXT
  5
FD9
330
FC9
100
AcDbEntity
  8
0
100
AcDbText
 10
143.3531994322572
 20
24.56510000000003
 30
0.0
 40
2.0
  1
1/20 1/25 1/30
100
AcDbText
  0
TEXT
  5
FDA
330
FC9
100
AcDbEntity
  8
0
100
AcDbText
 10
143.3531994322572
 20
17.49409999999989
 30
0.0
 40
2.0
  1
グレー（マンセル値 9B6/0.5）
100
AcDbText
  0
LINE
  5
FDB
330
FC9
100
AcDbEntity
  8
0
100
AcDbLine
 10
142.5
 20
27.39349999999999
 30
0.0
 11
183.0
 21
27.39349999999999
 31
0.0
  0
TEXT
  5
FDC
330
FC9
100
AcDbEntity
  8
0
100
AcDbText
 10
143.3531994322572
 20
21.0295999999999
 30
0.0
 40
2.0
  1
グリース
100
AcDbText
  0
LINE
  5
FDD
330
FC9
100
AcDbEntity
  8
0
100
AcDbLine
 10
150.4725366217368
 20
39.41419999999999
 30
0.0
 11
163.5274633782631
 21
39.41419999999999
 31
0.0
  0
LINE
  5
FDE
330
FC9
100
AcDbEntity
  8
0
100
AcDbLine
 10
150.4725366217368
 20
40.12129999999999
 30
0.0
 11
163.5274633782631
 21
40.12129999999999
 31
0.0
  0
TEXT
  5
FDF
330
FC9
100
AcDbEntity
  8
0
100
AcDbText
 10
151.1299348544099
 20
40.47485
 30
0.0
 40
2.0
  1
減速機仕様
100
AcDbText
  0
TEXT
  5
FE0
330
FC9
100
AcDbEntity
  8
0
100
AcDbText
 10
143.3531994322572
 20
31.6361
 30
0.0
 40
2.0
  1
15
100
AcDbText
  0
TEXT
  5
FE1
330
FC9
100
AcDbEntity
  8
0
100
AcDbText
 10
143.3531994322572
 20
35.17159999999998
 30
0.0
 40
2.0
  1
GTR
100
AcDbText
  0
ENDBLK
  5
FE3
330
FC9
100
AcDbEntity
  8
0
100
AcDbBlockEnd
  0
BLOCK
  5
1212
330
11EF
100
AcDbEntity
  8
0
100
AcDbBlockBegin
  2
MSPEC_S60WF-90
 70
     0
 10
0.0
 20
0.0
 30
0.0
  3
MSPEC_S60WF-90
  1

  0
LINE
  5
11F0
330
11EF
100
AcDbEntity
  8
0
100
AcDbLine
 10
126.0
 20
6.180499999999994
 30
0.0
 11
126.0
 21
37.99999999999997
 31
0.0
  0
TEXT
  5
11F1
330
11EF
100
AcDbEntity
  8
0
100
AcDbText
 10
86.35319943225727
 20
28.10060000000001
 30
0.0
 40
2.0
  1
60 W
100
AcDbText
  0
TEXT
  5
11F2
330
11EF
100
AcDbEntity
  8
0
100
AcDbText
 10
74.67809444174623
 20
28.10059999999998
 30
0.0
 40
2.0
  1
出力
100
AcDbText
  0
LINE
  5
11F3
330
11EF
100
AcDbEntity
  8
0
100
AcDbLine
 10
85.5
 20
6.180499999999994
 30
0.0
 11
85.5
 21
38.0
 31
0.0
  0
LINE
  5
11F4
330
11EF
100
AcDbEntity
  8
0
100
AcDbLine
 10
73.99999999999998
 20
6.180500000000023
 30
0.0
 11
74.0
 21
38.0
 31
0.0
  0
TEXT
  5
11F5
330
11EF
100
AcDbEntity
  8
0
100
AcDbText
 10
86.35319943225727
 20
13.95859999999993
 30
0.0
 40
2.0
  1
1500/1800 rpm
100
AcDbText
  0
LINE
  5
11F6
330
11EF
100
AcDbEntity
  8
0
100
AcDbLine
 10
74.0
 20
6.180500000000023
 30
0.0
 11
126.0
 21
6.180499999999994
 31
0.0
  0
LINE
  5
11F7
330
11EF
100
AcDbEntity
  8
0
100
AcDbLine
 10
74.0
 20
9.716000000000008
 30
0.0
 11
126.0
 21
9.715999999999979
 31
0.0
  0
LINE
  5
11F8
330
11EF
100
AcDbEntity
  8
0
100
AcDbLine
 10
74.0
 20
13.25149999999999
 30
0.0
 11
126.0
 21
13.25149999999996
 31
0.0
  0
LINE
  5
11F9
330
11EF
100
AcDbEntity
  8
0
100
AcDbLine
 10
74.0
 20
23.85799999999994
 30
0.0
 11
126.0
 21
23.85799999999992
 31
0.0
  0
LINE
  5
11FA
330
11EF
100
AcDbEntity
  8
0
100
AcDbLine
 10
74.0
 20
16.78699999999997
 30
0.0
 11
126.0
 21
16.78699999999994
 31
0.0
  0
LINE
  5
11FB
330
11EF
100
AcDbEntity
  8
0
100
AcDbLine
 10
74.0
 20
20.32249999999996
 30
0.0
 11
126.0
 21
20.32249999999993
 31
0.0
  0
LINE
  5
11FC
330
11EF
100
AcDbEntity
  8
0
100
AcDbLine
 10
74.0
 20
27.39349999999999
 30
0.0
 11
126.0
 21
27.39349999999996
 31
0.0
  0
TEXT
  5
11FD
330
11EF
100
AcDbEntity
  8
0
100
AcDbText
 10
86.35319943225727
 20
24.56510000000003
 30
0.0
 40
2.0
  1
200 V
100
AcDbText
  0
TEXT
  5
11FE
330
11EF
100
AcDbEntity
  8
0
100
AcDbText
 10
86.35319943225727
 20
21.02959999999995
 30
0.0
 40
2.0
  1
50/60 Hz
100
AcDbText
  0
TEXT
  5
11FF
330
11EF
100
AcDbEntity
  8
0
100
AcDbText
 10
74.67809444174623
 20
10.3295422092805
 30
0.0
 40
2.0
  1
定格
100
AcDbText
  0
TEXT
  5
1200
330
11EF
100
AcDbEntity
  8
0
100
AcDbText
 10
74.67809444174623
 20
6.794042209280519
 30
0.0
 40
2.0
  1
絶縁
100
AcDbText
  0
TEXT
  5
1201
330
11EF
100
AcDbEntity
  8
0
100
AcDbText
 10
86.35319943225727
 20
10.42309999999994
 30
0.0
 40
2.0
  1
連続
100
AcDbText
  0
TEXT
  5
1202
330
11EF
100
AcDbEntity
  8
0
100
AcDbText
 10
86.35319943225727
 20
6.887599999999963
 30
0.0
 40
2.0
  1
E種
100
AcDbText
  0
TEXT
  5
1203
330
11EF
100
AcDbEntity
  8
0
100
AcDbText
 10
74.67809444174623
 20
13.86504220928048
 30
0.0
 40
2.0
  1
回転速度
100
AcDbText
  0
TEXT
  5
1204
330
11EF
100
AcDbEntity
  8
0
100
AcDbText
 10
74.67809444174633
 20
21.02959999999995
 30
0.0
 40
2.0
  1
周波数
100
AcDbText
  0
TEXT
  5
1205
330
11EF
100
AcDbEntity
  8
0
100
AcDbText
 10
74.67809444174623
 20
17.4005422092805
 30
0.0
 40
2.0
  1
極数
100
AcDbText
  0
TEXT
  5
1206
330
11EF
100
AcDbEntity
  8
0
100
AcDbText
 10
74.67809444174623
 20
24.56509999999997
 30
0.0
 40
2.0
  1
電圧
100
AcDbText
  0
TEXT
  5
1207
330
11EF
100
AcDbEntity
  8
0
100
AcDbText
 10
86.35319943225727
 20
17.49409999999994
 30
0.0
 40
2.0
  1
4
100
AcDbText
  0
TEXT
  5
1208
330
11EF
100
AcDbEntity
  8
0
100
AcDbText
 10
86.35319943225727
 20
31.6361
 30
0.0
 40
2.0
  1
全閉外扇形（ｺﾝﾃﾞﾝｻﾗﾝ）DS-90
100
AcDbText
  0
LINE
  5
1209
330
11EF
100
AcDbEntity
  8
0
100
AcDbLine
 10
74.0
 20
38.0
 30
0.0
 11
126.0
 21
37.99999999999997
 31
0.0
  0
LINE
  5
120A
330
11EF
100
AcDbEntity
  8
0
100
AcDbLine
 10
74.0
 20
30.929
 30
0.0
 11
126.0
 21
30.92899999999994
 31
0.0
  0
LINE
  5
120B
330
11EF
100
AcDbEntity
  8
0
100
AcDbLine
 10
74.0
 20
34.46450000000001
 30
0.0
 11
126.0
 21
34.46449999999998
 31
0.0
  0
TEXT
  5
120C
330
11EF
100
AcDbEntity
  8
0
100
AcDbText
 10
86.35319943225727
 20
35.17159999999998
 30
0.0
 40
2.0
  1
単相誘導電動機
100
AcDbText
  0
TEXT
  5
120D
330
11EF
100
AcDbEntity
  8
0
100
AcDbText
 10
74.67809444174623
 20
31.6361
 30
0.0
 40
2.0
  1
型式
100
AcDbText
  0
TEXT
  5
120E
330
11EF
100
AcDbEntity
  8
0
100
AcDbText
 10
74.67809444174623
 20
35.17159999999998
 30
0.0
 40
2.0
  1
名称
100
AcDbText
  0
LINE
  5
120F
330
11EF
100
AcDbEntity
  8
0
100
AcDbLine
 10
93.80123573807338
 20
40.12129999999999
 30
0.0
 11
106.1987642619266
 21
40.12129999999999
 31
0.0
  0
LINE
  5
1210
330
11EF
100
AcDbEntity
  8
0
100
AcDbLine
 10
93.80123573807338
 20
39.41419999999999
 30
0.0
 11
106.1987642619266
 21
39.41419999999999
 31
0.0
  0
TEXT
  5
1211
330
11EF
100
AcDbEntity
  8
0
100
AcDbText
 10
93.99902987649658
 20
40.47485
 30
0.0
 40
2.0
  1
モータ仕様
100
AcDbText
  0
ENDBLK
  5
1213
330
11EF
100
AcDbEntity
  8
0
100
AcDbBlockEnd
  0
BLOCK
  5
123C
330
1219
100
AcDbEntity
  8
0
100
AcDbBlockBegin
  2
MSPEC_S90F-90
 70
     0
 10
0.0
 20
0.0
 30
0.0
  3
MSPEC_S90F-90
  1

  0
LINE
  5
121A
330
1219
100
AcDbEntity
  8
0
100
AcDbLine
 10
126.0
 20
6.180499999999994
 30
0.0
 11
126.0
 21
37.99999999999997
 31
0.0
  0
TEXT
  5
121B
330
1219
100
AcDbEntity
  8
0
100
AcDbText
 10
86.35319943225727
 20
28.10060000000001
 30
0.0
 40
2.0
  1
90 W
100
AcDbText
  0
TEXT
  5
121C
330
1219
100
AcDbEntity
  8
0
100
AcDbText
 10
74.67809444174623
 20
28.10059999999998
 30
0.0
 40
2.0
  1
出力
100
AcDbText
  0
LINE
  5
121D
330
1219
100
AcDbEntity
  8
0
100
AcDbLine
 10
85.5
 20
6.180499999999994
 30
0.0
 11
85.5
 21
38.0
 31
0.0
  0
LINE
  5
121E
330
1219
100
AcDbEntity
  8
0
100
AcDbLine
 10
73.99999999999998
 20
6.180500000000023
 30
0.0
 11
74.0
 21
38.0
 31
0.0
  0
TEXT
  5
121F
330
1219
100
AcDbEntity
  8
0
100
AcDbText
 10
86.35319943225727
 20
13.95859999999993
 30
0.0
 40
2.0
  1
1500/1800 rpm
100
AcDbText
  0
LINE
  5
1220
330
1219
100
AcDbEntity
  8
0
100
AcDbLine
 10
74.0
 20
6.180500000000023
 30
0.0
 11
126.0
 21
6.180499999999994
 31
0.0
  0
LINE
  5
1221
330
1219
100
AcDbEntity
  8
0
100
AcDbLine
 10
74.0
 20
9.716000000000008
 30
0.0
 11
126.0
 21
9.715999999999979
 31
0.0
  0
LINE
  5
1222
330
1219
100
AcDbEntity
  8
0
100
AcDbLine
 10
74.0
 20
13.25149999999999
 30
0.0
 11
126.0
 21
13.25149999999996
 31
0.0
  0
LINE
  5
1223
330
1219
100
AcDbEntity
  8
0
100
AcDbLine
 10
74.0
 20
23.85799999999994
 30
0.0
 11
126.0
 21
23.85799999999992
 31
0.0
  0
LINE
  5
1224
330
1219
100
AcDbEntity
  8
0
100
AcDbLine
 10
74.0
 20
16.78699999999997
 30
0.0
 11
126.0
 21
16.78699999999994
 31
0.0
  0
LINE
  5
1225
330
1219
100
AcDbEntity
  8
0
100
AcDbLine
 10
74.0
 20
20.32249999999996
 30
0.0
 11
126.0
 21
20.32249999999993
 31
0.0
  0
LINE
  5
1226
330
1219
100
AcDbEntity
  8
0
100
AcDbLine
 10
74.0
 20
27.39349999999999
 30
0.0
 11
126.0
 21
27.39349999999996
 31
0.0
  0
TEXT
  5
1227
330
1219
100
AcDbEntity
  8
0
100
AcDbText
 10
86.35319943225727
 20
24.56510000000003
 30
0.0
 40
2.0
  1
100 V
100
AcDbText
  0
TEXT
  5
1228
330
1219
100
AcDbEntity
  8
0
100
AcDbText
 10
86.35319943225727
 20
21.02959999999995
 30
0.0
 40
2.0
  1
50/60 Hz
100
AcDbText
  0
TEXT
  5
1229
330
1219
100
AcDbEntity
  8
0
100
AcDbText
 10
74.67809444174623
 20
10.3295422092805
 30
0.0
 40
2.0
  1
定格
100
AcDbText
  0
TEXT
  5
122A
330
1219
100
AcDbEntity
  8
0
100
AcDbText
 10
74.67809444174623
 20
6.794042209280519
 30
0.0
 40
2.0
  1
絶縁
100
AcDbText
  0
TEXT
  5
122B
330
1219
100
AcDbEntity
  8
0
100
AcDbText
 10
86.35319943225727
 20
10.42309999999994
 30
0.0
 40
2.0
  1
連続
100
AcDbText
  0
TEXT
  5
122C
330
1219
100
AcDbEntity
  8
0
100
AcDbText
 10
86.35319943225727
 20
6.887599999999963
 30
0.0
 40
2.0
  1
E種
100
AcDbText
  0
TEXT
  5
122D
330
1219
100
AcDbEntity
  8
0
100
AcDbText
 10
74.67809444174623
 20
13.86504220928048
 30
0.0
 40
2.0
  1
回転速度
100
AcDbText
  0
TEXT
  5
122E
330
1219
100
AcDbEntity
  8
0
100
AcDbText
 10
74.67809444174633
 20
21.02959999999995
 30
0.0
 40
2.0
  1
周波数
100
AcDbText
  0
TEXT
  5
122F
330
1219
100
AcDbEntity
  8
0
100
AcDbText
 10
74.67809444174623
 20
17.4005422092805
 30
0.0
 40
2.0
  1
極数
100
AcDbText
  0
TEXT
  5
1230
330
1219
100
AcDbEntity
  8
0
100
AcDbText
 10
74.67809444174623
 20
24.56509999999997
 30
0.0
 40
2.0
  1
電圧
100
AcDbText
  0
TEXT
  5
1231
330
1219
100
AcDbEntity
  8
0
100
AcDbText
 10
86.35319943225727
 20
17.49409999999994
 30
0.0
 40
2.0
  1
4
100
AcDbText
  0
TEXT
  5
1232
330
1219
100
AcDbEntity
  8
0
100
AcDbText
 10
86.35319943225727
 20
31.6361
 30
0.0
 40
2.0
  1
全閉外扇形（ｺﾝﾃﾞﾝｻﾗﾝ）DS-90
100
AcDbText
  0
LINE
  5
1233
330
1219
100
AcDbEntity
  8
0
100
AcDbLine
 10
74.0
 20
38.0
 30
0.0
 11
126.0
 21
37.99999999999997
 31
0.0
  0
LINE
  5
1234
330
1219
100
AcDbEntity
  8
0
100
AcDbLine
 10
74.0
 20
30.929
 30
0.0
 11
126.0
 21
30.92899999999994
 31
0.0
  0
LINE
  5
1235
330
1219
100
AcDbEntity
  8
0
100
AcDbLine
 10
74.0
 20
34.46450000000001
 30
0.0
 11
126.0
 21
34.46449999999998
 31
0.0
  0
TEXT
  5
1236
330
1219
100
AcDbEntity
  8
0
100
AcDbText
 10
86.35319943225727
 20
35.17159999999998
 30
0.0
 40
2.0
  1
単相誘導電動機
100
AcDbText
  0
TEXT
  5
1237
330
1219
100
AcDbEntity
  8
0
100
AcDbText
 10
74.67809444174623
 20
31.6361
 30
0.0
 40
2.0
  1
型式
100
AcDbText
  0
TEXT
  5
1238
330
1219
100
AcDbEntity
  8
0
100
AcDbText
 10
74.67809444174623
 20
35.17159999999998
 30
0.0
 40
2.0
  1
名称
100
AcDbText
  0
LINE
  5
1239
330
1219
100
AcDbEntity
  8
0
100
AcDbLine
 10
93.80123573807338
 20
40.12129999999999
 30
0.0
 11
106.1987642619266
 21
40.12129999999999
 31
0.0
  0
LINE
  5
123A
330
1219
100
AcDbEntity
  8
0
100
AcDbLine
 10
93.80123573807338
 20
39.41419999999999
 30
0.0
 11
106.1987642619266
 21
39.41419999999999
 31
0.0
  0
TEXT
  5
123B
330
1219
100
AcDbEntity
  8
0
100
AcDbText
 10
93.99902987649658
 20
40.47485
 30
0.0
 40
2.0
  1
モータ仕様
100
AcDbText
  0
ENDBLK
  5
123D
330
1219
100
AcDbEntity
  8
0
100
AcDbBlockEnd
  0
BLOCK
  5
1262
330
123F
100
AcDbEntity
  8
0
100
AcDbBlockBegin
  2
MSPEC_S90WF-90
 70
     0
 10
0.0
 20
0.0
 30
0.0
  3
MSPEC_S90WF-90
  1

  0
LINE
  5
1240
330
123F
100
AcDbEntity
  8
0
100
AcDbLine
 10
126.0
 20
6.180499999999994
 30
0.0
 11
126.0
 21
37.99999999999997
 31
0.0
  0
TEXT
  5
1241
330
123F
100
AcDbEntity
  8
0
100
AcDbText
 10
86.35319943225727
 20
28.10060000000001
 30
0.0
 40
2.0
  1
90 W
100
AcDbText
  0
TEXT
  5
1242
330
123F
100
AcDbEntity
  8
0
100
AcDbText
 10
74.67809444174623
 20
28.10059999999998
 30
0.0
 40
2.0
  1
出力
100
AcDbText
  0
LINE
  5
1243
330
123F
100
AcDbEntity
  8
0
100
AcDbLine
 10
85.5
 20
6.180499999999994
 30
0.0
 11
85.5
 21
38.0
 31
0.0
  0
LINE
  5
1244
330
123F
100
AcDbEntity
  8
0
100
AcDbLine
 10
73.99999999999998
 20
6.180500000000023
 30
0.0
 11
74.0
 21
38.0
 31
0.0
  0
TEXT
  5
1245
330
123F
100
AcDbEntity
  8
0
100
AcDbText
 10
86.35319943225727
 20
13.95859999999993
 30
0.0
 40
2.0
  1
1500/1800 rpm
100
AcDbText
  0
LINE
  5
1246
330
123F
100
AcDbEntity
  8
0
100
AcDbLine
 10
74.0
 20
6.180500000000023
 30
0.0
 11
126.0
 21
6.180499999999994
 31
0.0
  0
LINE
  5
1247
330
123F
100
AcDbEntity
  8
0
100
AcDbLine
 10
74.0
 20
9.716000000000008
 30
0.0
 11
126.0
 21
9.715999999999979
 31
0.0
  0
LINE
  5
1248
330
123F
100
AcDbEntity
  8
0
100
AcDbLine
 10
74.0
 20
13.25149999999999
 30
0.0
 11
126.0
 21
13.25149999999996
 31
0.0
  0
LINE
  5
1249
330
123F
100
AcDbEntity
  8
0
100
AcDbLine
 10
74.0
 20
23.85799999999994
 30
0.0
 11
126.0
 21
23.85799999999992
 31
0.0
  0
LINE
  5
124A
330
123F
100
AcDbEntity
  8
0
100
AcDbLine
 10
74.0
 20
16.78699999999997
 30
0.0
 11
126.0
 21
16.78699999999994
 31
0.0
  0
LINE
  5
124B
330
123F
100
AcDbEntity
  8
0
100
AcDbLine
 10
74.0
 20
20.32249999999996
 30
0.0
 11
126.0
 21
20.32249999999993
 31
0.0
  0
LINE
  5
124C
330
123F
100
AcDbEntity
  8
0
100
AcDbLine
 10
74.0
 20
27.39349999999999
 30
0.0
 11
126.0
 21
27.39349999999996
 31
0.0
  0
TEXT
  5
124D
330
123F
100
AcDbEntity
  8
0
100
AcDbText
 10
86.35319943225727
 20
24.56510000000003
 30
0.0
 40
2.0
  1
200 V
100
AcDbText
  0
TEXT
  5
124E
330
123F
100
AcDbEntity
  8
0
100
AcDbText
 10
86.35319943225727
 20
21.02959999999995
 30
0.0
 40
2.0
  1
50/60 Hz
100
AcDbText
  0
TEXT
  5
124F
330
123F
100
AcDbEntity
  8
0
100
AcDbText
 10
74.67809444174623
 20
10.3295422092805
 30
0.0
 40
2.0
  1
定格
100
AcDbText
  0
TEXT
  5
1250
330
123F
100
AcDbEntity
  8
0
100
AcDbText
 10
74.67809444174623
 20
6.794042209280519
 30
0.0
 40
2.0
  1
絶縁
100
AcDbText
  0
TEXT
  5
1251
330
123F
100
AcDbEntity
  8
0
100
AcDbText
 10
86.35319943225727
 20
10.42309999999994
 30
0.0
 40
2.0
  1
連続
100
AcDbText
  0
TEXT
  5
1252
330
123F
100
AcDbEntity
  8
0
100
AcDbText
 10
86.35319943225727
 20
6.887599999999963
 30
0.0
 40
2.0
  1
E種
100
AcDbText
  0
TEXT
  5
1253
330
123F
100
AcDbEntity
  8
0
100
AcDbText
 10
74.67809444174623
 20
13.86504220928048
 30
0.0
 40
2.0
  1
回転速度
100
AcDbText
  0
TEXT
  5
1254
330
123F
100
AcDbEntity
  8
0
100
AcDbText
 10
74.67809444174633
 20
21.02959999999995
 30
0.0
 40
2.0
  1
周波数
100
AcDbText
  0
TEXT
  5
1255
330
123F
100
AcDbEntity
  8
0
100
AcDbText
 10
74.67809444174623
 20
17.4005422092805
 30
0.0
 40
2.0
  1
極数
100
AcDbText
  0
TEXT
  5
1256
330
123F
100
AcDbEntity
  8
0
100
AcDbText
 10
74.67809444174623
 20
24.56509999999997
 30
0.0
 40
2.0
  1
電圧
100
AcDbText
  0
TEXT
  5
1257
330
123F
100
AcDbEntity
  8
0
100
AcDbText
 10
86.35319943225727
 20
17.49409999999994
 30
0.0
 40
2.0
  1
4
100
AcDbText
  0
TEXT
  5
1258
330
123F
100
AcDbEntity
  8
0
100
AcDbText
 10
86.35319943225727
 20
31.6361
 30
0.0
 40
2.0
  1
全閉外扇形（ｺﾝﾃﾞﾝｻﾗﾝ）DS-90
100
AcDbText
  0
LINE
  5
1259
330
123F
100
AcDbEntity
  8
0
100
AcDbLine
 10
74.0
 20
38.0
 30
0.0
 11
126.0
 21
37.99999999999997
 31
0.0
  0
LINE
  5
125A
330
123F
100
AcDbEntity
  8
0
100
AcDbLine
 10
74.0
 20
30.929
 30
0.0
 11
126.0
 21
30.92899999999994
 31
0.0
  0
LINE
  5
125B
330
123F
100
AcDbEntity
  8
0
100
AcDbLine
 10
74.0
 20
34.46450000000001
 30
0.0
 11
126.0
 21
34.46449999999998
 31
0.0
  0
TEXT
  5
125C
330
123F
100
AcDbEntity
  8
0
100
AcDbText
 10
86.35319943225727
 20
35.17159999999998
 30
0.0
 40
2.0
  1
単相誘導電動機
100
AcDbText
  0
TEXT
  5
125D
330
123F
100
AcDbEntity
  8
0
100
AcDbText
 10
74.67809444174623
 20
31.6361
 30
0.0
 40
2.0
  1
型式
100
AcDbText
  0
TEXT
  5
125E
330
123F
100
AcDbEntity
  8
0
100
AcDbText
 10
74.67809444174623
 20
35.17159999999998
 30
0.0
 40
2.0
  1
名称
100
AcDbText
  0
LINE
  5
125F
330
123F
100
AcDbEntity
  8
0
100
AcDbLine
 10
93.80123573807338
 20
40.12129999999999
 30
0.0
 11
106.1987642619266
 21
40.12129999999999
 31
0.0
  0
LINE
  5
1260
330
123F
100
AcDbEntity
  8
0
100
AcDbLine
 10
93.80123573807338
 20
39.41419999999999
 30
0.0
 11
106.1987642619266
 21
39.41419999999999
 31
0.0
  0
TEXT
  5
1261
330
123F
100
AcDbEntity
  8
0
100
AcDbText
 10
93.99902987649658
 20
40.47485
 30
0.0
 40
2.0
  1
モータ仕様
100
AcDbText
  0
ENDBLK
  5
1263
330
123F
100
AcDbEntity
  8
0
100
AcDbBlockEnd
  0
BLOCK
  5
12BB
330
12B8
100
AcDbEntity
  8
0
100
AcDbBlockBegin
  2
17
 70
     0
 10
0.0
 20
0.0
 30
0.0
  3
17
  1

  0
TEXT
  5
12B9
330
12B8
100
AcDbEntity
  8
0
100
AcDbText
 10
0.0
 20
3.5
 30
0.0
 40
2.0
  1
注。K型ターミナルボックスにはコネクター（キャプコン、膜付ゴム
100
AcDbText
  0
TEXT
  5
12BA
330
12B8
100
AcDbEntity
  8
0
100
AcDbText
 10
0.0
 20
0.0
 30
0.0
 40
2.0
  1
　　ブッシュ）が付属されています。
100
AcDbText
  0
ENDBLK
  5
12BC
330
12B8
100
AcDbEntity
  8
0
100
AcDbBlockEnd
  0
ENDSEC
  0
SECTION
  2
ENTITIES
  0
TEXT
  5
61C
330
2
100
AcDbEntity
  8
TITLE
100
AcDbText
 10
283.7652608880945
 20
315.586067536713
 30
0.0
 40
5.0
  1
GLMN-15-5~60-T60WK
100
AcDbText
  0
TEXT
  5
61D
330
2
100
AcDbEntity
  8
TITLE
100
AcDbText
 10
404.3850883919324
 20
307.0851415405194
 30
0.0
 40
5.0
  1
GLMN-15-5~30-S90K
100
AcDbText
  0
TEXT
  5
61E
330
2
100
AcDbEntity
  8
TITLE
100
AcDbText
 10
283.7624579433999
 20
307.0146389652845
 30
0.0
 40
5.0
  1
GLMN-15-5~30-T90K
100
AcDbText
  0
TEXT
  5
61F
330
2
100
AcDbEntity
  8
TITLE
100
AcDbText
 10
404.3850883919324
 20
324.1574961081417
 30
0.0
 40
5.0
  1
GLMN-15-5~60-S60K
100
AcDbText
  0
TEXT
  5
620
330
2
100
AcDbEntity
  8
TITLE
100
AcDbText
 10
283.7652608880945
 20
324.1574961081417
 30
0.0
 40
5.0
  1
GLMN-15-40~60-T60K
100
AcDbText
  0
TEXT
  5
621
330
2
100
AcDbEntity
  8
TITLE
100
AcDbText
 10
283.7652608880945
 20
358.4432103938559
 30
0.0
 40
5.0
  1
GLMN-15-160~240-T25K
100
AcDbText
  0
TEXT
  5
622
330
2
100
AcDbEntity
  8
TITLE
100
AcDbText
 10
404.3850883919324
 20
341.3003532509987
 30
0.0
 40
5.0
  1
GLMN-15-80~120-S40K
100
AcDbText
  0
TEXT
  5
623
330
2
100
AcDbEntity
  8
TITLE
100
AcDbText
 10
283.7652608880945
 20
341.3003532509987
 30
0.0
 40
5.0
  1
GLMN-15-80~120-T40K
100
AcDbText
  0
TEXT
  5
624
330
2
100
AcDbEntity
  8
TITLE
100
AcDbText
 10
404.3850883919324
 20
358.4432103938559
 30
0.0
 40
5.0
  1
GLMN-15-160~240-S25K
100
AcDbText
  0
LINE
  5
625
330
2
100
AcDbEntity
  8
0
100
AcDbLine
 10
351.9694072815842
 20
153.4440978013614
 30
0.0
 11
338.0699782815842
 21
139.5445658013614
 31
0.0
  0
ARC
  5
626
330
2
100
AcDbEntity
  8
0
100
AcDbCircle
 10
345.0196852815843
 20
67.49436780136142
 30
0.0
 40
3.0
100
AcDbArc
 50
270.0
 51
0.0
  0
LINE
  5
627
330
2
100
AcDbEntity
  8
0
100
AcDbLine
 10
331.6054852815842
 20
63.90856780136141
 30
0.0
 11
347.9692852815842
 21
80.27252580136144
 31
0.0
  0
ARC
  5
628
330
2
100
AcDbEntity
  8
0
100
AcDbCircle
 10
383.0196852815843
 20
108.4943668013614
 30
0.0
 40
42.5
100
AcDbArc
 50
90.0
 51
160.2501069999997
  0
ARC
  5
629
330
2
100
AcDbEntity
  8
0
100
AcDbCircle
 10
383.0196852815843
 20
108.4943668013614
 30
0.0
 40
42.5
100
AcDbArc
 50
199.7498929999997
 51
270.0
  0
ARC
  5
62A
330
2
100
AcDbEntity
  8
0
100
AcDbCircle
 10
383.0196852815843
 20
108.4943668013614
 30
0.0
 40
45.0
100
AcDbArc
 50
130.1240999999998
 51
218.9423980000001
  0
LINE
  5
62B
330
2
100
AcDbEntity
  8
0
100
AcDbLine
 10
350.0196852815843
 20
56.49436780136142
 30
0.0
 11
331.0196852815843
 21
56.49436780136142
 31
0.0
  0
LINE
  5
62C
330
2
100
AcDbEntity
  8
CENTER
100
AcDbLine
 10
329.5196852815843
 20
108.4943668013614
 30
0.0
 11
436.5196852815842
 21
108.4943668013614
 31
0.0
  0
LINE
  5
62D
330
2
100
AcDbEntity
  8
0
100
AcDbLine
 10
50.08504795715873
 20
376.0931325611601
 30
0.0
 11
50.08501695715875
 21
292.0931255611602
 31
0.0
  0
LINE
  5
62E
330
2
100
AcDbEntity
  8
0
100
AcDbLine
 10
97.58503695715877
 20
381.0931325611601
 30
0.0
 11
97.58503695715877
 21
287.0931325611602
 31
0.0
  0
LINE
  5
62F
330
2
100
AcDbEntity
  8
0
100
AcDbLine
 10
235.0850329571587
 20
327.0221335611602
 30
0.0
 11
235.0850329571587
 21
324.5931325611602
 31
0.0
  0
LINE
  5
630
330
2
100
AcDbEntity
  8
0
100
AcDbLine
 10
230.0850329571587
 20
315.0931325611602
 30
0.0
 11
230.0850329571587
 21
353.0931325611602
 31
0.0
  0
LINE
  5
631
330
2
100
AcDbEntity
  8
0
100
AcDbLine
 10
259.0850329571587
 20
341.5931325611602
 30
0.0
 11
259.0850329571587
 21
324.5931325611602
 31
0.0
  0
LINE
  5
632
330
2
100
AcDbEntity
  8
0
100
AcDbLine
 10
107.0850369571587
 20
289.0931325611602
 30
0.0
 11
107.0850369571587
 21
309.0931325611602
 31
0.0
  0
LINE
  5
633
330
2
100
AcDbEntity
  8
0
100
AcDbLine
 10
226.0850329571587
 20
383.0931325611601
 30
0.0
 11
226.0850329571587
 21
285.0931325611602
 31
0.0
  0
LINE
  5
634
330
2
100
AcDbEntity
  8
CENTER
100
AcDbLine
 10
35.73769295715874
 20
108.4943668013614
 30
0.0
 11
235.3617359571587
 21
108.4943668013614
 31
0.0
  0
LINE
  5
635
330
2
100
AcDbEntity
  8
CENTER
100
AcDbLine
 10
338.0196852815843
 20
67.86936780136142
 30
0.0
 11
338.0196852815843
 21
50.74436780136142
 31
0.0
  0
LINE
  5
636
330
2
100
AcDbEntity
  8
0
100
AcDbLine
 10
188.0850399571587
 20
66.49436780136142
 30
0.0
 11
188.0850399571587
 21
81.49435680136141
 31
0.0
  0
LINE
  5
637
330
2
100
AcDbEntity
  8
0
100
AcDbLine
 10
208.0850399571587
 20
66.49435680136142
 30
0.0
 11
208.0850399571587
 21
81.49436580136143
 31
0.0
  0
LINE
  5
638
330
2
100
AcDbEntity
  8
CENTER
100
AcDbLine
 10
178.0850399571587
 20
69.18974480136142
 30
0.0
 11
178.0850399571587
 21
48.49436780136142
 31
0.0
  0
LINE
  5
639
330
2
100
AcDbEntity
  8
CENTER
100
AcDbLine
 10
218.0850399571587
 20
69.18974480136142
 30
0.0
 11
218.0850399571587
 21
49.24436780136142
 31
0.0
  0
LINE
  5
63A
330
2
100
AcDbEntity
  8
0
100
AcDbLine
 10
170.0850399571587
 20
72.08507780136142
 30
0.0
 11
170.0850399571587
 21
56.49436780136142
 31
0.0
  0
LINE
  5
63B
330
2
100
AcDbEntity
  8
0
100
AcDbLine
 10
226.0850329571587
 20
153.4943678013614
 30
0.0
 11
226.0850329571587
 21
56.49436780136142
 31
0.0
  0
LINE
  5
63C
330
2
100
AcDbEntity
  8
0
100
AcDbLine
 10
107.0850369571587
 20
63.49436780136142
 30
0.0
 11
107.0850369571587
 21
153.4943678013614
 31
0.0
  0
LINE
  5
63D
330
2
100
AcDbEntity
  8
0
100
AcDbLine
 10
50.08504795715873
 20
150.4943678013614
 30
0.0
 11
50.08501695715875
 21
66.49435680136142
 31
0.0
  0
LINE
  5
63E
330
2
100
AcDbEntity
  8
0
100
AcDbLine
 10
97.58503695715877
 20
155.4943678013614
 30
0.0
 11
97.58503695715877
 21
61.49436780136142
 31
0.0
  0
LINE
  5
63F
330
2
100
AcDbEntity
  8
0
100
AcDbLine
 10
172.0850399571587
 20
64.49436780136142
 30
0.0
 11
224.0850399571587
 21
64.49436780136142
 31
0.0
  0
LINE
  5
640
330
2
100
AcDbEntity
  8
0
100
AcDbLine
 10
170.0850399571587
 20
56.49436780136142
 30
0.0
 11
226.0850329571587
 21
56.49436780136142
 31
0.0
  0
LINE
  5
641
330
2
100
AcDbEntity
  8
0
100
AcDbLine
 10
107.0850369571587
 20
63.49436780136142
 30
0.0
 11
170.0850399571587
 21
63.49436780136142
 31
0.0
  0
LINE
  5
642
330
2
100
AcDbEntity
  8
0
100
AcDbLine
 10
55.08501695715875
 20
61.49436780136142
 30
0.0
 11
97.58503695715877
 21
61.49436780136142
 31
0.0
  0
ARC
  5
643
330
2
100
AcDbEntity
  8
0
100
AcDbCircle
 10
55.08501695715875
 20
66.49436780136142
 30
0.0
 40
5.0
100
AcDbArc
 50
180.0
 51
270.0
  0
LINE
  5
644
330
2
100
AcDbEntity
  8
0
100
AcDbLine
 10
97.58503695715877
 20
63.49436780136142
 30
0.0
 11
107.0850369571587
 21
63.49436780136142
 31
0.0
  0
LINE
  5
645
330
2
100
AcDbEntity
  8
HIDS
  6
SEKKEI_H
100
AcDbLine
 10
174.8350399571587
 20
64.49436780136142
 30
0.0
 11
174.8350399571587
 21
56.49436780136142
 31
0.0
  0
ARC
  5
646
330
2
100
AcDbEntity
  8
0
100
AcDbCircle
 10
172.0850399571587
 20
62.49437580136143
 30
0.0
 40
2.0
100
AcDbArc
 50
90.0
 51
180.0
  0
ARC
  5
647
330
2
100
AcDbEntity
  8
0
100
AcDbCircle
 10
210.0850399571587
 20
66.49436780136142
 30
0.0
 40
2.0
100
AcDbArc
 50
180.0
 51
270.0
  0
LINE
  5
648
330
2
100
AcDbEntity
  8
HIDS
  6
SEKKEI_H
100
AcDbLine
 10
181.3350399571587
 20
64.49436780136142
 30
0.0
 11
181.3350399571587
 21
56.49436780136142
 31
0.0
  0
ARC
  5
649
330
2
100
AcDbEntity
  8
0
100
AcDbCircle
 10
186.0850399571587
 20
66.49436780136142
 30
0.0
 40
2.0
100
AcDbArc
 50
270.0
 51
0.0
  0
ARC
  5
64A
330
2
100
AcDbEntity
  8
0
100
AcDbCircle
 10
224.0850399571587
 20
62.49435680136142
 30
0.0
 40
2.0
100
AcDbArc
 50
0.0
 51
90.0
  0
LINE
  5
64B
330
2
100
AcDbEntity
  8
HIDS
  6
SEKKEI_H
100
AcDbLine
 10
214.8350399571587
 20
64.49436780136142
 30
0.0
 11
214.8350399571587
 21
56.49436780136142
 31
0.0
  0
LINE
  5
64C
330
2
100
AcDbEntity
  8
HIDS
  6
SEKKEI_H
100
AcDbLine
 10
221.3350399571587
 20
64.49436780136142
 30
0.0
 11
221.3350399571587
 21
56.49436780136142
 31
0.0
  0
LINE
  5
64D
330
2
100
AcDbEntity
  8
0
100
AcDbLine
 10
333.0196852815843
 20
64.49436780136142
 30
0.0
 11
345.0196852815843
 21
64.49436780136142
 31
0.0
  0
LINE
  5
64E
330
2
100
AcDbEntity
  8
HIDS
  6
SEKKEI_H
100
AcDbLine
 10
334.7696852815843
 20
64.49436780136142
 30
0.0
 11
334.7696852815843
 21
56.49436780136142
 31
0.0
  0
LINE
  5
64F
330
2
100
AcDbEntity
  8
0
100
AcDbLine
 10
331.0196852815843
 20
62.49436780136142
 30
0.0
 11
331.0196852815843
 21
56.49436780136142
 31
0.0
  0
ARC
  5
650
330
2
100
AcDbEntity
  8
0
100
AcDbCircle
 10
333.0196852815843
 20
62.49435680136144
 30
0.0
 40
2.0
100
AcDbArc
 50
90.0
 51
180.0
  0
LINE
  5
651
330
2
100
AcDbEntity
  8
HIDS
  6
SEKKEI_H
100
AcDbLine
 10
341.2696852815843
 20
64.49436780136142
 30
0.0
 11
341.2696852815843
 21
56.49436780136142
 31
0.0
  0
LINE
  5
652
330
2
100
AcDbEntity
  8
0
100
AcDbLine
 10
107.0850369571587
 20
305.0931325611602
 30
0.0
 11
226.0850329571587
 21
305.0931325611602
 31
0.0
  0
ARC
  5
653
330
2
100
AcDbEntity
  8
HIDS
100
AcDbCircle
 10
178.0850399571587
 20
289.0931325611602
 30
0.0
 40
3.25
100
AcDbArc
 50
0.0
 51
180.0
  0
ARC
  5
654
330
2
100
AcDbEntity
  8
0
100
AcDbCircle
 10
178.0850399571587
 20
289.0931325611602
 30
0.0
 40
3.25
100
AcDbArc
 50
180.0
 51
0.0
  0
LINE
  5
655
330
2
100
AcDbEntity
  8
CENTER
100
AcDbLine
 10
171.0881609571587
 20
289.0931325611602
 30
0.0
 11
186.5906629571587
 21
289.0931325611602
 31
0.0
  0
LINE
  5
656
330
2
100
AcDbEntity
  8
0
100
AcDbLine
 10
173.0850399571587
 20
282.0931325611602
 30
0.0
 11
223.0850399571587
 21
282.0931325611602
 31
0.0
  0
LINE
  5
657
330
2
100
AcDbEntity
  8
0
100
AcDbLine
 10
107.0850369571587
 20
289.0931325611602
 30
0.0
 11
226.0850329571587
 21
289.0931325611602
 31
0.0
  0
LINE
  5
658
330
2
100
AcDbEntity
  8
0
100
AcDbLine
 10
187.4600399571587
 20
74.08507780136142
 30
0.0
 11
169.7725399571587
 21
74.08507780136142
 31
0.0
  0
LINE
  5
659
330
2
100
AcDbEntity
  8
0
100
AcDbLine
 10
226.0850329571587
 20
142.9036658013614
 30
0.0
 11
107.0850369571587
 21
142.9036658013614
 31
0.0
  0
LINE
  5
65A
330
2
100
AcDbEntity
  8
0
100
AcDbLine
 10
107.0850369571587
 20
153.4943678013614
 30
0.0
 11
226.0850329571587
 21
153.4943678013614
 31
0.0
  0
LINE
  5
65F
330
2
100
AcDbEntity
  8
0
100
AcDbLine
 10
168.0850399571587
 20
74.08507780136142
 30
0.0
 11
107.0850369571587
 21
74.08507780136142
 31
0.0
  0
LINE
  5
660
330
2
100
AcDbEntity
  8
0
100
AcDbLine
 10
97.58503695715877
 20
79.49436580136143
 30
0.0
 11
53.61000795715876
 21
79.49436580136143
 31
0.0
  0
LINE
  5
661
330
2
100
AcDbEntity
  8
0
100
AcDbLine
 10
107.0850369571587
 20
74.08507780136142
 30
0.0
 11
97.58503695715877
 21
74.08507780136142
 31
0.0
  0
LINE
  5
662
330
2
100
AcDbEntity
  8
0
100
AcDbLine
 10
55.08501695715875
 20
155.4943678013614
 30
0.0
 11
97.58503695715877
 21
155.4943678013614
 31
0.0
  0
LINE
  5
663
330
2
100
AcDbEntity
  8
0
100
AcDbLine
 10
97.58503695715877
 20
137.4943678013614
 30
0.0
 11
53.61000795715876
 21
137.4943678013614
 31
0.0
  0
ARC
  5
664
330
2
100
AcDbEntity
  8
0
100
AcDbCircle
 10
55.08504795715873
 20
150.4943678013614
 30
0.0
 40
5.0
100
AcDbArc
 50
90.0
 51
180.0
  0
ARC
  5
665
330
2
100
AcDbEntity
  8
0
100
AcDbCircle
 10
97.58503695715877
 20
137.0237678013614
 30
0.0
 40
1.5
100
AcDbArc
 50
0.0
 51
90.0
  0
ARC
  5
666
330
2
100
AcDbEntity
  8
0
100
AcDbCircle
 10
97.58503695715877
 20
137.0237678013614
 30
0.0
 40
3.0
100
AcDbArc
 50
0.0
 51
90.0
  0
ARC
  5
667
330
2
100
AcDbEntity
  8
0
100
AcDbCircle
 10
97.58503695715877
 20
137.0237678013614
 30
0.0
 40
4.5
100
AcDbArc
 50
0.0
 51
90.0
  0
LINE
  5
668
330
2
100
AcDbEntity
  8
HOJO
100
AcDbLine
 10
100.5850369571587
 20
133.0237678013614
 30
0.0
 11
102.0850369571587
 21
132.5237678013614
 31
0.0
  0
LINE
  5
669
330
2
100
AcDbEntity
  8
HOJO
100
AcDbLine
 10
99.08503695715877
 20
132.0237678013614
 30
0.0
 11
100.5850369571587
 21
132.5237678013614
 31
0.0
  0
LINE
  5
66A
330
2
100
AcDbEntity
  8
0
100
AcDbLine
 10
100.5850369571587
 20
137.0237678013614
 30
0.0
 11
100.5850369571587
 21
132.5237678013614
 31
0.0
  0
LINE
  5
66B
330
2
100
AcDbEntity
  8
0
100
AcDbLine
 10
99.08503695715877
 20
137.0237678013614
 30
0.0
 11
99.08503695715877
 21
132.0081678013614
 31
0.0
  0
LINE
  5
66C
330
2
100
AcDbEntity
  8
0
100
AcDbLine
 10
102.0850369571587
 20
137.0237678013614
 30
0.0
 11
102.0850369571587
 21
132.5237678013614
 31
0.0
  0
LINE
  5
66D
330
2
100
AcDbEntity
  8
0
100
AcDbLine
 10
107.0850369571587
 20
142.9036658013614
 30
0.0
 11
97.58503695715877
 21
142.9036658013614
 31
0.0
  0
LINE
  5
66F
330
2
100
AcDbEntity
  8
0
100
AcDbLine
 10
97.58503695715877
 20
153.4943678013614
 30
0.0
 11
107.0850369571587
 21
153.4943678013614
 31
0.0
  0
ARC
  5
672
330
2
100
AcDbEntity
  8
0
100
AcDbCircle
 10
168.0850399571587
 20
72.08507780136142
 30
0.0
 40
2.0
100
AcDbArc
 50
0.0
 51
90.0
  0
LINE
  5
676
330
2
100
AcDbEntity
  8
0
100
AcDbLine
 10
55.08501695715875
 20
287.0931325611602
 30
0.0
 11
97.58503695715877
 21
287.0931325611602
 31
0.0
  0
LINE
  5
677
330
2
100
AcDbEntity
  8
0
100
AcDbLine
 10
97.58503695715877
 20
305.0931325611602
 30
0.0
 11
53.61000795715876
 21
305.0931325611602
 31
0.0
  0
ARC
  5
678
330
2
100
AcDbEntity
  8
0
100
AcDbCircle
 10
55.08501695715875
 20
292.0931325611602
 30
0.0
 40
5.0
100
AcDbArc
 50
180.0
 51
270.0
  0
LINE
  5
679
330
2
100
AcDbEntity
  8
HOJO
100
AcDbLine
 10
99.08503695715877
 20
289.8232885611601
 30
0.0
 11
100.5850369571587
 21
290.3232885611602
 31
0.0
  0
LINE
  5
67A
330
2
100
AcDbEntity
  8
0
100
AcDbLine
 10
99.08503695715877
 20
294.8232885611602
 30
0.0
 11
99.08503695715877
 21
289.8076945611602
 31
0.0
  0
LINE
  5
67B
330
2
100
AcDbEntity
  8
0
100
AcDbLine
 10
97.58503695715877
 20
289.0931325611602
 30
0.0
 11
107.0850369571587
 21
289.0931325611602
 31
0.0
  0
LINE
  5
67C
330
2
100
AcDbEntity
  8
HOJO
100
AcDbLine
 10
100.5850369571587
 20
290.8232885611602
 30
0.0
 11
102.0850369571587
 21
290.3232885611602
 31
0.0
  0
ARC
  5
67D
330
2
100
AcDbEntity
  8
0
100
AcDbCircle
 10
97.58503695715877
 20
294.8232885611602
 30
0.0
 40
4.5
100
AcDbArc
 50
0.0
 51
90.0
  0
ARC
  5
67E
330
2
100
AcDbEntity
  8
0
100
AcDbCircle
 10
97.58503695715877
 20
294.8232885611602
 30
0.0
 40
1.5
100
AcDbArc
 50
0.0
 51
90.0
  0
ARC
  5
67F
330
2
100
AcDbEntity
  8
0
100
AcDbCircle
 10
97.58503695715877
 20
294.8232885611602
 30
0.0
 40
3.0
100
AcDbArc
 50
0.0
 51
90.0
  0
LINE
  5
680
330
2
100
AcDbEntity
  8
0
100
AcDbLine
 10
100.5850369571587
 20
294.8232885611602
 30
0.0
 11
100.5850369571587
 21
290.3232885611602
 31
0.0
  0
LINE
  5
681
330
2
100
AcDbEntity
  8
0
100
AcDbLine
 10
102.0850369571587
 20
294.8232885611602
 30
0.0
 11
102.0850369571587
 21
290.3232885611602
 31
0.0
  0
LINE
  5
682
330
2
100
AcDbEntity
  8
0
100
AcDbLine
 10
107.0850369571587
 20
305.0931325611602
 30
0.0
 11
97.58503695715877
 21
305.0931325611602
 31
0.0
  0
ARC
  5
683
330
2
100
AcDbEntity
  8
0
100
AcDbCircle
 10
173.0850399571587
 20
285.0931325611602
 30
0.0
 40
3.0
100
AcDbArc
 50
180.0
 51
270.0
  0
LINE
  5
684
330
2
100
AcDbEntity
  8
0
100
AcDbLine
 10
170.0850399571587
 20
285.0931325611602
 30
0.0
 11
170.0850399571587
 21
289.0931325611602
 31
0.0
  0
LINE
  5
685
330
2
100
AcDbEntity
  8
0
100
AcDbLine
 10
237.5850329571587
 20
118.9943668013614
 30
0.0
 11
259.0850329571587
 21
118.9943668013614
 31
0.0
  0
LINE
  5
686
330
2
100
AcDbEntity
  8
0
100
AcDbLine
 10
237.5850329571587
 20
123.9943658013614
 30
0.0
 11
259.0850329571587
 21
123.9943658013614
 31
0.0
  0
LINE
  5
687
330
2
100
AcDbEntity
  8
0
100
AcDbLine
 10
232.0850329571587
 20
113.9943668013614
 30
0.0
 11
259.0850329571587
 21
113.9943668013614
 31
0.0
  0
LINE
  5
688
330
2
100
AcDbEntity
  8
0
100
AcDbLine
 10
232.0850329571587
 20
128.9943658013614
 30
0.0
 11
259.0850329571587
 21
128.9943658013614
 31
0.0
  0
LINE
  5
689
330
2
100
AcDbEntity
  8
CENTER
100
AcDbLine
 10
204.5047329571587
 20
121.4943658013614
 30
0.0
 11
266.5850329571587
 21
121.4943658013614
 31
0.0
  0
LINE
  5
68A
330
2
100
AcDbEntity
  8
0
100
AcDbLine
 10
230.0850329571587
 20
102.4943668013614
 30
0.0
 11
230.0850329571587
 21
140.4943678013614
 31
0.0
  0
LINE
  5
68B
330
2
100
AcDbEntity
  8
0
100
AcDbLine
 10
232.0850329571587
 20
129.9943658013614
 30
0.0
 11
232.0850329571587
 21
112.9943668013614
 31
0.0
  0
ARC
  5
68C
330
2
100
AcDbEntity
  8
0
100
AcDbCircle
 10
210.0850399571587
 20
81.49436580136143
 30
0.0
 40
2.0
100
AcDbArc
 50
90.0
 51
180.0
  0
LINE
  5
68D
330
2
100
AcDbEntity
  8
0
100
AcDbLine
 10
207.4600399571587
 20
80.92697780136143
 30
0.0
 11
188.5850399571587
 21
80.92697780136143
 31
0.0
  0
ARC
  5
68E
330
2
100
AcDbEntity
  8
0
100
AcDbCircle
 10
186.0850399571587
 20
81.49435680136141
 30
0.0
 40
2.0
100
AcDbArc
 50
0.0
 51
90.0
  0
LINE
  5
68F
330
2
100
AcDbEntity
  8
0
100
AcDbLine
 10
226.0850329571587
 20
74.08507780136142
 30
0.0
 11
209.0850399571587
 21
74.08507780136142
 31
0.0
  0
ARC
  5
690
330
2
100
AcDbEntity
  8
0
100
AcDbCircle
 10
229.0850329571587
 20
102.4943668013614
 30
0.0
 40
1.0
100
AcDbArc
 50
270.0
 51
0.0
  0
LINE
  5
691
330
2
100
AcDbEntity
  8
0
100
AcDbLine
 10
229.0850329571587
 20
101.4943668013614
 30
0.0
 11
226.0850329571587
 21
101.4943668013614
 31
0.0
  0
LINE
  5
692
330
2
100
AcDbEntity
  8
0
100
AcDbLine
 10
230.0850329571587
 20
112.9943668013614
 30
0.0
 11
232.0850329571587
 21
112.9943668013614
 31
0.0
  0
ARC
  5
693
330
2
100
AcDbEntity
  8
0
100
AcDbCircle
 10
237.5850329571587
 20
121.4943658013614
 30
0.0
 40
2.5
100
AcDbArc
 50
180.0
 51
270.0
  0
ARC
  5
694
330
2
100
AcDbEntity
  8
0
100
AcDbCircle
 10
237.5850329571587
 20
121.4943658013614
 30
0.0
 40
2.5
100
AcDbArc
 50
90.0
 51
180.0
  0
LINE
  5
695
330
2
100
AcDbEntity
  8
0
100
AcDbLine
 10
230.0850329571587
 20
129.9943658013614
 30
0.0
 11
232.0850329571587
 21
129.9943658013614
 31
0.0
  0
LINE
  5
696
330
2
100
AcDbEntity
  8
0
100
AcDbLine
 10
229.0850329571587
 20
141.4943678013614
 30
0.0
 11
226.0850329571587
 21
141.4943678013614
 31
0.0
  0
ARC
  5
697
330
2
100
AcDbEntity
  8
0
100
AcDbCircle
 10
229.0850329571587
 20
140.4943678013614
 30
0.0
 40
1.0
100
AcDbArc
 50
0.0
 51
90.0
  0
LINE
  5
698
330
2
100
AcDbEntity
  8
0
100
AcDbLine
 10
336.0196852815843
 20
134.5948658013614
 30
0.0
 11
336.0196852815843
 21
82.39385680136143
 31
0.0
  0
LINE
  5
699
330
2
100
AcDbEntity
  8
0
100
AcDbLine
 10
343.0196852815843
 20
122.8557668013614
 30
0.0
 11
343.0196852815843
 21
94.13322680136145
 31
0.0
  0
ARC
  5
69A
330
2
100
AcDbEntity
  8
0
100
AcDbCircle
 10
343.0196852815843
 20
82.39391780136145
 30
0.0
 40
7.0
100
AcDbArc
 50
180.0
 51
225.0003970000002
  0
LINE
  5
69B
330
2
100
AcDbEntity
  8
0
100
AcDbLine
 10
338.0699782815842
 20
77.44411680136142
 30
0.0
 11
341.6054852815842
 21
73.9086168013614
 31
0.0
  0
LINE
  5
69C
330
2
100
AcDbEntity
  8
0
100
AcDbLine
 10
259.0850329571587
 20
128.9943658013614
 30
0.0
 11
259.0850329571587
 21
113.9943668013614
 31
0.0
  0
ARC
  5
69D
330
2
100
AcDbEntity
  8
0
100
AcDbCircle
 10
343.0196852815843
 20
134.5948658013614
 30
0.0
 40
7.0
100
AcDbArc
 50
135.000305
 51
180.0
  0
LINE
  5
69E
330
2
100
AcDbEntity
  8
0
100
AcDbLine
 10
235.0850329571587
 20
324.5931325611602
 30
0.0
 11
259.0850329571587
 21
324.5931325611602
 31
0.0
  0
LINE
  5
69F
330
2
100
AcDbEntity
  8
CENTER
100
AcDbLine
 10
218.0850399571587
 20
278.4928215611602
 30
0.0
 11
218.0850399571587
 21
296.5293815611602
 31
0.0
  0
LINE
  5
6A0
330
2
100
AcDbEntity
  8
CENTER
100
AcDbLine
 10
178.0850399571587
 20
278.9400105611601
 30
0.0
 11
178.0850399571587
 21
295.1878215611602
 31
0.0
  0
ARC
  5
6A1
330
2
100
AcDbEntity
  8
0
100
AcDbCircle
 10
223.0850399571587
 20
285.0931325611602
 30
0.0
 40
3.0
100
AcDbArc
 50
270.0
 51
0.0
  0
ARC
  5
6A2
330
2
100
AcDbEntity
  8
HIDS
100
AcDbCircle
 10
218.0850399571587
 20
289.0931325611602
 30
0.0
 40
3.25
100
AcDbArc
 50
0.0
 51
180.0
  0
ARC
  5
6A3
330
2
100
AcDbEntity
  8
0
100
AcDbCircle
 10
218.0850399571587
 20
289.0931325611602
 30
0.0
 40
3.25
100
AcDbArc
 50
180.0
 51
0.0
  0
LINE
  5
6A4
330
2
100
AcDbEntity
  8
CENTER
100
AcDbLine
 10
212.3039429571587
 20
289.0931325611602
 30
0.0
 11
224.4525409571587
 21
289.0931325611602
 31
0.0
  0
LINE
  5
6A5
330
2
100
AcDbEntity
  8
0
100
AcDbLine
 10
229.0850329571587
 20
314.0931325611602
 30
0.0
 11
226.0850329571587
 21
314.0931325611602
 31
0.0
  0
ARC
  5
6A6
330
2
100
AcDbEntity
  8
0
100
AcDbCircle
 10
229.0850329571587
 20
315.0931325611602
 30
0.0
 40
1.0
100
AcDbArc
 50
270.0
 51
0.0
  0
LINE
  5
6A7
330
2
100
AcDbEntity
  8
CENTER
100
AcDbLine
 10
39.72941095715873
 20
334.0931325611602
 30
0.0
 11
262.0025439571587
 21
334.0931325611602
 31
0.0
  0
ARC
  5
6A8
330
2
100
AcDbEntity
  8
HIDS
100
AcDbCircle
 10
178.0850399571587
 20
379.0931325611602
 30
0.0
 40
3.25
100
AcDbArc
 50
180.0
 51
0.0
  0
ARC
  5
6A9
330
2
100
AcDbEntity
  8
0
100
AcDbCircle
 10
178.0850399571587
 20
379.0931325611602
 30
0.0
 40
3.25
100
AcDbArc
 50
0.0
 51
180.0
  0
LINE
  5
6AA
330
2
100
AcDbEntity
  8
CENTER
100
AcDbLine
 10
171.0881609571587
 20
379.0931325611602
 30
0.0
 11
186.5906629571587
 21
379.0931325611602
 31
0.0
  0
LINE
  5
6AB
330
2
100
AcDbEntity
  8
0
100
AcDbLine
 10
173.0850399571587
 20
386.0931325611602
 30
0.0
 11
223.0850399571587
 21
386.0931325611602
 31
0.0
  0
LINE
  5
6AC
330
2
100
AcDbEntity
  8
0
100
AcDbLine
 10
107.0850369571587
 20
379.0931325611602
 30
0.0
 11
226.0850329571587
 21
379.0931325611602
 31
0.0
  0
LINE
  5
6AD
330
2
100
AcDbEntity
  8
0
100
AcDbLine
 10
107.0850369571587
 20
363.0931325611602
 30
0.0
 11
226.0850329571587
 21
363.0931325611602
 31
0.0
  0
LINE
  5
6AE
330
2
100
AcDbEntity
  8
0
100
AcDbLine
 10
107.0850369571587
 20
359.0931325611602
 30
0.0
 11
107.0850369571587
 21
379.0931325611602
 31
0.0
  0
LINE
  5
6AF
330
2
100
AcDbEntity
  8
0
100
AcDbLine
 10
97.58503695715877
 20
363.0931325611602
 30
0.0
 11
53.61000795715876
 21
363.0931325611602
 31
0.0
  0
LINE
  5
6BE
330
2
100
AcDbEntity
  8
0
100
AcDbLine
 10
107.0850369571587
 20
363.0931325611602
 30
0.0
 11
97.58503695715877
 21
363.0931325611602
 31
0.0
  0
LINE
  5
6BF
330
2
100
AcDbEntity
  8
0
100
AcDbLine
 10
55.08501695715875
 20
381.0931325611601
 30
0.0
 11
97.58503695715877
 21
381.0931325611601
 31
0.0
  0
ARC
  5
6C0
330
2
100
AcDbEntity
  8
0
100
AcDbCircle
 10
55.08504795715873
 20
376.0931325611601
 30
0.0
 40
5.0
100
AcDbArc
 50
90.0
 51
180.0
  0
LINE
  5
6C1
330
2
100
AcDbEntity
  8
0
100
AcDbLine
 10
97.58503695715877
 20
379.0931325611602
 30
0.0
 11
107.0850369571587
 21
379.0931325611602
 31
0.0
  0
LINE
  5
6C2
330
2
100
AcDbEntity
  8
0
100
AcDbLine
 10
170.0850399571587
 20
383.0931325611601
 30
0.0
 11
170.0850399571587
 21
379.0931325611602
 31
0.0
  0
ARC
  5
6C3
330
2
100
AcDbEntity
  8
0
100
AcDbCircle
 10
173.0850399571587
 20
383.0931325611601
 30
0.0
 40
3.0
100
AcDbArc
 50
90.0
 51
180.0
  0
LINE
  5
6C4
330
2
100
AcDbEntity
  8
0
100
AcDbLine
 10
235.0850329571587
 20
327.0221335611602
 30
0.0
 11
259.0850329571587
 21
327.0221335611602
 31
0.0
  0
LINE
  5
6C5
330
2
100
AcDbEntity
  8
0
100
AcDbLine
 10
232.0850329571587
 20
341.5931325611602
 30
0.0
 11
259.0850329571587
 21
341.5931325611602
 31
0.0
  0
LINE
  5
6C6
330
2
100
AcDbEntity
  8
0
100
AcDbLine
 10
232.0850329571587
 20
342.5931325611602
 30
0.0
 11
232.0850329571587
 21
325.5931325611602
 31
0.0
  0
LINE
  5
6C7
330
2
100
AcDbEntity
  8
0
100
AcDbLine
 10
232.0850329571587
 20
326.5931325611602
 30
0.0
 11
235.0850329571587
 21
326.5931325611602
 31
0.0
  0
LINE
  5
6C8
330
2
100
AcDbEntity
  8
0
100
AcDbLine
 10
230.0850329571587
 20
325.5931325611602
 30
0.0
 11
232.0850329571587
 21
325.5931325611602
 31
0.0
  0
LINE
  5
6C9
330
2
100
AcDbEntity
  8
0
100
AcDbLine
 10
230.0850329571587
 20
342.5931325611602
 30
0.0
 11
232.0850329571587
 21
342.5931325611602
 31
0.0
  0
ARC
  5
6CA
330
2
100
AcDbEntity
  8
0
100
AcDbCircle
 10
229.0850329571587
 20
353.0931325611602
 30
0.0
 40
1.0
100
AcDbArc
 50
0.0
 51
90.0
  0
LINE
  5
6CB
330
2
100
AcDbEntity
  8
0
100
AcDbLine
 10
229.0850329571587
 20
354.0931325611602
 30
0.0
 11
226.0850329571587
 21
354.0931325611602
 31
0.0
  0
LINE
  5
6CC
330
2
100
AcDbEntity
  8
CENTER
100
AcDbLine
 10
178.0850399571587
 20
389.2462545611602
 30
0.0
 11
178.0850399571587
 21
372.9984515611602
 31
0.0
  0
ARC
  5
6CD
330
2
100
AcDbEntity
  8
0
100
AcDbCircle
 10
223.0850399571587
 20
383.0931325611601
 30
0.0
 40
3.0
100
AcDbArc
 50
0.0
 51
90.0
  0
LINE
  5
6CE
330
2
100
AcDbEntity
  8
CENTER
100
AcDbLine
 10
218.0850399571587
 20
389.6934435611602
 30
0.0
 11
218.0850399571587
 21
371.6568835611602
 31
0.0
  0
ARC
  5
6CF
330
2
100
AcDbEntity
  8
0
100
AcDbCircle
 10
218.0850399571587
 20
379.0931325611602
 30
0.0
 40
3.25
100
AcDbArc
 50
0.0
 51
180.0
  0
ARC
  5
6D0
330
2
100
AcDbEntity
  8
HIDS
100
AcDbCircle
 10
218.0850399571587
 20
379.0931325611602
 30
0.0
 40
3.25
100
AcDbArc
 50
180.0
 51
0.0
  0
LINE
  5
6D1
330
2
100
AcDbEntity
  8
CENTER
100
AcDbLine
 10
212.3039429571587
 20
379.0931325611602
 30
0.0
 11
224.4525409571587
 21
379.0931325611602
 31
0.0
  0
LINE
  5
6D2
330
2
100
AcDbEntity
  8
0
100
AcDbLine
 10
434.4338702815843
 20
63.90856780136141
 30
0.0
 11
418.0870682815842
 21
80.25545680136145
 31
0.0
  0
LINE
  5
6D3
330
2
100
AcDbEntity
  8
0
100
AcDbLine
 10
348.0196852815843
 20
67.49436780136142
 30
0.0
 11
348.0196852815843
 21
80.2101058013614
 31
0.0
  0
LINE
  5
6D4
330
2
100
AcDbEntity
  8
0
100
AcDbLine
 10
418.0196852815842
 20
80.21008680136139
 30
0.0
 11
418.0196852815842
 21
67.49435680136144
 31
0.0
  0
ARC
  5
6D5
330
2
100
AcDbEntity
  8
0
100
AcDbCircle
 10
383.0196852815843
 20
108.4943668013614
 30
0.0
 40
42.5
100
AcDbArc
 50
270.0
 51
340.2500920000001
  0
LINE
  5
6D6
330
2
100
AcDbEntity
  8
CENTER
100
AcDbLine
 10
428.0196852815842
 20
67.86936780136142
 30
0.0
 11
428.0196852815842
 21
50.74436780136142
 31
0.0
  0
LINE
  5
6D7
330
2
100
AcDbEntity
  8
CENTER
100
AcDbLine
 10
383.0196852815843
 20
47.49436780136142
 30
0.0
 11
383.0196852815843
 21
205.3818828013613
 31
0.0
  0
LINE
  5
6D8
330
2
100
AcDbEntity
  8
0
100
AcDbLine
 10
415.0196852815843
 20
57.49436780136142
 30
0.0
 11
351.0196852815843
 21
57.49436780136142
 31
0.0
  0
LINE
  5
6DA
330
2
100
AcDbEntity
  8
0
100
AcDbLine
 10
350.0196852815843
 20
56.49436780136142
 30
0.0
 11
351.0196852815843
 21
57.49436780136142
 31
0.0
  0
LINE
  5
6DB
330
2
100
AcDbEntity
  8
0
100
AcDbLine
 10
433.0196852815842
 20
64.49436780136142
 30
0.0
 11
421.0196852815842
 21
64.49436780136142
 31
0.0
  0
LINE
  5
6DC
330
2
100
AcDbEntity
  8
0
100
AcDbLine
 10
416.0196852815842
 20
56.49436780136142
 30
0.0
 11
435.0196852815842
 21
56.49436780136142
 31
0.0
  0
ARC
  5
6DD
330
2
100
AcDbEntity
  8
0
100
AcDbCircle
 10
421.0196852815842
 20
67.49436780136142
 30
0.0
 40
3.0
100
AcDbArc
 50
180.0
 51
270.0
  0
LINE
  5
6DE
330
2
100
AcDbEntity
  8
0
100
AcDbLine
 10
416.0196852815842
 20
56.49436780136142
 30
0.0
 11
415.0196852815843
 21
57.49436780136142
 31
0.0
  0
LINE
  5
6DF
330
2
100
AcDbEntity
  8
HIDS
  6
SEKKEI_H
100
AcDbLine
 10
424.7696852815842
 20
64.49436780136142
 30
0.0
 11
424.7696852815842
 21
56.49436780136142
 31
0.0
  0
ARC
  5
6E0
330
2
100
AcDbEntity
  8
0
100
AcDbCircle
 10
433.0196852815842
 20
62.49435680136144
 30
0.0
 40
2.0
100
AcDbArc
 50
0.0
 51
90.0
  0
LINE
  5
6E1
330
2
100
AcDbEntity
  8
HIDS
  6
SEKKEI_H
100
AcDbLine
 10
431.2696852815842
 20
64.49436780136142
 30
0.0
 11
431.2696852815842
 21
56.49436780136142
 31
0.0
  0
LINE
  5
6E2
330
2
100
AcDbEntity
  8
0
100
AcDbLine
 10
435.0196852815842
 20
62.49436780136142
 30
0.0
 11
435.0196852815842
 21
56.49436780136142
 31
0.0
  0
ARC
  5
6E3
330
2
100
AcDbEntity
  8
0
100
AcDbCircle
 10
409.1201792815843
 20
148.4943678013614
 30
0.0
 40
7.0
100
AcDbArc
 50
45.00014099999998
 51
90.0
  0
ARC
  5
6E4
330
2
100
AcDbEntity
  8
0
100
AcDbCircle
 10
383.0196852815843
 20
108.4943668013614
 30
0.0
 40
42.5
100
AcDbArc
 50
19.7499010000001
 51
90.0
  0
ARC
  5
6E5
330
2
100
AcDbEntity
  8
0
100
AcDbCircle
 10
410.0196852815842
 20
151.0227678013613
 30
0.0
 40
2.0
100
AcDbArc
 50
0.0
 51
89.00019099999987
  0
CIRCLE
  5
6E6
330
2
100
AcDbEntity
  8
0
100
AcDbCircle
 10
383.0196852815843
 20
121.4943658013614
 30
0.0
 40
20.0
  0
LINE
  5
6E7
330
2
100
AcDbEntity
  8
0
100
AcDbLine
 10
374.0548872815843
 20
91.04758680136143
 30
0.0
 11
374.0548872815843
 21
90.00168680136141
 31
0.0
  0
LINE
  5
6E8
330
2
100
AcDbEntity
  8
0
100
AcDbLine
 10
371.3404862815842
 20
92.89435680136142
 30
0.0
 11
371.3404862815842
 21
87.38528680136141
 31
0.0
  0
LINE
  5
6E9
330
2
100
AcDbEntity
  8
0
100
AcDbLine
 10
370.2696852815843
 20
93.57485680136141
 30
0.0
 11
370.2696852815843
 21
86.73521680136145
 31
0.0
  0
LINE
  5
6EA
330
2
100
AcDbEntity
  8
0
100
AcDbLine
 10
376.6446852815843
 20
91.04758680136143
 30
0.0
 11
376.6446852815843
 21
85.49436580136143
 31
0.0
  0
LINE
  5
6EB
330
2
100
AcDbEntity
  8
0
100
AcDbLine
 10
371.4994822815842
 20
85.49436580136143
 30
0.0
 11
374.8146832815842
 21
85.49436580136143
 31
0.0
  0
ARC
  5
6EC
330
2
100
AcDbEntity
  8
0
100
AcDbCircle
 10
373.7310802815843
 20
88.60715680136143
 30
0.0
 40
1.992186999999999
100
AcDbArc
 50
270.0002139999998
 51
0.0001089999998967
  0
LINE
  5
6ED
330
2
100
AcDbEntity
  8
0
100
AcDbLine
 10
373.7310802815843
 20
86.61497680136141
 30
0.0
 11
372.0717792815842
 21
86.61497680136141
 31
0.0
  0
LINE
  5
6EE
330
2
100
AcDbEntity
  8
0
100
AcDbLine
 10
370.2696852815843
 20
86.73521680136145
 30
0.0
 11
371.4994822815842
 21
85.49436580136143
 31
0.0
  0
LINE
  5
6EF
330
2
100
AcDbEntity
  8
0
100
AcDbLine
 10
371.3404862815842
 20
87.38528680136141
 30
0.0
 11
372.0717792815842
 21
86.61497680136141
 31
0.0
  0
LINE
  5
6F0
330
2
100
AcDbEntity
  8
0
100
AcDbLine
 10
375.7232832815842
 20
86.25662680136144
 30
0.0
 11
374.8146832815842
 21
85.49436580136143
 31
0.0
  0
LINE
  5
6F1
330
2
100
AcDbEntity
  8
0
100
AcDbLine
 10
375.7232832815842
 20
85.49436580136143
 30
0.0
 11
376.6446852815843
 21
85.49436580136143
 31
0.0
  0
LINE
  5
6F2
330
2
100
AcDbEntity
  8
0
100
AcDbLine
 10
375.7232832815842
 20
90.00168680136141
 30
0.0
 11
375.7232832815842
 21
88.60715680136143
 31
0.0
  0
LINE
  5
6F3
330
2
100
AcDbEntity
  8
0
100
AcDbLine
 10
375.7232832815842
 20
86.25662680136144
 30
0.0
 11
375.7232832815842
 21
85.49436580136143
 31
0.0
  0
LINE
  5
6F4
330
2
100
AcDbEntity
  8
0
100
AcDbLine
 10
375.7232832815842
 20
89.00559680136144
 30
0.0
 11
375.7232832815842
 21
89.80247680136143
 31
0.0
  0
LINE
  5
6F5
330
2
100
AcDbEntity
  8
0
100
AcDbLine
 10
375.7232832815842
 20
90.00168680136141
 30
0.0
 11
374.0548872815843
 21
90.00168680136141
 31
0.0
  0
LINE
  5
6F6
330
2
100
AcDbEntity
  8
0
100
AcDbLine
 10
371.4270792815842
 20
95.05686680136141
 30
0.0
 11
375.7136852815842
 21
95.05686680136141
 31
0.0
  0
LINE
  5
6F7
330
2
100
AcDbEntity
  8
0
100
AcDbLine
 10
375.1321882815843
 20
93.78684680136144
 30
0.0
 11
372.0602892815842
 21
93.78684680136144
 31
0.0
  0
LINE
  5
6F8
330
2
100
AcDbEntity
  8
0
100
AcDbLine
 10
371.4270792815842
 20
95.05686680136141
 30
0.0
 11
370.2696852815843
 21
93.57485680136141
 31
0.0
  0
LINE
  5
6F9
330
2
100
AcDbEntity
  8
0
100
AcDbLine
 10
372.0602892815842
 20
93.78684680136144
 30
0.0
 11
371.3404862815842
 21
92.89435680136142
 31
0.0
  0
LINE
  5
6FA
330
2
100
AcDbEntity
  8
0
100
AcDbLine
 10
374.0548872815843
 20
91.04758680136143
 30
0.0
 11
376.6446852815843
 21
91.04758680136143
 31
0.0
  0
LINE
  5
6FB
330
2
100
AcDbEntity
  8
0
100
AcDbLine
 10
375.7232832815842
 20
93.21541680136141
 30
0.0
 11
375.7232832815842
 21
93.06467680136142
 31
0.0
  0
LINE
  5
6FC
330
2
100
AcDbEntity
  8
0
100
AcDbLine
 10
376.6446852815843
 20
94.02371680136145
 30
0.0
 11
376.6446852815843
 21
93.06467680136142
 31
0.0
  0
LINE
  5
6FD
330
2
100
AcDbEntity
  8
0
100
AcDbLine
 10
375.7232832815842
 20
93.06467680136142
 30
0.0
 11
376.6446852815843
 21
93.06467680136142
 31
0.0
  0
LINE
  5
6FE
330
2
100
AcDbEntity
  8
0
100
AcDbLine
 10
375.7136852815842
 20
95.05686680136141
 30
0.0
 11
376.6446852815843
 21
94.02371680136145
 31
0.0
  0
LINE
  5
6FF
330
2
100
AcDbEntity
  8
0
100
AcDbLine
 10
375.7232832815842
 20
93.21541680136141
 30
0.0
 11
375.1200882815843
 21
93.78684680136144
 31
0.0
  0
ARC
  5
700
330
2
100
AcDbEntity
  8
0
100
AcDbCircle
 10
393.2171952815842
 20
92.50437680136144
 30
0.0
 40
2.55249
100
AcDbArc
 50
286.018127
 51
90.00351000000003
  0
LINE
  5
701
330
2
100
AcDbEntity
  8
0
100
AcDbLine
 10
389.8677842815843
 20
93.88645680136141
 30
0.0
 11
389.8677842815843
 21
86.4904558013614
 31
0.0
  0
LINE
  5
702
330
2
100
AcDbEntity
  8
0
100
AcDbLine
 10
383.5924852815843
 20
93.88645680136141
 30
0.0
 11
383.5924852815843
 21
86.54027780136141
 31
0.0
  0
LINE
  5
703
330
2
100
AcDbEntity
  8
0
100
AcDbLine
 10
382.3970812815843
 20
93.88645680136141
 30
0.0
 11
382.3970812815843
 21
86.54027780136141
 31
0.0
  0
LINE
  5
704
330
2
100
AcDbEntity
  8
0
100
AcDbLine
 10
394.3004772815843
 20
85.49436580136143
 30
0.0
 11
395.7696852815842
 21
85.49436580136143
 31
0.0
  0
LINE
  5
705
330
2
100
AcDbEntity
  8
0
100
AcDbLine
 10
394.3004772815843
 20
86.4904558013614
 30
0.0
 11
394.4989942815842
 21
86.4904558013614
 31
0.0
  0
LINE
  5
706
330
2
100
AcDbEntity
  8
0
100
AcDbLine
 10
393.0039682815842
 20
89.9643368013614
 30
0.0
 11
394.4989942815842
 21
86.4904558013614
 31
0.0
  0
LINE
  5
707
330
2
100
AcDbEntity
  8
0
100
AcDbLine
 10
393.9215712815842
 20
90.05097680136145
 30
0.0
 11
395.5013742815842
 21
86.4904558013614
 31
0.0
  0
LINE
  5
708
330
2
100
AcDbEntity
  8
0
100
AcDbLine
 10
381.9239822815843
 20
86.54027780136141
 30
0.0
 11
382.3970812815843
 21
86.54027780136141
 31
0.0
  0
LINE
  5
709
330
2
100
AcDbEntity
  8
0
100
AcDbLine
 10
381.9239822815843
 20
85.49436580136143
 30
0.0
 11
383.9908762815842
 21
85.49436580136143
 31
0.0
  0
LINE
  5
70A
330
2
100
AcDbEntity
  8
0
100
AcDbLine
 10
381.9239822815843
 20
86.54027780136141
 30
0.0
 11
381.9239822815843
 21
85.49436580136143
 31
0.0
  0
LINE
  5
70B
330
2
100
AcDbEntity
  8
0
100
AcDbLine
 10
383.9908762815842
 20
86.54027780136141
 30
0.0
 11
383.9908762815842
 21
85.49436580136143
 31
0.0
  0
LINE
  5
70C
330
2
100
AcDbEntity
  8
0
100
AcDbLine
 10
383.5924852815843
 20
86.54027780136141
 30
0.0
 11
383.9908762815842
 21
86.54027780136141
 31
0.0
  0
LINE
  5
70D
330
2
100
AcDbEntity
  8
0
100
AcDbLine
 10
391.3992932815842
 20
85.49436580136143
 30
0.0
 11
389.3946852815843
 21
85.49436580136143
 31
0.0
  0
LINE
  5
70E
330
2
100
AcDbEntity
  8
0
100
AcDbLine
 10
389.3946852815843
 20
86.4904558013614
 30
0.0
 11
389.3946852815843
 21
85.49436580136143
 31
0.0
  0
LINE
  5
70F
330
2
100
AcDbEntity
  8
0
100
AcDbLine
 10
389.3946852815843
 20
86.4904558013614
 30
0.0
 11
389.8677842815843
 21
86.4904558013614
 31
0.0
  0
LINE
  5
710
330
2
100
AcDbEntity
  8
0
100
AcDbLine
 10
390.9634872815843
 20
89.9643368013614
 30
0.0
 11
393.0039682815842
 21
89.9643368013614
 31
0.0
  0
LINE
  5
711
330
2
100
AcDbEntity
  8
0
100
AcDbLine
 10
391.3992932815842
 20
86.4904558013614
 30
0.0
 11
391.3992932815842
 21
85.49436580136143
 31
0.0
  0
LINE
  5
712
330
2
100
AcDbEntity
  8
0
100
AcDbLine
 10
394.3004772815843
 20
86.4904558013614
 30
0.0
 11
394.3004772815843
 21
85.49436580136143
 31
0.0
  0
LINE
  5
713
330
2
100
AcDbEntity
  8
0
100
AcDbLine
 10
390.9634872815843
 20
86.4904558013614
 30
0.0
 11
391.3992932815842
 21
86.4904558013614
 31
0.0
  0
LINE
  5
714
330
2
100
AcDbEntity
  8
0
100
AcDbLine
 10
390.9634872815843
 20
89.9643368013614
 30
0.0
 11
390.9634872815843
 21
86.4904558013614
 31
0.0
  0
LINE
  5
715
330
2
100
AcDbEntity
  8
0
100
AcDbLine
 10
395.7696852815842
 20
86.4904558013614
 30
0.0
 11
395.7696852815842
 21
85.49436580136143
 31
0.0
  0
LINE
  5
716
330
2
100
AcDbEntity
  8
0
100
AcDbLine
 10
395.5013742815842
 20
86.4904558013614
 30
0.0
 11
395.7696852815842
 21
86.4904558013614
 31
0.0
  0
ARC
  5
717
330
2
100
AcDbEntity
  8
0
100
AcDbCircle
 10
393.2171952815842
 20
92.50437680136144
 30
0.0
 40
1.557193
100
AcDbArc
 50
277.4147259999999
 51
62.41185000000005
  0
LINE
  5
718
330
2
100
AcDbEntity
  8
0
100
AcDbLine
 10
379.8321852815843
 20
95.05686680136141
 30
0.0
 11
386.2071852815843
 21
95.05686680136141
 31
0.0
  0
LINE
  5
719
330
2
100
AcDbEntity
  8
0
100
AcDbLine
 10
385.5422832815842
 20
93.06467680136142
 30
0.0
 11
386.2071852815843
 21
93.06467680136142
 31
0.0
  0
LINE
  5
71A
330
2
100
AcDbEntity
  8
0
100
AcDbLine
 10
382.3970812815843
 20
93.88645680136141
 30
0.0
 11
380.8821882815843
 21
93.88645680136141
 31
0.0
  0
LINE
  5
71B
330
2
100
AcDbEntity
  8
0
100
AcDbLine
 10
380.8821882815843
 20
93.88645680136141
 30
0.0
 11
380.5397812815842
 21
93.06467680136142
 31
0.0
  0
LINE
  5
71C
330
2
100
AcDbEntity
  8
0
100
AcDbLine
 10
379.8321852815843
 20
93.06467680136142
 30
0.0
 11
380.5397812815842
 21
93.06467680136142
 31
0.0
  0
LINE
  5
71D
330
2
100
AcDbEntity
  8
0
100
AcDbLine
 10
379.8321852815843
 20
93.06467680136142
 30
0.0
 11
379.8321852815843
 21
95.05686680136141
 31
0.0
  0
LINE
  5
71E
330
2
100
AcDbEntity
  8
0
100
AcDbLine
 10
383.5924852815843
 20
93.88645680136141
 30
0.0
 11
385.2534802815842
 21
93.88645680136141
 31
0.0
  0
LINE
  5
71F
330
2
100
AcDbEntity
  8
0
100
AcDbLine
 10
385.2534802815842
 20
93.88645680136141
 30
0.0
 11
385.5422832815842
 21
93.06467680136142
 31
0.0
  0
LINE
  5
720
330
2
100
AcDbEntity
  8
0
100
AcDbLine
 10
389.3946852815843
 20
95.05686680136141
 30
0.0
 11
393.2171952815842
 21
95.05686680136141
 31
0.0
  0
LINE
  5
721
330
2
100
AcDbEntity
  8
0
100
AcDbLine
 10
389.3946852815843
 20
93.88645680136141
 30
0.0
 11
389.8677842815843
 21
93.88645680136141
 31
0.0
  0
LINE
  5
722
330
2
100
AcDbEntity
  8
0
100
AcDbLine
 10
389.3946852815843
 20
95.05686680136141
 30
0.0
 11
389.3946852815843
 21
93.88645680136141
 31
0.0
  0
LINE
  5
723
330
2
100
AcDbEntity
  8
0
100
AcDbLine
 10
386.2071852815843
 20
93.06467680136142
 30
0.0
 11
386.2071852815843
 21
95.05686680136141
 31
0.0
  0
LINE
  5
724
330
2
100
AcDbEntity
  8
0
100
AcDbLine
 10
390.9634872815843
 20
90.96020680136144
 30
0.0
 11
393.4181842815843
 21
90.96020680136144
 31
0.0
  0
LINE
  5
725
330
2
100
AcDbEntity
  8
0
100
AcDbLine
 10
390.9634872815843
 20
93.88645680136141
 30
0.0
 11
393.9383862815843
 21
93.88451680136142
 31
0.0
  0
LINE
  5
726
330
2
100
AcDbEntity
  8
0
100
AcDbLine
 10
390.9634872815843
 20
93.88645680136141
 30
0.0
 11
390.9634872815843
 21
90.96020680136144
 31
0.0
  0
LINE
  5
727
330
2
100
AcDbEntity
  8
0
100
AcDbLine
 10
409.1201792815843
 20
155.4943678013614
 30
0.0
 11
406.5196702815843
 21
155.4943678013614
 31
0.0
  0
ARC
  5
728
330
2
100
AcDbEntity
  8
0
100
AcDbCircle
 10
383.0196852815843
 20
121.4943658013614
 30
0.0
 40
7.5
100
AcDbArc
 50
199.4712069999998
 51
160.5287930000001
  0
LINE
  5
729
330
2
100
AcDbEntity
  8
0
100
AcDbLine
 10
373.5196852815843
 20
118.9943668013614
 30
0.0
 11
378.5196852815843
 21
118.9943668013614
 31
0.0
  0
LINE
  5
72A
330
2
100
AcDbEntity
  8
0
100
AcDbLine
 10
373.5196852815843
 20
123.9943658013614
 30
0.0
 11
378.5196852815843
 21
123.9943658013614
 31
0.0
  0
LINE
  5
72B
330
2
100
AcDbEntity
  8
0
100
AcDbLine
 10
355.9847882815843
 20
153.0224668013614
 30
0.0
 11
383.0196852815843
 21
153.4943678013614
 31
0.0
  0
LINE
  5
72C
330
2
100
AcDbEntity
  8
CENTER
100
AcDbLine
 10
359.3888872860858
 20
121.4943658013614
 30
0.0
 11
406.6504832770828
 21
121.4943658013614
 31
0.0
  0
LINE
  5
72D
330
2
100
AcDbEntity
  8
0
100
AcDbLine
 10
373.5196852815843
 20
118.9943668013614
 30
0.0
 11
373.5196852815843
 21
123.9943658013614
 31
0.0
  0
LINE
  5
72E
330
2
100
AcDbEntity
  8
0
100
AcDbLine
 10
354.0196852815843
 20
151.0227678013613
 30
0.0
 11
354.0196852815843
 21
142.9036658013614
 31
0.0
  0
ARC
  5
72F
330
2
100
AcDbEntity
  8
0
100
AcDbCircle
 10
356.9191752815842
 20
148.4943678013614
 30
0.0
 40
7.0
100
AcDbArc
 50
90.0
 51
135.0001979999998
  0
ARC
  5
730
330
2
100
AcDbEntity
  8
0
100
AcDbCircle
 10
356.0196852815843
 20
151.0227678013613
 30
0.0
 40
2.0
100
AcDbArc
 50
90.99980900000012
 51
180.0
  0
LINE
  5
731
330
2
100
AcDbEntity
  8
0
100
AcDbLine
 10
378.5196852815843
 20
123.9943658013614
 30
0.0
 11
378.5196852815843
 21
118.9943668013614
 31
0.0
  0
LINE
  5
732
330
2
100
AcDbEntity
  8
0
100
AcDbLine
 10
410.0545972815842
 20
153.0224668013614
 30
0.0
 11
383.0196852815843
 21
153.4943678013614
 31
0.0
  0
LINE
  5
733
330
2
100
AcDbEntity
  8
0
100
AcDbLine
 10
430.0196852815842
 20
82.3938468013614
 30
0.0
 11
430.0196852815842
 21
134.5948658013614
 31
0.0
  0
LINE
  5
734
330
2
100
AcDbEntity
  8
0
100
AcDbLine
 10
423.0196852815842
 20
122.8557668013614
 30
0.0
 11
423.0196852815842
 21
94.13322680136145
 31
0.0
  0
ARC
  5
735
330
2
100
AcDbEntity
  8
0
100
AcDbCircle
 10
383.0196852815843
 20
108.4943668013614
 30
0.0
 40
45.0
100
AcDbArc
 50
321.0575900000001
 51
49.87591200000022
  0
LINE
  5
736
330
2
100
AcDbEntity
  8
0
100
AcDbLine
 10
427.9694842815843
 20
77.44411680136142
 30
0.0
 11
424.4338702815842
 21
73.90854680136141
 31
0.0
  0
ARC
  5
737
330
2
100
AcDbEntity
  8
0
100
AcDbCircle
 10
423.0196852815842
 20
82.39382780136145
 30
0.0
 40
7.0
100
AcDbArc
 50
315.0004309999999
 51
0.0
  0
ARC
  5
738
330
2
100
AcDbEntity
  8
0
100
AcDbCircle
 10
423.0196852815842
 20
134.5948658013614
 30
0.0
 40
7.0
100
AcDbArc
 50
0.0
 51
45.00014099999998
  0
LINE
  5
739
330
2
100
AcDbEntity
  8
0
100
AcDbLine
 10
427.9693922815842
 20
139.5445658013614
 30
0.0
 11
414.0699782815842
 21
153.4440668013614
 31
0.0
  0
LINE
  5
73A
330
2
100
AcDbEntity
  8
0
100
AcDbLine
 10
412.0196852815842
 20
151.0227678013613
 30
0.0
 11
412.0196852815842
 21
142.9036658013614
 31
0.0
  0
TEXT
  5
73B
330
2
100
AcDbEntity
  8
TITLE
100
AcDbText
 10
404.3850883919324
 20
315.586067536713
 30
0.0
 40
5.0
  1
GLMN-15-5~60-S60WK
100
AcDbText
  0
TEXT
  5
73C
330
2
100
AcDbEntity
  8
TITLE
100
AcDbText
 10
283.7624579433999
 20
298.4432103938559
 30
0.0
 40
5.0
  1
GLMN-15-5~30-T90WK
100
AcDbText
  0
TEXT
  5
73D
330
2
100
AcDbEntity
  8
TITLE
100
AcDbText
 10
404.4851024177632
 20
298.2995182914856
 30
0.0
 40
5.0
  1
GLMN-15-5~30-S90WK
100
AcDbText
  0
TEXT
  5
73E
330
2
100
AcDbEntity
  8
TITLE
100
AcDbText
 10
283.7652608880945
 20
349.8717818224274
 30
0.0
 40
5.0
  1
GLMN-15-160~240-T25WK
100
AcDbText
  0
TEXT
  5
73F
330
2
100
AcDbEntity
  8
TITLE
100
AcDbText
 10
404.3850883919324
 20
349.8717818224274
 30
0.0
 40
5.0
  1
GLMN-15-160~240-S25WK
100
AcDbText
  0
TEXT
  5
740
330
2
100
AcDbEntity
  8
TITLE
100
AcDbText
 10
283.7652608880945
 20
332.7289246795702
 30
0.0
 40
5.0
  1
GLMN-15-80~120-T40WK
100
AcDbText
  0
TEXT
  5
741
330
2
100
AcDbEntity
  8
TITLE
100
AcDbText
 10
404.3850883919324
 20
332.7289246795702
 30
0.0
 40
5.0
  1
GLMN-15-80~120-S40WK
100
AcDbText
  0
LINE
  5
1445
330
2
100
AcDbEntity
  8
0
100
AcDbLine
 10
408.0196702815843
 20
198.9943828013613
 30
0.0
 11
408.0196702815843
 21
156.9943678013613
 31
0.0
  0
LINE
  5
1447
330
2
100
AcDbEntity
  8
0
100
AcDbLine
 10
358.0196852815843
 20
198.9943828013613
 30
0.0
 11
358.0196852815843
 21
156.9943678013613
 31
0.0
  0
LINE
  5
1448
330
2
100
AcDbEntity
  8
0
100
AcDbLine
 10
148.0850369571587
 20
198.9943828013614
 30
0.0
 11
148.0850369571587
 21
156.9943678013614
 31
0.0
  0
LINE
  5
1449
330
2
100
AcDbEntity
  8
0
100
AcDbLine
 10
98.08502995715878
 20
198.9943828013614
 30
0.0
 11
98.08502995715878
 21
156.9943678013614
 31
0.0
  0
LINE
  5
144A
330
2
100
AcDbEntity
  8
CENTER
100
AcDbLine
 10
123.0850369571587
 20
148.6048718013614
 30
0.0
 11
123.0850369571587
 21
205.3818828013613
 31
0.0
  0
LINE
  5
144D
330
2
100
AcDbEntity
  8
CENTER
100
AcDbLine
 10
93.04142997595022
 20
182.9943678013614
 30
0.0
 11
153.1286439383673
 21
182.9943678013614
 31
0.0
  0
LINE
  5
144E
330
2
100
AcDbEntity
  8
0
100
AcDbLine
 10
98.08502995715878
 20
167.9943678013613
 30
0.0
 11
148.0850369571587
 21
167.9943678013613
 31
0.0
  0
LINE
  5
144F
330
2
100
AcDbEntity
  8
0
100
AcDbLine
 10
98.08502995715878
 20
156.9943678013614
 30
0.0
 11
148.0850369571587
 21
156.9943678013614
 31
0.0
  0
LINE
  5
1450
330
2
100
AcDbEntity
  8
0
100
AcDbLine
 10
98.08502995715878
 20
166.9943678013613
 30
0.0
 11
148.0850369571587
 21
166.9943678013613
 31
0.0
  0
LINE
  5
1451
330
2
100
AcDbEntity
  8
0
100
AcDbLine
 10
99.58502995715878
 20
154.9943678013614
 30
0.0
 11
146.0850369571587
 21
154.9943678013614
 31
0.0
  0
LINE
  5
1453
330
2
100
AcDbEntity
  8
0
100
AcDbLine
 10
99.58502995715878
 20
154.9943678013614
 30
0.0
 11
99.58502995715878
 21
153.4943678013614
 31
0.0
  0
LINE
  5
1454
330
2
100
AcDbEntity
  8
0
100
AcDbLine
 10
98.08502995715878
 20
156.9943678013614
 30
0.0
 11
100.0850299571587
 21
154.9943678013614
 31
0.0
  0
LINE
  5
1455
330
2
100
AcDbEntity
  8
0
100
AcDbLine
 10
97.21002995715878
 20
172.4943678013613
 30
0.0
 11
99.21002995715879
 21
172.4943678013613
 31
0.0
  0
LINE
  5
1456
330
2
100
AcDbEntity
  8
0
100
AcDbLine
 10
146.0850369571587
 20
154.9943678013614
 30
0.0
 11
148.0850369571587
 21
156.9943678013614
 31
0.0
  0
LINE
  5
1457
330
2
100
AcDbEntity
  8
0
100
AcDbLine
 10
145.5850369571587
 20
154.9943678013614
 30
0.0
 11
145.5850369571587
 21
153.4943678013614
 31
0.0
  0
LINE
  5
1458
330
2
100
AcDbEntity
  8
CENTER
100
AcDbLine
 10
352.9760783003757
 20
182.9943678013613
 30
0.0
 11
413.0632922627929
 21
182.9943678013613
 31
0.0
  0
LINE
  5
1459
330
2
100
AcDbEntity
  8
0
100
AcDbLine
 10
358.0196852815843
 20
167.9943678013613
 30
0.0
 11
408.0196702815843
 21
167.9943678013613
 31
0.0
  0
LINE
  5
145A
330
2
100
AcDbEntity
  8
0
100
AcDbLine
 10
358.0196852815843
 20
156.9943678013613
 30
0.0
 11
408.0196702815843
 21
156.9943678013613
 31
0.0
  0
LINE
  5
145B
330
2
100
AcDbEntity
  8
0
100
AcDbLine
 10
358.0196852815843
 20
166.9943678013613
 30
0.0
 11
408.0196702815843
 21
166.9943678013613
 31
0.0
  0
LINE
  5
145D
330
2
100
AcDbEntity
  8
0
100
AcDbLine
 10
360.0196852815843
 20
154.9943678013613
 30
0.0
 11
406.0196702815843
 21
154.9943678013613
 31
0.0
  0
LINE
  5
145E
330
2
100
AcDbEntity
  8
0
100
AcDbLine
 10
358.0196852815843
 20
156.9943678013613
 30
0.0
 11
360.0196852815843
 21
154.9943678013613
 31
0.0
  0
LINE
  5
145F
330
2
100
AcDbEntity
  8
0
100
AcDbLine
 10
360.5196852815843
 20
154.9943678013613
 30
0.0
 11
360.5196852815843
 21
153.1016245813669
 31
0.0
  0
LINE
  5
1460
330
2
100
AcDbEntity
  8
0
100
AcDbLine
 10
405.5196702815843
 20
154.9943678013613
 30
0.0
 11
405.5196702815844
 21
153.1016250611044
 31
0.0
  0
LINE
  5
1461
330
2
100
AcDbEntity
  8
0
100
AcDbLine
 10
406.0196702815843
 20
154.9943678013613
 30
0.0
 11
408.0196702815843
 21
156.9943678013613
 31
0.0
  0
LINE
  5
1463
330
2
100
AcDbEntity
  8
0
100
AcDbLine
 10
146.0848389571587
 20
351.5931325611602
 30
0.0
 11
146.0848389571587
 21
316.5931325611602
 31
0.0
  0
LINE
  5
1464
330
2
100
AcDbEntity
  8
0
100
AcDbLine
 10
148.0850369571587
 20
357.0931325611602
 30
0.0
 11
148.0848389571588
 21
311.0931325611602
 31
0.0
  0
LINE
  5
1465
330
2
100
AcDbEntity
  8
CENTER
100
AcDbLine
 10
123.0850369571587
 20
304.0495255799517
 30
0.0
 11
123.0850369571587
 21
364.1367395423687
 31
0.0
  0
LINE
  5
1466
330
2
100
AcDbEntity
  8
0
100
AcDbLine
 10
100.0849299571588
 20
351.5931325611602
 30
0.0
 11
100.0849299571588
 21
316.5931325611602
 31
0.0
  0
LINE
  5
1467
330
2
100
AcDbEntity
  8
0
100
AcDbLine
 10
98.0849299571588
 20
311.0931325611602
 30
0.0
 11
98.0849299571588
 21
357.0931325611602
 31
0.0
  0
LINE
  5
1468
330
2
100
AcDbEntity
  8
0
100
AcDbLine
 10
100.0849299571588
 20
309.0931325611602
 30
0.0
 11
146.0848389571587
 21
309.0931325611602
 31
0.0
  0
LINE
  5
1469
330
2
100
AcDbEntity
  8
0
100
AcDbLine
 10
140.5848389571588
 20
311.0931325611602
 30
0.0
 11
105.5849299571588
 21
311.0931325611602
 31
0.0
  0
LINE
  5
146A
330
2
100
AcDbEntity
  8
0
100
AcDbLine
 10
105.5850369571587
 20
198.9943828013614
 30
0.0
 11
140.5850369571587
 21
198.9943828013614
 31
0.0
  0
LINE
  5
146B
330
2
100
AcDbEntity
  8
0
100
AcDbLine
 10
102.9229457731853
 20
199.9943828013613
 30
0.0
 11
143.2471281411324
 21
199.9943828013614
 31
0.0
  0
LINE
  5
146D
330
2
100
AcDbEntity
  8
0
100
AcDbLine
 10
105.5850369571587
 20
197.4943828013614
 30
0.0
 11
98.08503695715877
 21
197.4943828013614
 31
0.0
  0
LINE
  5
146E
330
2
100
AcDbEntity
  8
0
100
AcDbLine
 10
105.5850369571587
 20
199.4943828013614
 30
0.0
 11
104.5300143467791
 21
199.4943828013614
 31
0.0
  0
ARC
  5
146F
330
2
100
AcDbEntity
  8
0
100
AcDbCircle
 10
103.6920477107516
 20
198.5004955256078
 30
0.0
 40
1.3
100
AcDbArc
 50
5.000000000000026
 51
74.1191499917157
  0
LINE
  5
1470
330
2
100
AcDbEntity
  8
0
100
AcDbLine
 10
105.0850369571587
 20
197.4943828013614
 30
0.0
 11
104.9871008182708
 21
198.6137979911797
 31
0.0
  0
LINE
  5
1471
330
2
100
AcDbEntity
  8
0
100
AcDbLine
 10
98.08503695715877
 20
197.4943828013614
 30
0.0
 11
98.18297309604668
 21
198.6137979911797
 31
0.0
  0
LINE
  5
1472
330
2
100
AcDbEntity
  8
0
100
AcDbLine
 10
97.21002995715878
 20
193.4943678013613
 30
0.0
 11
99.21002995715879
 21
193.4943678013613
 31
0.0
  0
SPLINE
  5
1473
330
2
100
AcDbEntity
  8
0
100
AcDbSpline
210
0.0
220
0.0
230
1.0
 70
     8
 71
     3
 72
    11
 73
     7
 74
     0
 42
0.0000000001
 43
0.0000000001
 40
0.0
 40
0.0
 40
0.0
 40
0.0
 40
0.4601364636755307
 40
1.04988694485363
 40
1.713742833862792
 40
2.320347933405154
 40
2.320347933405154
 40
2.320347933405154
 40
2.320347933405179
 10
101.8725369576137
 20
198.5773828013614
 30
0.0
 10
101.8949546147216
 20
198.7324062410413
 30
0.0
 10
101.9461046699548
 20
199.0861210589588
 30
0.0
 10
102.3819898314884
 20
199.5108487305605
 30
0.0
 10
102.9870405464959
 20
199.7300359105263
 30
0.0
 10
103.4122251706717
 20
199.6610446109157
 30
0.0
 10
103.6147767803228
 20
199.6468243387391
 30
0.0
  0
LINE
  5
1474
330
2
100
AcDbEntity
  8
0
100
AcDbLine
 10
103.6147767803228
 20
199.6468243387391
 30
0.0
 11
103.6350369571587
 21
199.8578010842006
 31
0.0
  0
LINE
  5
1475
330
2
100
AcDbEntity
  8
0
100
AcDbLine
 10
101.2975369567036
 20
198.5773828013614
 30
0.0
 11
101.8725369576137
 21
198.5773828013614
 31
0.0
  0
LINE
  5
1476
330
2
100
AcDbEntity
  8
0
100
AcDbLine
 10
100.2471281411323
 20
199.9943828013614
 30
0.0
 11
99.08503695715877
 21
199.9943828013614
 31
0.0
  0
ARC
  5
1477
330
2
100
AcDbEntity
  8
0
100
AcDbCircle
 10
99.47802620356583
 20
198.5004955256078
 30
0.0
 40
1.3
100
AcDbArc
 50
105.8808500082775
 51
174.9999999999999
  0
LINE
  5
1478
330
2
100
AcDbEntity
  8
0
100
AcDbLine
 10
99.5552971339946
 20
199.6468243387391
 30
0.0
 11
99.5350369571587
 21
199.8578010842006
 31
0.0
  0
LINE
  5
1479
330
2
100
AcDbEntity
  8
0
100
AcDbLine
 10
99.08503695715877
 20
199.9943828013614
 30
0.0
 11
98.08503695715877
 21
198.9943828013614
 31
0.0
  0
ARC
  5
147A
330
2
100
AcDbEntity
  8
0
100
AcDbCircle
 10
101.5850369571587
 20
191.0943828013614
 30
0.0
 40
9.0
100
AcDbArc
 50
74.1191499917157
 51
105.8808500082775
  0
SPLINE
  5
147B
330
2
100
AcDbEntity
  8
0
100
AcDbSpline
210
0.0
220
0.0
230
1.0
 70
     8
 71
     3
 72
    11
 73
     7
 74
     0
 42
0.0000000001
 43
0.0000000001
 40
0.0
 40
0.0
 40
0.0
 40
0.0
 40
0.4601364636755307
 40
1.04988694485363
 40
1.713742833862792
 40
2.320347933405154
 40
2.320347933405154
 40
2.320347933405154
 40
2.320347933405179
 10
101.2975369567036
 20
198.5773828013614
 30
0.0
 10
101.2751192995958
 20
198.7324062410413
 30
0.0
 10
101.2239692443624
 20
199.0861210589588
 30
0.0
 10
100.7880840828289
 20
199.5108487305605
 30
0.0
 10
100.1830333678215
 20
199.7300359105263
 30
0.0
 10
99.7578487436457
 20
199.6610446109157
 30
0.0
 10
99.5552971339946
 20
199.6468243387391
 30
0.0
  0
LINE
  5
147C
330
2
100
AcDbEntity
  8
0
100
AcDbLine
 10
105.5850369571587
 20
197.4943828013614
 30
0.0
 11
105.5850369571587
 21
199.4943828013614
 31
0.0
  0
LINE
  5
147D
330
2
100
AcDbEntity
  8
0
100
AcDbLine
 10
106.0850369571587
 20
199.9943828013614
 30
0.0
 11
105.5850369571587
 21
199.4943828013614
 31
0.0
  0
ARC
  5
147E
330
2
100
AcDbEntity
  8
0
100
AcDbCircle
 10
101.5849299571587
 20
312.5930405611602
 30
0.0
 40
4.0
100
AcDbArc
 50
0.0
 51
90.0
  0
CIRCLE
  5
147F
330
2
100
AcDbEntity
  8
0
100
AcDbCircle
 10
101.5849299571587
 20
312.5930405611602
 30
0.0
 40
3.500000000000028
  0
ARC
  5
1480
330
2
100
AcDbEntity
  8
0
100
AcDbCircle
 10
103.6146299571587
 20
314.6227405611601
 30
0.0
 40
1.742199999999999
100
AcDbArc
 50
179.9986903345002
 51
270.0013096654997
  0
ARC
  5
1481
330
2
100
AcDbEntity
  8
0
100
AcDbCircle
 10
101.5849299571587
 20
312.5930405611602
 30
0.0
 40
2.049999999999998
100
AcDbArc
 50
0.0
 51
8.061960083981649
  0
ARC
  5
1482
330
2
100
AcDbEntity
  8
0
100
AcDbCircle
 10
101.5849299571587
 20
312.5930405611602
 30
0.0
 40
2.049999999999998
100
AcDbArc
 50
90.0
 51
98.06196008398188
  0
ARC
  5
1483
330
2
100
AcDbEntity
  8
0
100
AcDbCircle
 10
101.5849299571587
 20
312.5930405611602
 30
0.0
 40
2.049999999999998
100
AcDbArc
 50
81.93803991601813
 51
90.0
  0
ARC
  5
1484
330
2
100
AcDbEntity
  8
0
100
AcDbCircle
 10
103.6146299571587
 20
310.5633405611602
 30
0.0
 40
1.742199999999999
100
AcDbArc
 50
89.99869033450025
 51
180.0013096654997
  0
ARC
  5
1485
330
2
100
AcDbEntity
  8
0
100
AcDbCircle
 10
101.5849299571587
 20
312.5930405611602
 30
0.0
 40
2.049999999999998
100
AcDbArc
 50
351.9380399160183
 51
0.0
  0
ARC
  5
1486
330
2
100
AcDbEntity
  8
0
100
AcDbCircle
 10
101.5849299571587
 20
312.5930405611602
 30
0.0
 40
2.049999999999998
100
AcDbArc
 50
261.9380399160181
 51
270.0
  0
ARC
  5
1487
330
2
100
AcDbEntity
  8
0
100
AcDbCircle
 10
101.5849299571587
 20
312.5930405611602
 30
0.0
 40
2.049999999999998
100
AcDbArc
 50
270.0
 51
278.0619600839818
  0
ARC
  5
1488
330
2
100
AcDbEntity
  8
0
100
AcDbCircle
 10
101.5849299571587
 20
312.5930405611602
 30
0.0
 40
2.049999999999998
100
AcDbArc
 50
171.9380399160183
 51
180.0
  0
LINE
  5
1489
330
2
100
AcDbEntity
  8
0
100
AcDbLine
 10
98.0849299571588
 20
311.0931325611602
 30
0.0
 11
100.0849299571588
 21
309.0931325611602
 31
0.0
  0
ARC
  5
148A
330
2
100
AcDbEntity
  8
0
100
AcDbCircle
 10
101.5849299571587
 20
312.5930405611602
 30
0.0
 40
2.049999999999998
100
AcDbArc
 50
180.0
 51
188.0619600839816
  0
ARC
  5
148B
330
2
100
AcDbEntity
  8
0
100
AcDbCircle
 10
99.55522995715865
 20
314.6227405611601
 30
0.0
 40
1.742199999999999
100
AcDbArc
 50
269.9986903345067
 51
0.0013096654997424
  0
ARC
  5
148C
330
2
100
AcDbEntity
  8
0
100
AcDbCircle
 10
99.55522995715865
 20
310.5633405611602
 30
0.0
 40
1.742199999999999
100
AcDbArc
 50
359.9986903345002
 51
90.00130966549322
  0
LINE
  5
148D
330
2
100
AcDbEntity
  8
0
100
AcDbLine
 10
101.5849299571587
 20
316.5931325611602
 30
0.0
 11
98.0849299571588
 21
316.5931325611602
 31
0.0
  0
LINE
  5
148E
330
2
100
AcDbEntity
  8
0
100
AcDbLine
 10
105.5849299571588
 20
312.5930405611602
 30
0.0
 11
105.5849299571588
 21
309.0931325611602
 31
0.0
  0
LINE
  5
148F
330
2
100
AcDbEntity
  8
0
100
AcDbLine
 10
148.0850369571587
 20
197.4943828013614
 30
0.0
 11
147.9871008182709
 21
198.6137979911797
 31
0.0
  0
LINE
  5
1490
330
2
100
AcDbEntity
  8
0
100
AcDbLine
 10
140.5850369571587
 20
197.4943828013614
 30
0.0
 11
140.5850369571587
 21
199.4943828013614
 31
0.0
  0
LINE
  5
1491
330
2
100
AcDbEntity
  8
0
100
AcDbLine
 10
141.0850369571588
 20
197.4943828013614
 30
0.0
 11
141.1829730960466
 21
198.6137979911797
 31
0.0
  0
LINE
  5
1492
330
2
100
AcDbEntity
  8
0
100
AcDbLine
 10
140.5850369571587
 20
197.4943828013614
 30
0.0
 11
148.0850369571587
 21
197.4943828013614
 31
0.0
  0
LINE
  5
1493
330
2
100
AcDbEntity
  8
0
100
AcDbLine
 10
147.0850369571587
 20
199.9943828013614
 30
0.0
 11
148.0850369571587
 21
198.9943828013614
 31
0.0
  0
ARC
  5
1494
330
2
100
AcDbEntity
  8
0
100
AcDbCircle
 10
146.6920477107517
 20
198.5004955256078
 30
0.0
 40
1.3
100
AcDbArc
 50
5.000000000000026
 51
74.1191499917157
  0
SPLINE
  5
1495
330
2
100
AcDbEntity
  8
0
100
AcDbSpline
210
0.0
220
0.0
230
1.0
 70
     8
 71
     3
 72
    11
 73
     7
 74
     0
 42
0.0000000001
 43
0.0000000001
 40
0.0
 40
0.0
 40
0.0
 40
0.0
 40
0.4601364636755307
 40
1.04988694485363
 40
1.713742833862792
 40
2.320347933405154
 40
2.320347933405154
 40
2.320347933405154
 40
2.320347933405179
 10
144.8725369576138
 20
198.5773828013614
 30
0.0
 10
144.8949546147217
 20
198.7324062410413
 30
0.0
 10
144.946104669955
 20
199.0861210589588
 30
0.0
 10
145.3819898314886
 20
199.5108487305605
 30
0.0
 10
145.987040546496
 20
199.7300359105263
 30
0.0
 10
146.4122251706719
 20
199.6610446109157
 30
0.0
 10
146.6147767803229
 20
199.6468243387391
 30
0.0
  0
LINE
  5
1496
330
2
100
AcDbEntity
  8
0
100
AcDbLine
 10
144.8725369576138
 20
198.5773828013614
 30
0.0
 11
144.2975369567038
 21
198.5773828013614
 31
0.0
  0
LINE
  5
1497
330
2
100
AcDbEntity
  8
0
100
AcDbLine
 10
146.6147767803229
 20
199.6468243387391
 30
0.0
 11
146.6350369571589
 21
199.8578010842006
 31
0.0
  0
LINE
  5
1498
330
2
100
AcDbEntity
  8
0
100
AcDbLine
 10
145.9229457731853
 20
199.9943828013614
 30
0.0
 11
147.0850369571587
 21
199.9943828013614
 31
0.0
  0
LINE
  5
1499
330
2
100
AcDbEntity
  8
0
100
AcDbLine
 10
140.0850369571587
 20
199.9943828013614
 30
0.0
 11
140.5850369571587
 21
199.4943828013614
 31
0.0
  0
LINE
  5
149A
330
2
100
AcDbEntity
  8
0
100
AcDbLine
 10
140.5850369571587
 20
199.4943828013614
 30
0.0
 11
141.6400595675384
 21
199.4943828013614
 31
0.0
  0
ARC
  5
149B
330
2
100
AcDbEntity
  8
0
100
AcDbCircle
 10
142.4780262035658
 20
198.5004955256078
 30
0.0
 40
1.3
100
AcDbArc
 50
105.8808500082775
 51
174.9999999999999
  0
LINE
  5
149C
330
2
100
AcDbEntity
  8
0
100
AcDbLine
 10
142.5552971339948
 20
199.6468243387391
 30
0.0
 11
142.5350369571588
 21
199.8578010842006
 31
0.0
  0
SPLINE
  5
149D
330
2
100
AcDbEntity
  8
0
100
AcDbSpline
210
0.0
220
0.0
230
1.0
 70
     8
 71
     3
 72
    11
 73
     7
 74
     0
 42
0.0000000001
 43
0.0000000001
 40
0.0
 40
0.0
 40
0.0
 40
0.0
 40
0.4601364636755307
 40
1.04988694485363
 40
1.713742833862792
 40
2.320347933405154
 40
2.320347933405154
 40
2.320347933405154
 40
2.320347933405179
 10
144.2975369567038
 20
198.5773828013614
 30
0.0
 10
144.2751192995959
 20
198.7324062410413
 30
0.0
 10
144.2239692443627
 20
199.0861210589588
 30
0.0
 10
143.788084082829
 20
199.5108487305605
 30
0.0
 10
143.1830333678217
 20
199.7300359105263
 30
0.0
 10
142.7578487436458
 20
199.6610446109157
 30
0.0
 10
142.5552971339948
 20
199.6468243387391
 30
0.0
  0
ARC
  5
149E
330
2
100
AcDbEntity
  8
0
100
AcDbCircle
 10
144.5850369571588
 20
191.0943828013614
 30
0.0
 40
9.0
100
AcDbArc
 50
74.1191499917157
 51
105.8808500082775
  0
CIRCLE
  5
149F
330
2
100
AcDbEntity
  8
0
100
AcDbCircle
 10
144.5850369571587
 20
312.5930405611602
 30
0.0
 40
3.500000000000028
  0
ARC
  5
14A0
330
2
100
AcDbEntity
  8
0
100
AcDbCircle
 10
144.5850369571587
 20
312.5930405611602
 30
0.0
 40
4.0
100
AcDbArc
 50
90.0
 51
180.0
  0
LINE
  5
14A1
330
2
100
AcDbEntity
  8
0
100
AcDbLine
 10
146.0848389571587
 20
309.0931325611602
 30
0.0
 11
148.0848389571588
 21
311.0931325611602
 31
0.0
  0
LINE
  5
14A2
330
2
100
AcDbEntity
  8
0
100
AcDbLine
 10
148.0848389571588
 20
311.0931325611602
 30
0.0
 11
146.0848389571587
 21
309.0931325611602
 31
0.0
  0
ARC
  5
14A3
330
2
100
AcDbEntity
  8
0
100
AcDbCircle
 10
146.6147369571586
 20
314.6227405611601
 30
0.0
 40
1.742199999999999
100
AcDbArc
 50
179.9986903345002
 51
270.0013096654997
  0
ARC
  5
14A4
330
2
100
AcDbEntity
  8
0
100
AcDbCircle
 10
144.5850369571587
 20
312.5930405611602
 30
0.0
 40
2.049999999999998
100
AcDbArc
 50
0.0
 51
8.061960083981649
  0
ARC
  5
14A5
330
2
100
AcDbEntity
  8
0
100
AcDbCircle
 10
144.5850369571587
 20
312.5930405611602
 30
0.0
 40
2.049999999999998
100
AcDbArc
 50
90.0
 51
98.06196008398188
  0
ARC
  5
14A6
330
2
100
AcDbEntity
  8
0
100
AcDbCircle
 10
144.5850369571587
 20
312.5930405611602
 30
0.0
 40
2.049999999999998
100
AcDbArc
 50
81.93803991601813
 51
90.0
  0
ARC
  5
14A7
330
2
100
AcDbEntity
  8
0
100
AcDbCircle
 10
146.6147369571586
 20
310.5633405611602
 30
0.0
 40
1.742199999999999
100
AcDbArc
 50
89.99869033450025
 51
180.0013096654997
  0
ARC
  5
14A8
330
2
100
AcDbEntity
  8
0
100
AcDbCircle
 10
144.5850369571587
 20
312.5930405611602
 30
0.0
 40
2.049999999999998
100
AcDbArc
 50
351.9380399160183
 51
0.0
  0
ARC
  5
14A9
330
2
100
AcDbEntity
  8
0
100
AcDbCircle
 10
144.5850369571587
 20
312.5930405611602
 30
0.0
 40
2.049999999999998
100
AcDbArc
 50
261.9380399160181
 51
270.0
  0
ARC
  5
14AA
330
2
100
AcDbEntity
  8
0
100
AcDbCircle
 10
144.5850369571587
 20
312.5930405611602
 30
0.0
 40
2.049999999999998
100
AcDbArc
 50
270.0
 51
278.0619600839818
  0
ARC
  5
14AB
330
2
100
AcDbEntity
  8
0
100
AcDbCircle
 10
144.5850369571587
 20
312.5930405611602
 30
0.0
 40
2.049999999999998
100
AcDbArc
 50
171.9380399160183
 51
180.0
  0
ARC
  5
14AC
330
2
100
AcDbEntity
  8
0
100
AcDbCircle
 10
144.5850369571587
 20
312.5930405611602
 30
0.0
 40
2.049999999999998
100
AcDbArc
 50
180.0
 51
188.0619600839816
  0
LINE
  5
14AD
330
2
100
AcDbEntity
  8
0
100
AcDbLine
 10
140.5848389571588
 20
312.5930405611602
 30
0.0
 11
140.5848389571588
 21
309.0931325611602
 31
0.0
  0
ARC
  5
14AE
330
2
100
AcDbEntity
  8
0
100
AcDbCircle
 10
142.5553369571586
 20
314.6227405611601
 30
0.0
 40
1.742199999999999
100
AcDbArc
 50
269.9986903345067
 51
0.0013096654997424
  0
ARC
  5
14AF
330
2
100
AcDbEntity
  8
0
100
AcDbCircle
 10
142.5553369571586
 20
310.5633405611602
 30
0.0
 40
1.742199999999999
100
AcDbArc
 50
359.9986903345002
 51
90.00130966549322
  0
LINE
  5
14B0
330
2
100
AcDbEntity
  8
0
100
AcDbLine
 10
144.5848389571588
 20
316.5931325611602
 30
0.0
 11
148.0848389571588
 21
316.5931325611602
 31
0.0
  0
LINE
  5
14B2
330
2
100
AcDbEntity
  8
0
100
AcDbLine
 10
100.0849299571588
 20
359.0931325611602
 30
0.0
 11
146.0848389571587
 21
359.0931325611602
 31
0.0
  0
LINE
  5
14B3
330
2
100
AcDbEntity
  8
0
100
AcDbLine
 10
140.5848389571588
 20
357.0931325611602
 30
0.0
 11
105.5849299571588
 21
357.0931325611601
 31
0.0
  0
ARC
  5
14B4
330
2
100
AcDbEntity
  8
0
100
AcDbCircle
 10
101.5849299571587
 20
355.5931325611602
 30
0.0
 40
4.0
100
AcDbArc
 50
270.0
 51
0.0
  0
LINE
  5
14B5
330
2
100
AcDbEntity
  8
0
100
AcDbLine
 10
101.5849299571587
 20
351.5931325611602
 30
0.0
 11
98.0849299571588
 21
351.5931325611602
 31
0.0
  0
ARC
  5
14B6
330
2
100
AcDbEntity
  8
0
100
AcDbCircle
 10
101.5849299571587
 20
355.5931325611602
 30
0.0
 40
2.049999999999998
100
AcDbArc
 50
90.0
 51
98.06196008398188
  0
ARC
  5
14B7
330
2
100
AcDbEntity
  8
0
100
AcDbCircle
 10
101.5849299571587
 20
355.5931325611602
 30
0.0
 40
2.049999999999998
100
AcDbArc
 50
81.93803991601813
 51
90.0
  0
LINE
  5
14B8
330
2
100
AcDbEntity
  8
0
100
AcDbLine
 10
98.0849299571588
 20
357.0931325611602
 30
0.0
 11
100.0849299571588
 21
359.0931325611602
 31
0.0
  0
LINE
  5
14B9
330
2
100
AcDbEntity
  8
0
100
AcDbLine
 10
98.0849299571588
 20
357.0931325611602
 30
0.0
 11
100.0849299571588
 21
359.0931325611602
 31
0.0
  0
ARC
  5
14BA
330
2
100
AcDbEntity
  8
0
100
AcDbCircle
 10
103.6146299571587
 20
353.5634325611602
 30
0.0
 40
1.742199999999999
100
AcDbArc
 50
89.99869033450025
 51
180.0013096654997
  0
ARC
  5
14BB
330
2
100
AcDbEntity
  8
0
100
AcDbCircle
 10
101.5849299571587
 20
355.5931325611602
 30
0.0
 40
2.049999999999998
100
AcDbArc
 50
351.9380399160183
 51
0.0
  0
ARC
  5
14BC
330
2
100
AcDbEntity
  8
0
100
AcDbCircle
 10
101.5849299571587
 20
355.5931325611602
 30
0.0
 40
2.049999999999998
100
AcDbArc
 50
0.0
 51
8.061960083981649
  0
ARC
  5
14BD
330
2
100
AcDbEntity
  8
0
100
AcDbCircle
 10
101.5849299571587
 20
355.5931325611602
 30
0.0
 40
2.049999999999998
100
AcDbArc
 50
261.9380399160181
 51
270.0
  0
ARC
  5
14BE
330
2
100
AcDbEntity
  8
0
100
AcDbCircle
 10
101.5849299571587
 20
355.5931325611602
 30
0.0
 40
2.049999999999998
100
AcDbArc
 50
270.0
 51
278.0619600839818
  0
ARC
  5
14BF
330
2
100
AcDbEntity
  8
0
100
AcDbCircle
 10
101.5849299571587
 20
355.5931325611602
 30
0.0
 40
2.049999999999998
100
AcDbArc
 50
180.0
 51
188.0619600839816
  0
ARC
  5
14C0
330
2
100
AcDbEntity
  8
0
100
AcDbCircle
 10
101.5849299571587
 20
355.5931325611602
 30
0.0
 40
2.049999999999998
100
AcDbArc
 50
171.9380399160183
 51
180.0
  0
ARC
  5
14C1
330
2
100
AcDbEntity
  8
0
100
AcDbCircle
 10
99.55522995715865
 20
353.5634325611602
 30
0.0
 40
1.742199999999999
100
AcDbArc
 50
359.9986903345002
 51
90.00130966549322
  0
CIRCLE
  5
14C2
330
2
100
AcDbEntity
  8
0
100
AcDbCircle
 10
101.5849299571587
 20
355.5931325611602
 30
0.0
 40
3.500000000000028
  0
ARC
  5
14C3
330
2
100
AcDbEntity
  8
0
100
AcDbCircle
 10
99.55522995715865
 20
357.6228325611602
 30
0.0
 40
1.742199999999999
100
AcDbArc
 50
269.9986903345067
 51
0.0013096654997424
  0
ARC
  5
14C4
330
2
100
AcDbEntity
  8
0
100
AcDbCircle
 10
103.6146299571587
 20
357.6228325611602
 30
0.0
 40
1.742199999999999
100
AcDbArc
 50
179.9986903345002
 51
270.0013096654997
  0
LINE
  5
14C5
330
2
100
AcDbEntity
  8
0
100
AcDbLine
 10
105.5849299571588
 20
355.5931325611602
 30
0.0
 11
105.5849299571588
 21
359.0929485611602
 31
0.0
  0
ARC
  5
14C6
330
2
100
AcDbEntity
  8
0
100
AcDbCircle
 10
144.5850369571587
 20
355.5931325611602
 30
0.0
 40
4.0
100
AcDbArc
 50
180.0
 51
270.0
  0
LINE
  5
14C7
330
2
100
AcDbEntity
  8
0
100
AcDbLine
 10
144.5848389571588
 20
351.5931325611602
 30
0.0
 11
148.0848389571588
 21
351.5931325611602
 31
0.0
  0
LINE
  5
14C8
330
2
100
AcDbEntity
  8
0
100
AcDbLine
 10
148.0850369571587
 20
357.0931325611602
 30
0.0
 11
146.0848389571587
 21
359.0931325611602
 31
0.0
  0
LINE
  5
14C9
330
2
100
AcDbEntity
  8
0
100
AcDbLine
 10
148.0848389571588
 20
357.0931325611602
 30
0.0
 11
146.0848389571587
 21
359.0931325611602
 31
0.0
  0
LINE
  5
14CA
330
2
100
AcDbEntity
  8
0
100
AcDbLine
 10
148.0848389571588
 20
357.0931325611602
 30
0.0
 11
146.0848389571587
 21
359.0931325611602
 31
0.0
  0
CIRCLE
  5
14CB
330
2
100
AcDbEntity
  8
0
100
AcDbCircle
 10
144.5850369571587
 20
355.5931325611602
 30
0.0
 40
3.500000000000028
  0
ARC
  5
14CC
330
2
100
AcDbEntity
  8
0
100
AcDbCircle
 10
144.5850369571587
 20
355.5931325611602
 30
0.0
 40
2.049999999999998
100
AcDbArc
 50
90.0
 51
98.06196008398188
  0
ARC
  5
14CD
330
2
100
AcDbEntity
  8
0
100
AcDbCircle
 10
144.5850369571587
 20
355.5931325611602
 30
0.0
 40
2.049999999999998
100
AcDbArc
 50
81.93803991601813
 51
90.0
  0
ARC
  5
14CE
330
2
100
AcDbEntity
  8
0
100
AcDbCircle
 10
146.6147369571586
 20
353.5634325611602
 30
0.0
 40
1.742199999999999
100
AcDbArc
 50
89.99869033450025
 51
180.0013096654997
  0
ARC
  5
14CF
330
2
100
AcDbEntity
  8
0
100
AcDbCircle
 10
144.5850369571587
 20
355.5931325611602
 30
0.0
 40
2.049999999999998
100
AcDbArc
 50
351.9380399160183
 51
0.0
  0
ARC
  5
14D0
330
2
100
AcDbEntity
  8
0
100
AcDbCircle
 10
144.5850369571587
 20
355.5931325611602
 30
0.0
 40
2.049999999999998
100
AcDbArc
 50
0.0
 51
8.061960083981649
  0
ARC
  5
14D1
330
2
100
AcDbEntity
  8
0
100
AcDbCircle
 10
144.5850369571587
 20
355.5931325611602
 30
0.0
 40
2.049999999999998
100
AcDbArc
 50
261.9380399160181
 51
270.0
  0
ARC
  5
14D2
330
2
100
AcDbEntity
  8
0
100
AcDbCircle
 10
144.5850369571587
 20
355.5931325611602
 30
0.0
 40
2.049999999999998
100
AcDbArc
 50
270.0
 51
278.0619600839818
  0
ARC
  5
14D3
330
2
100
AcDbEntity
  8
0
100
AcDbCircle
 10
146.6147369571586
 20
357.6228325611602
 30
0.0
 40
1.742199999999999
100
AcDbArc
 50
179.9986903345002
 51
270.0013096654997
  0
ARC
  5
14D4
330
2
100
AcDbEntity
  8
0
100
AcDbCircle
 10
144.5850369571587
 20
355.5931325611602
 30
0.0
 40
2.049999999999998
100
AcDbArc
 50
180.0
 51
188.0619600839816
  0
ARC
  5
14D5
330
2
100
AcDbEntity
  8
0
100
AcDbCircle
 10
144.5850369571587
 20
355.5931325611602
 30
0.0
 40
2.049999999999998
100
AcDbArc
 50
171.9380399160183
 51
180.0
  0
LINE
  5
14D6
330
2
100
AcDbEntity
  8
0
100
AcDbLine
 10
140.5848389571588
 20
355.5931325611602
 30
0.0
 11
140.5848389571588
 21
359.0929485611602
 31
0.0
  0
ARC
  5
14D7
330
2
100
AcDbEntity
  8
0
100
AcDbCircle
 10
142.5553369571586
 20
357.6228325611602
 30
0.0
 40
1.742199999999999
100
AcDbArc
 50
269.9986903345067
 51
0.0013096654997424
  0
ARC
  5
14D8
330
2
100
AcDbEntity
  8
0
100
AcDbCircle
 10
142.5553369571586
 20
353.5634325611602
 30
0.0
 40
1.742199999999999
100
AcDbArc
 50
359.9986903345002
 51
90.00130966549322
  0
LINE
  5
14D9
330
2
100
AcDbEntity
  8
0
100
AcDbLine
 10
365.5196852815843
 20
198.9943828013613
 30
0.0
 11
400.5196852815843
 21
198.9943828013613
 31
0.0
  0
LINE
  5
14DA
330
2
100
AcDbEntity
  8
0
100
AcDbLine
 10
362.8575940976111
 20
199.9943828013613
 30
0.0
 11
403.1817764655575
 21
199.9943828013613
 31
0.0
  0
LINE
  5
14DB
330
2
100
AcDbEntity
  8
0
100
AcDbLine
 10
365.5196852815843
 20
197.4943828013614
 30
0.0
 11
365.5196852815843
 21
199.4943828013614
 31
0.0
  0
LINE
  5
14DC
330
2
100
AcDbEntity
  8
0
100
AcDbLine
 10
365.0196852815842
 20
197.4943828013614
 30
0.0
 11
364.9217491426964
 21
198.6137979911797
 31
0.0
  0
LINE
  5
14DD
330
2
100
AcDbEntity
  8
0
100
AcDbLine
 10
358.0196852815843
 20
197.4943828013614
 30
0.0
 11
358.1176214204721
 21
198.6137979911797
 31
0.0
  0
LINE
  5
14DE
330
2
100
AcDbEntity
  8
0
100
AcDbLine
 10
365.5196852815843
 20
197.4943828013614
 30
0.0
 11
358.0196852815843
 21
197.4943828013614
 31
0.0
  0
ARC
  5
14DF
330
2
100
AcDbEntity
  8
0
100
AcDbCircle
 10
359.4126745279913
 20
198.5004955256078
 30
0.0
 40
1.3
100
AcDbArc
 50
105.8808500082775
 51
174.9999999999999
  0
LINE
  5
14E0
330
2
100
AcDbEntity
  8
0
100
AcDbLine
 10
360.1817764655577
 20
199.9943828013614
 30
0.0
 11
359.0196852815843
 21
199.9943828013614
 31
0.0
  0
LINE
  5
14E1
330
2
100
AcDbEntity
  8
0
100
AcDbLine
 10
359.0196852815843
 20
199.9943828013614
 30
0.0
 11
358.0196852815843
 21
198.9943828013614
 31
0.0
  0
ARC
  5
14E2
330
2
100
AcDbEntity
  8
0
100
AcDbCircle
 10
363.6266960351772
 20
198.5004955256078
 30
0.0
 40
1.3
100
AcDbArc
 50
5.000000000000026
 51
74.1191499917157
  0
LINE
  5
14E3
330
2
100
AcDbEntity
  8
0
100
AcDbLine
 10
365.5196852815843
 20
199.4943828013614
 30
0.0
 11
364.4646626712046
 21
199.4943828013614
 31
0.0
  0
LINE
  5
14E4
330
2
100
AcDbEntity
  8
0
100
AcDbLine
 10
363.5494251047483
 20
199.6468243387391
 30
0.0
 11
363.5696852815842
 21
199.8578010842006
 31
0.0
  0
LINE
  5
14E5
330
2
100
AcDbEntity
  8
0
100
AcDbLine
 10
366.0196852815843
 20
199.9943828013614
 30
0.0
 11
365.5196852815843
 21
199.4943828013614
 31
0.0
  0
SPLINE
  5
14E6
330
2
100
AcDbEntity
  8
0
100
AcDbSpline
210
0.0
220
0.0
230
1.0
 70
     8
 71
     3
 72
    11
 73
     7
 74
     0
 42
0.0000000001
 43
0.0000000001
 40
0.0
 40
0.0
 40
0.0
 40
0.0
 40
0.4601364636755307
 40
1.04988694485363
 40
1.713742833862792
 40
2.320347933405154
 40
2.320347933405154
 40
2.320347933405154
 40
2.320347933405179
 10
361.2321852811291
 20
198.5773828013614
 30
0.0
 10
361.2097676240213
 20
198.7324062410413
 30
0.0
 10
361.158617568788
 20
199.0861210589589
 30
0.0
 10
360.7227324072545
 20
199.5108487305605
 30
0.0
 10
360.117681692247
 20
199.7300359105264
 30
0.0
 10
359.6924970680712
 20
199.6610446109157
 30
0.0
 10
359.4899454584201
 20
199.6468243387391
 30
0.0
  0
LINE
  5
14E7
330
2
100
AcDbEntity
  8
0
100
AcDbLine
 10
361.2321852811291
 20
198.5773828013614
 30
0.0
 11
361.8071852820393
 21
198.5773828013614
 31
0.0
  0
LINE
  5
14E8
330
2
100
AcDbEntity
  8
0
100
AcDbLine
 10
359.4899454584201
 20
199.6468243387391
 30
0.0
 11
359.4696852815842
 21
199.8578010842006
 31
0.0
  0
SPLINE
  5
14E9
330
2
100
AcDbEntity
  8
0
100
AcDbSpline
210
0.0
220
0.0
230
1.0
 70
     8
 71
     3
 72
    11
 73
     7
 74
     0
 42
0.0000000001
 43
0.0000000001
 40
0.0
 40
0.0
 40
0.0
 40
0.0
 40
0.4601364636755307
 40
1.04988694485363
 40
1.713742833862792
 40
2.320347933405154
 40
2.320347933405154
 40
2.320347933405154
 40
2.320347933405179
 10
361.8071852820393
 20
198.5773828013614
 30
0.0
 10
361.829602939147
 20
198.7324062410413
 30
0.0
 10
361.8807529943803
 20
199.0861210589589
 30
0.0
 10
362.316638155914
 20
199.5108487305605
 30
0.0
 10
362.9216888709214
 20
199.7300359105264
 30
0.0
 10
363.3468734950972
 20
199.6610446109157
 30
0.0
 10
363.5494251047483
 20
199.6468243387391
 30
0.0
  0
ARC
  5
14EA
330
2
100
AcDbEntity
  8
0
100
AcDbCircle
 10
361.5196852815842
 20
191.0943828013615
 30
0.0
 40
9.0
100
AcDbArc
 50
74.1191499917157
 51
105.8808500082775
  0
LINE
  5
14EB
330
2
100
AcDbEntity
  8
0
100
AcDbLine
 10
400.5196852815843
 20
197.4943828013614
 30
0.0
 11
408.0196852815843
 21
197.4943828013614
 31
0.0
  0
ARC
  5
14EC
330
2
100
AcDbEntity
  8
0
100
AcDbCircle
 10
402.4126745279914
 20
198.5004955256078
 30
0.0
 40
1.3
100
AcDbArc
 50
105.8808500082775
 51
174.9999999999999
  0
LINE
  5
14ED
330
2
100
AcDbEntity
  8
0
100
AcDbLine
 10
401.0196852815844
 20
197.4943828013614
 30
0.0
 11
401.1176214204722
 21
198.6137979911797
 31
0.0
  0
LINE
  5
14EE
330
2
100
AcDbEntity
  8
0
100
AcDbLine
 10
400.5196852815843
 20
197.4943828013614
 30
0.0
 11
400.5196852815843
 21
199.4943828013614
 31
0.0
  0
LINE
  5
14EF
330
2
100
AcDbEntity
  8
0
100
AcDbLine
 10
400.5196852815843
 20
199.4943828013614
 30
0.0
 11
401.5747078919639
 21
199.4943828013614
 31
0.0
  0
LINE
  5
14F0
330
2
100
AcDbEntity
  8
0
100
AcDbLine
 10
400.0196852815843
 20
199.9943828013614
 30
0.0
 11
400.5196852815843
 21
199.4943828013614
 31
0.0
  0
LINE
  5
14F1
330
2
100
AcDbEntity
  8
0
100
AcDbLine
 10
408.0196852815843
 20
197.4943828013614
 30
0.0
 11
407.9217491426964
 21
198.6137979911797
 31
0.0
  0
ARC
  5
14F2
330
2
100
AcDbEntity
  8
0
100
AcDbCircle
 10
406.6266960351772
 20
198.5004955256078
 30
0.0
 40
1.3
100
AcDbArc
 50
5.000000000000026
 51
74.1191499917157
  0
LINE
  5
14F3
330
2
100
AcDbEntity
  8
0
100
AcDbLine
 10
407.0196852815842
 20
199.9943828013614
 30
0.0
 11
408.0196852815843
 21
198.9943828013614
 31
0.0
  0
SPLINE
  5
14F4
330
2
100
AcDbEntity
  8
0
100
AcDbSpline
210
0.0
220
0.0
230
1.0
 70
     8
 71
     3
 72
    11
 73
     7
 74
     0
 42
0.0000000001
 43
0.0000000001
 40
0.0
 40
0.0
 40
0.0
 40
0.0
 40
0.4601364636755307
 40
1.04988694485363
 40
1.713742833862792
 40
2.320347933405154
 40
2.320347933405154
 40
2.320347933405154
 40
2.320347933405179
 10
404.2321852811292
 20
198.5773828013614
 30
0.0
 10
404.2097676240215
 20
198.7324062410413
 30
0.0
 10
404.1586175687882
 20
199.0861210589589
 30
0.0
 10
403.7227324072546
 20
199.5108487305605
 30
0.0
 10
403.1176816922472
 20
199.7300359105264
 30
0.0
 10
402.6924970680713
 20
199.6610446109157
 30
0.0
 10
402.4899454584202
 20
199.6468243387391
 30
0.0
  0
LINE
  5
14F5
330
2
100
AcDbEntity
  8
0
100
AcDbLine
 10
402.4899454584202
 20
199.6468243387391
 30
0.0
 11
402.4696852815843
 21
199.8578010842006
 31
0.0
  0
LINE
  5
14F6
330
2
100
AcDbEntity
  8
0
100
AcDbLine
 10
406.5494251047485
 20
199.6468243387391
 30
0.0
 11
406.5696852815843
 21
199.8578010842006
 31
0.0
  0
LINE
  5
14F7
330
2
100
AcDbEntity
  8
0
100
AcDbLine
 10
404.8071852820394
 20
198.5773828013614
 30
0.0
 11
404.2321852811292
 21
198.5773828013614
 31
0.0
  0
SPLINE
  5
14F8
330
2
100
AcDbEntity
  8
0
100
AcDbSpline
210
0.0
220
0.0
230
1.0
 70
     8
 71
     3
 72
    11
 73
     7
 74
     0
 42
0.0000000001
 43
0.0000000001
 40
0.0
 40
0.0
 40
0.0
 40
0.0
 40
0.4601364636755307
 40
1.04988694485363
 40
1.713742833862792
 40
2.320347933405154
 40
2.320347933405154
 40
2.320347933405154
 40
2.320347933405179
 10
404.8071852820394
 20
198.5773828013614
 30
0.0
 10
404.8296029391472
 20
198.7324062410413
 30
0.0
 10
404.8807529943806
 20
199.0861210589589
 30
0.0
 10
405.3166381559141
 20
199.5108487305605
 30
0.0
 10
405.9216888709215
 20
199.7300359105264
 30
0.0
 10
406.3468734950974
 20
199.6610446109157
 30
0.0
 10
406.5494251047485
 20
199.6468243387391
 30
0.0
  0
ARC
  5
14F9
330
2
100
AcDbEntity
  8
0
100
AcDbCircle
 10
404.5196852815844
 20
191.0943828013615
 30
0.0
 40
9.0
100
AcDbArc
 50
74.1191499917157
 51
105.8808500082775
  0
LINE
  5
14FA
330
2
100
AcDbEntity
  8
0
100
AcDbLine
 10
405.8575940976108
 20
199.9943828013614
 30
0.0
 11
407.0196852815842
 21
199.9943828013614
 31
0.0
  0
LINE
  5
16E9
330
2
100
AcDbEntity
  8
0
100
AcDbLine
 10
359.5196852815842
 20
155.4943678013614
 30
0.0
 11
356.9191752815842
 21
155.4943678013614
 31
0.0
  0
VIEWPORT
  5
DD4
330
DD3
100
AcDbEntity
 67
     1
  8
0
100
AcDbViewport
 10
151.6928262780287
 20
100.8883446451434
 30
0.0
 40
342.422812199674
 41
218.5254295282567
 68
     1
 69
     1
1001
ACAD
1000
MVIEW
1002
{
1070
    16
1010
0.0
1020
0.0
1030
0.0
1010
0.0
1020
0.0
1030
1.0
1040
0.0
1040
218.5254295282567
1040
151.6928262780287
1040
100.8883446451434
1040
50.0
1040
0.0
1040
0.0
1070
     0
1070
   100
1070
     1
1070
     1
1070
     0
1070
     0
1070
     0
1070
     0
1040
0.0
1040
0.0
1040
0.0
1040
10.0
1040
10.0
1040
10.0
1040
10.0
1070
     0
1002
{
1002
}
1002
}
  0
TEXT
  5
DD5
330
DD3
100
AcDbEntity
 67
     1
  8
TEXT
100
AcDbText
 10
221.2876186247744
 20
25.81289445791026
 30
0.0
 40
2.0
  1
GLMN15-S60WK
100
AcDbText
  0
INSERT
  5
DD6
330
DD3
100
AcDbEntity
 67
     1
  8
0
100
AcDbBlockReference
 66
     1
  2
外寸枠A4テンプレート
 10
0.0
 20
0.0
 30
0.0
  0
ATTRIB
  5
DD7
330
DD6
100
AcDbEntity
 67
     1
  8
TEXT
100
AcDbText
 10
219.0785047619046
 20
34.33735183158626
 30
0.0
 40
2.500000000000001
  1
GLMN-15-5~60-S60WK
 72
     4
 11
241.8165999999999
 21
35.58735183158626
 31
0.0
100
AcDbAttribute
  2
T　I　T　L　E
 70
     0
  0
ATTRIB
  5
DD8
330
DD6
100
AcDbEntity
 67
     1
  8
TEXT
100
AcDbText
 10
231.4275923057046
 20
7.13444951887557
 30
0.0
 40
2.0
  1
1：2
 72
     4
 11
234.056163734276
 21
8.13444951887557
 31
0.0
100
AcDbAttribute
  2
FREE
 70
     0
  0
ATTRIB
  5
DD9
330
DD6
100
AcDbEntity
 67
     1
  8
TEXT
100
AcDbText
 10
205.1985180173093
 20
6.884449518875568
 30
0.0
 40
2.500000000000004
  1
海野
 72
     4
 11
207.865184683976
 21
8.13444951887557
 31
0.0
100
AcDbAttribute
  2
海野
 70
     0
  0
ATTRIB
  5
DDA
330
DD6
100
AcDbEntity
 67
     1
  8
TEXT
100
AcDbText
 10
222.6686227589094
 20
6.884449518875568
 30
0.0
 40
2.500000000000004
  1
森松
 72
     4
 11
225.3352894255761
 21
8.13444951887557
 31
0.0
100
AcDbAttribute
  2
鳥居
 70
     0
  0
ATTRIB
  5
DDB
330
DD6
100
AcDbEntity
 67
     1
  8
TEXT
100
AcDbText
 10
213.9476826899094
 20
6.884449518875567
 30
0.0
 40
2.500000000000004
  1
永坂
 72
     4
 11
216.6143493565761
 21
8.13444951887557
 31
0.0
100
AcDbAttribute
  2
永坂
 70
     0
  0
SEQEND
  5
DDC
330
DD6
100
AcDbEntity
 67
     1
  8
0
  0
INSERT
  5
DDD
330
DD3
100
AcDbEntity
 67
     1
  8
TEXT
100
AcDbBlockReference
  2
1
 10
202.0
 20
40.0
 30
0.0
  0
VIEWPORT
  5
DDE
330
DD3
100
AcDbEntity
 67
     1
  8
DEFPOINTS
100
AcDbViewport
 10
141.5
 20
118.0
 30
0.0
 40
277.0
 41
128.0
 68
    -1
 69
     2
1001
ACAD
1000
MVIEW
1002
{
1070
    16
1010
0.0
1020
0.0
1030
0.0
1010
0.0
1020
0.0
1030
1.0
1040
0.0
1040
256.0000001403007
1040
256.2326585581946
1040
130.253200186182
1040
50.0
1040
0.0
1040
0.0
1070
     0
1070
   100
1070
     1
1070
     3
1070
     0
1070
     0
1070
     0
1070
     0
1040
0.0
1040
0.0
1040
0.0
1040
10.0
1040
10.0
1040
10.0
1040
10.0
1070
     0
1002
{
1002
}
1002
}
  0
TEXT
  5
DDF
330
DD3
100
AcDbEntity
 67
     1
  8
TEXT
100
AcDbText
 10
266.4665517915716
 20
9.492177985111482
 30
0.0
 40
2.0
  1
2006.04.05
 41
0.7
100
AcDbText
  0
INSERT
  5
FC8
330
DD3
100
AcDbEntity
 67
     1
  8
TEXT
100
AcDbBlockReference
  2
GSPEC_G-15-5-60
 10
3.0
 20
4.0
 30
0.0
  0
INSERT
  5
1214
330
DD3
100
AcDbEntity
 67
     1
  8
TEXT
100
AcDbBlockReference
  2
MSPEC_S60WF-90
 10
3.0
 20
4.0
 30
0.0
  0
INSERT
  5
1283
330
DD3
100
AcDbEntity
 67
     1
  8
TEXT
100
AcDbBlockReference
  2
BSPEC_90-90-0038
 10
3.0
 20
4.0
 30
0.0
  0
INSERT
  5
1314
330
DD3
100
AcDbEntity
 67
     1
  8
TEXT
100
AcDbBlockReference
  2
17
 10
202.0
 20
43.5
 30
0.0
  0
ENDSEC
  0
SECTION
  2
OBJECTS
  0
DICTIONARY
  5
7
330
0
100
AcDbDictionary
  3
ACAD_GROUP
350
75
  3
ACAD_LAYOUT
350
61
  3
ACAD_MLINESTYLE
350
76
  3
ACAD_PLOTSETTINGS
350
77
  3
ACAD_PLOTSTYLENAME
350
6
  3
ACADDIM
350
480
  3
ACDBHEADERROUNDTRIPXREC
350
17CC
  3
ACDBVARIABLEDICTIONARY
350
102
  3
DWGPROPS
350
3D2
  0
DICTIONARY
  5
17ED
330
2
100
AcDbDictionary
280
     1
  3
ACAD_LAYOUTSELFREF
360
17EE
  0
DICTIONARY
  5
17F0
330
DD3
100
AcDbDictionary
280
     1
  3
ACAD_LAYOUTSELFREF
360
17F1
  0
DICTIONARY
  5
75
102
{ACAD_REACTORS
330
7
102
}
330
7
100
AcDbDictionary
  0
DICTIONARY
  5
61
102
{ACAD_REACTORS
330
7
102
}
330
7
100
AcDbDictionary
  0
DICTIONARY
  5
76
102
{ACAD_REACTORS
330
7
102
}
330
7
100
AcDbDictionary
  3
STANDARD
350
78
  0
DICTIONARY
  5
77
102
{ACAD_REACTORS
330
7
102
}
330
7
100
AcDbDictionary
  0
ACDBDICTIONARYWDFLT
  5
6
102
{ACAD_REACTORS
330
7
102
}
330
7
100
AcDbDictionary
281
     1
  3
Normal
350
5
100
AcDbDictionaryWithDefault
340
5
  0
XRECORD
  5
480
102
{ACAD_REACTORS
330
7
102
}
330
7
100
AcDbXrecord
 90
   990106
  3

 60
     0
 61
     0
 62
     1
 63
     3
 64
     1
 65
     0
 66
     0
 67
     3
 68
     1
 69
     0
 70
     0
 71
     0
 72
     0
 40
0.0
170
     2
  0
DICTIONARY
  5
17CC
102
{ACAD_REACTORS
330
7
102
}
330
7
100
AcDbDictionary
  3
CEPSNTYPE
350
17D6
  3
DIMSTYLEDATA
350
17DA
  3
FINGERPRINTGUID
350
17D7
  3
HYPERLINKBASE
350
17CF
  3
INSUNITS
350
17D5
  3
LAYOUTDICT
350
17D1
  3
LWETCUNION
350
17D4
  3
PLOTSETDICT
350
17D2
  3
PLOTSTYLNAMDICT
350
17D3
  3
PSVPSCALE
350
17D9
  3
PUCSBASE
350
17DD
  3
PUCSORGBACK
350
17E3
  3
PUCSORGBOTTOM
350
17DF
  3
PUCSORGFRONT
350
17E2
  3
PUCSORGLEFT
350
17E0
  3
PUCSORGRIGHT
350
17E1
  3
PUCSORGTOP
350
17DE
  3
PUCSORTHOREF
350
17DB
  3
PUCSORTHOVIEW
350
17DC
  3
STYLESHEET
350
17D0
  3
TSTACKALIGN
350
17CD
  3
TSTACKSIZE
350
17CE
  3
UCSBASE
350
17E6
  3
UCSORGBACK
350
17EC
  3
UCSORGBOTTOM
350
17E8
  3
UCSORGFRONT
350
17EB
  3
UCSORGLEFT
350
17E9
  3
UCSORGRIGHT
350
17EA
  3
UCSORGTOP
350
17E7
  3
UCSORTHOREF
350
17E4
  3
UCSORTHOVIEW
350
17E5
  3
VERSIONGUID
350
17D8
  0
DICTIONARY
  5
102
102
{ACAD_REACTORS
330
7
102
}
330
7
100
AcDbDictionary
  3
DIMASSOC
350
103
  3
SORTENTS
350
E2D
  0
XRECORD
  5
3D2
102
{ACAD_REACTORS
330
7
102
}
330
7
100
AcDbXrecord
  1
DWGPROPS COOKIE
  2

  3

  4

  6

  7

  8

  9

300
=
301
=
302
=
303
=
304
=
305
=
306
=
307
=
308
=
309
=
 40
0.5353330671296296
 41
2452052.431989363
 42
2453406.550756377
  1

 90
        0
  0
XRECORD
  5
17EE
102
{ACAD_REACTORS
330
17ED
102
}
330
17ED
100
AcDbXrecord
340
2
  0
XRECORD
  5
17F1
102
{ACAD_REACTORS
330
17F0
102
}
330
17F0
100
AcDbXrecord
340
DD3
  0
MLINESTYLE
  5
78
102
{ACAD_REACTORS
330
76
102
}
330
76
100
AcDbMlineStyle
  2
STANDARD
 70
     0
  3

 62
     0
 51
90.0
 52
90.0
 71
     2
 49
0.5
 62
   256
  6
BYLAYER
 49
-0.5
 62
   256
  6
BYLAYER
  0
ACDBPLACEHOLDER
  5
5
102
{ACAD_REACTORS
330
6
102
}
330
6
100
AcDbPlaceHolder
280
     0
  0
XRECORD
  5
17D6
102
{ACAD_REACTORS
330
17CC
102
}
330
17CC
100
AcDbXrecord
 90
        0
  0
XRECORD
  5
17DA
102
{ACAD_REACTORS
330
17CC
102
}
330
17CC
100
AcDbXrecord
1000
DSTYLE
1002
{
1070
   179
 70
     2
1070
   277
 70
     6
1002
}
  0
XRECORD
  5
17D7
102
{ACAD_REACTORS
330
17CC
102
}
330
17CC
100
AcDbXrecord
  1
{6385560B-F4B1-4644-A7C2-A3E32AC3D232}
  0
XRECORD
  5
17CF
102
{ACAD_REACTORS
330
17CC
102
}
330
17CC
100
AcDbXrecord
  1

  0
XRECORD
  5
17D5
102
{ACAD_REACTORS
330
17CC
102
}
330
17CC
100
AcDbXrecord
 90
        0
  0
XRECORD
  5
17D1
102
{ACAD_REACTORS
330
17CC
102
}
330
17CC
100
AcDbXrecord
340
61
  0
XRECORD
  5
17D4
102
{ACAD_REACTORS
330
17CC
102
}
330
17CC
100
AcDbXrecord
 90
    10781
  0
XRECORD
  5
17D2
102
{ACAD_REACTORS
330
17CC
102
}
330
17CC
100
AcDbXrecord
340
77
  0
XRECORD
  5
17D3
102
{ACAD_REACTORS
330
17CC
102
}
330
17CC
100
AcDbXrecord
340
6
  0
XRECORD
  5
17D9
102
{ACAD_REACTORS
330
17CC
102
}
330
17CC
100
AcDbXrecord
 40
0.0
  0
XRECORD
  5
17DD
102
{ACAD_REACTORS
330
17CC
102
}
330
17CC
100
AcDbXrecord
340
0
  0
XRECORD
  5
17E3
102
{ACAD_REACTORS
330
17CC
102
}
330
17CC
100
AcDbXrecord
 10
0.0
 20
0.0
 30
0.0
  0
XRECORD
  5
17DF
102
{ACAD_REACTORS
330
17CC
102
}
330
17CC
100
AcDbXrecord
 10
0.0
 20
0.0
 30
0.0
  0
XRECORD
  5
17E2
102
{ACAD_REACTORS
330
17CC
102
}
330
17CC
100
AcDbXrecord
 10
0.0
 20
0.0
 30
0.0
  0
XRECORD
  5
17E0
102
{ACAD_REACTORS
330
17CC
102
}
330
17CC
100
AcDbXrecord
 10
0.0
 20
0.0
 30
0.0
  0
XRECORD
  5
17E1
102
{ACAD_REACTORS
330
17CC
102
}
330
17CC
100
AcDbXrecord
 10
0.0
 20
0.0
 30
0.0
  0
XRECORD
  5
17DE
102
{ACAD_REACTORS
330
17CC
102
}
330
17CC
100
AcDbXrecord
 10
0.0
 20
0.0
 30
0.0
  0
XRECORD
  5
17DB
102
{ACAD_REACTORS
330
17CC
102
}
330
17CC
100
AcDbXrecord
340
0
  0
XRECORD
  5
17DC
102
{ACAD_REACTORS
330
17CC
102
}
330
17CC
100
AcDbXrecord
 70
     0
  0
XRECORD
  5
17D0
102
{ACAD_REACTORS
330
17CC
102
}
330
17CC
100
AcDbXrecord
  1
Sekkei.ctb
  0
XRECORD
  5
17CD
102
{ACAD_REACTORS
330
17CC
102
}
330
17CC
100
AcDbXrecord
 90
        1
  0
XRECORD
  5
17CE
102
{ACAD_REACTORS
330
17CC
102
}
330
17CC
100
AcDbXrecord
 90
       70
  0
XRECORD
  5
17E6
102
{ACAD_REACTORS
330
17CC
102
}
330
17CC
100
AcDbXrecord
340
0
  0
XRECORD
  5
17EC
102
{ACAD_REACTORS
330
17CC
102
}
330
17CC
100
AcDbXrecord
 10
0.0
 20
0.0
 30
0.0
  0
XRECORD
  5
17E8
102
{ACAD_REACTORS
330
17CC
102
}
330
17CC
100
AcDbXrecord
 10
0.0
 20
0.0
 30
0.0
  0
XRECORD
  5
17EB
102
{ACAD_REACTORS
330
17CC
102
}
330
17CC
100
AcDbXrecord
 10
0.0
 20
0.0
 30
0.0
  0
XRECORD
  5
17E9
102
{ACAD_REACTORS
330
17CC
102
}
330
17CC
100
AcDbXrecord
 10
0.0
 20
0.0
 30
0.0
  0
XRECORD
  5
17EA
102
{ACAD_REACTORS
330
17CC
102
}
330
17CC
100
AcDbXrecord
 10
0.0
 20
0.0
 30
0.0
  0
XRECORD
  5
17E7
102
{ACAD_REACTORS
330
17CC
102
}
330
17CC
100
AcDbXrecord
 10
0.0
 20
0.0
 30
0.0
  0
XRECORD
  5
17E4
102
{ACAD_REACTORS
330
17CC
102
}
330
17CC
100
AcDbXrecord
340
0
  0
XRECORD
  5
17E5
102
{ACAD_REACTORS
330
17CC
102
}
330
17CC
100
AcDbXrecord
 70
     0
  0
XRECORD
  5
17D8
102
{ACAD_REACTORS
330
17CC
102
}
330
17CC
100
AcDbXrecord
  1
{AF96E4E7-616C-4AD2-A8B0-E6AE91FDF0EF}
  0
DICTIONARYVAR
  5
103
102
{ACAD_REACTORS
330
102
102
}
330
102
100
DictionaryVariables
280
     0
  1
1
  0
DICTIONARYVAR
  5
E2D
102
{ACAD_REACTORS
330
102
102
}
330
102
100
DictionaryVariables
280
     0
  1
96
  0
ENDSEC
  0
EOF
