  0
SECTION
  2
HEADER
  9
$ACADVER
  1
AC1014
  9
$ACADMAINTVER
 70
     9
  9
$DWGCODEPAGE
  3
ANSI_932
  9
$INSBASE
 10
0.0
 20
0.0
 30
0.0
  9
$EXTMIN
 10
42.74349132422867
 20
43.19206210551906
 30
0.0
  9
$EXTMAX
 10
535.8364323123089
 20
418.3835725533258
 30
0.0
  9
$LIMMIN
 10
0.0
 20
0.0
  9
$LIMMAX
 10
297.0
 20
210.0
  9
$ORTHOMODE
 70
     1
  9
$REGENMODE
 70
     1
  9
$FILLMODE
 70
     1
  9
$QTEXTMODE
 70
     0
  9
$MIRRTEXT
 70
     0
  9
$DRAGMODE
 70
     2
  9
$LTSCALE
 40
2.0
  9
$OSMODE
 70
    37
  9
$ATTMODE
 70
     1
  9
$TEXTSIZE
 40
2.0
  9
$TRACEWID
 40
1.0
  9
$TEXTSTYLE
  7
STANDARD
  9
$CLAYER
  8
0
  9
$CELTYPE
  6
BYLAYER
  9
$CECOLOR
 62
   256
  9
$CELTSCALE
 40
1.0
  9
$DELOBJ
 70
     1
  9
$DISPSILH
 70
     0
  9
$DIMSCALE
 40
2.0
  9
$DIMASZ
 40
1.8
  9
$DIMEXO
 40
0.625
  9
$DIMDLI
 40
3.75
  9
$DIMRND
 40
0.0
  9
$DIMDLE
 40
0.0
  9
$DIMEXE
 40
0.8
  9
$DIMTP
 40
0.0
  9
$DIMTM
 40
0.0
  9
$DIMTXT
 40
1.8
  9
$DIMCEN
 40
2.5
  9
$DIMTSZ
 40
0.0
  9
$DIMTOL
 70
     0
  9
$DIMLIM
 70
     0
  9
$DIMTIH
 70
     0
  9
$DIMTOH
 70
     0
  9
$DIMSE1
 70
     0
  9
$DIMSE2
 70
     0
  9
$DIMTAD
 70
     1
  9
$DIMZIN
 70
     8
  9
$DIMBLK
  1

  9
$DIMASO
 70
     1
  9
$DIMSHO
 70
     1
  9
$DIMPOST
  1

  9
$DIMAPOST
  1

  9
$DIMALT
 70
     0
  9
$DIMALTD
 70
     4
  9
$DIMALTF
 40
0.0394
  9
$DIMLFAC
 40
1.0
  9
$DIMTOFL
 70
     1
  9
$DIMTVP
 40
0.0
  9
$DIMTIX
 70
     0
  9
$DIMSOXD
 70
     0
  9
$DIMSAH
 70
     0
  9
$DIMBLK1
  1

  9
$DIMBLK2
  1

  9
$DIMSTYLE
  2
STANDARD
  9
$DIMCLRD
 70
     0
  9
$DIMCLRE
 70
     0
  9
$DIMCLRT
 70
     0
  9
$DIMTFAC
 40
1.0
  9
$DIMGAP
 40
0.75
  9
$DIMJUST
 70
     0
  9
$DIMSD1
 70
     0
  9
$DIMSD2
 70
     0
  9
$DIMTOLJ
 70
     1
  9
$DIMTZIN
 70
     0
  9
$DIMALTZ
 70
     0
  9
$DIMALTTZ
 70
     0
  9
$DIMFIT
 70
     3
  9
$DIMUPT
 70
     0
  9
$DIMUNIT
 70
     8
  9
$DIMDEC
 70
     2
  9
$DIMTDEC
 70
     2
  9
$DIMALTU
 70
     8
  9
$DIMALTTD
 70
     4
  9
$DIMTXSTY
  7
STANDARD
  9
$DIMAUNIT
 70
     0
  9
$LUNITS
 70
     2
  9
$LUPREC
 70
     3
  9
$SKETCHINC
 40
1.0
  9
$FILLETRAD
 40
10.0
  9
$AUNITS
 70
     0
  9
$AUPREC
 70
     2
  9
$MENU
  1
.
  9
$ELEVATION
 40
0.0
  9
$PELEVATION
 40
0.0
  9
$THICKNESS
 40
0.0
  9
$LIMCHECK
 70
     0
  9
$BLIPMODE
 70
     0
  9
$CHAMFERA
 40
0.0
  9
$CHAMFERB
 40
0.0
  9
$CHAMFERC
 40
20.0
  9
$CHAMFERD
 40
0.0
  9
$SKPOLY
 70
     0
  9
$TDCREATE
 40
2453761.382446284
  9
$TDUPDATE
 40
2453832.510441435
  9
$TDINDWG
 40
0.4057754745
  9
$TDUSRTIMER
 40
0.4057754745
  9
$USRTIMER
 70
     1
  9
$ANGBASE
 50
0.0
  9
$ANGDIR
 70
     0
  9
$PDMODE
 70
     0
  9
$PDSIZE
 40
-10.0
  9
$PLINEWID
 40
0.0
  9
$COORDS
 70
     0
  9
$SPLFRAME
 70
     0
  9
$SPLINETYPE
 70
     6
  9
$SPLINESEGS
 70
     8
  9
$ATTDIA
 70
     0
  9
$ATTREQ
 70
     1
  9
$HANDLING
 70
-16383
  9
$HANDSEED
  5
1898
  9
$SURFTAB1
 70
     6
  9
$SURFTAB2
 70
     6
  9
$SURFTYPE
 70
     6
  9
$SURFU
 70
     6
  9
$SURFV
 70
     6
  9
$UCSNAME
  2

  9
$UCSORG
 10
0.0
 20
0.0
 30
0.0
  9
$UCSXDIR
 10
1.0
 20
0.0
 30
0.0
  9
$UCSYDIR
 10
0.0
 20
1.0
 30
0.0
  9
$PUCSNAME
  2

  9
$PUCSORG
 10
0.0
 20
0.0
 30
0.0
  9
$PUCSXDIR
 10
1.0
 20
0.0
 30
0.0
  9
$PUCSYDIR
 10
0.0
 20
1.0
 30
0.0
  9
$USERI1
 70
     0
  9
$USERI2
 70
     0
  9
$USERI3
 70
     0
  9
$USERI4
 70
     0
  9
$USERI5
 70
     0
  9
$USERR1
 40
0.0
  9
$USERR2
 40
0.0
  9
$USERR3
 40
0.0
  9
$USERR4
 40
0.0
  9
$USERR5
 40
0.0
  9
$WORLDVIEW
 70
     1
  9
$SHADEDGE
 70
     3
  9
$SHADEDIF
 70
    70
  9
$TILEMODE
 70
     1
  9
$MAXACTVP
 70
    48
  9
$PINSBASE
 10
0.0
 20
0.0
 30
0.0
  9
$PLIMCHECK
 70
     0
  9
$PEXTMIN
 10
0.0
 20
0.0
 30
0.0
  9
$PEXTMAX
 10
0.0
 20
0.0
 30
0.0
  9
$PLIMMIN
 10
0.0
 20
0.0
  9
$PLIMMAX
 10
12.0
 20
9.0
  9
$UNITMODE
 70
     0
  9
$VISRETAIN
 70
     1
  9
$PLINEGEN
 70
     0
  9
$PSLTSCALE
 70
     1
  9
$TREEDEPTH
 70
  3020
  9
$PICKSTYLE
 70
     1
  9
$CMLSTYLE
  2
STANDARD
  9
$CMLJUST
 70
     0
  9
$CMLSCALE
 40
1.0
  9
$PROXYGRAPHICS
 70
     1
  9
$MEASUREMENT
 70
     0
  0
ENDSEC
  0
SECTION
  2
CLASSES
  0
CLASS
  1
DICTIONARYVAR
  2
AcDbDictionaryVar
  3
AutoCAD 2000
 90
        0
280
     0
281
     0
  0
CLASS
  1
ACDBDICTIONARYWDFLT
  2
AcDbDictionaryWithDefault
  3
AutoCAD 2000
 90
        0
280
     0
281
     0
  0
CLASS
  1
ACDBPLACEHOLDER
  2
AcDbPlaceHolder
  3
AutoCAD 2000
 90
        0
280
     0
281
     0
  0
CLASS
  1
LAYOUT
  2
AcDbLayout
  3
AutoCAD 2000
 90
        0
280
     0
281
     0
  0
CLASS
  1
LONG_TRANSACTION
  2
AcDbLongTransaction
  3
AutoCAD 2000
 90
        0
280
     0
281
     0
  0
CLASS
  1
LWPOLYLINE
  2
AcDbPolyline
  3
AutoCAD 2000
 90
        0
280
     0
281
     1
  0
CLASS
  1
HATCH
  2
AcDbHatch
  3
AutoCAD 2000
 90
        0
280
     0
281
     1
  0
CLASS
  1
XRECORD
  2
AcDbXrecord
  3
AutoCAD 2000
 90
        0
280
     0
281
     0
  0
ENDSEC
  0
SECTION
  2
TABLES
  0
TABLE
  2
VPORT
  5
6E
330
0
100
AcDbSymbolTable
 70
     2
  0
VPORT
  5
1872
330
6E
100
AcDbSymbolTableRecord
100
AcDbViewportTableRecord
  2
*ACTIVE
 70
     0
 10
0.0
 20
0.0
 11
1.0
 21
1.0
 12
280.3955028179109
 22
219.1256362408197
 13
0.0
 23
0.0
 14
10.0
 24
10.0
 15
10.0
 25
10.0
 16
0.0
 26
0.0
 36
1.0
 17
0.0
 27
0.0
 37
0.0
 40
401.6726660041606
 41
1.566970091027307
 42
50.0
 43
0.0
 44
0.0
 50
0.0
 51
0.0
 71
     0
 72
   100
 73
     1
 74
     3
 75
     0
 76
     0
 77
     0
 78
     0
  0
ENDTAB
  0
TABLE
  2
LTYPE
  5
69
330
0
100
AcDbSymbolTable
 70
     4
  0
LTYPE
  5
6A
330
69
100
AcDbSymbolTableRecord
100
AcDbLinetypeTableRecord
  2
BYBLOCK
 70
     0
  3

 72
    65
 73
     0
 40
0.0
  0
LTYPE
  5
6B
330
69
100
AcDbSymbolTableRecord
100
AcDbLinetypeTableRecord
  2
BYLAYER
 70
     0
  3

 72
    65
 73
     0
 40
0.0
  0
LTYPE
  5
8
330
69
100
AcDbSymbolTableRecord
100
AcDbLinetypeTableRecord
  2
CONTINUOUS
 70
     0
  3
Solid line
 72
    65
 73
     0
 40
0.0
  0
LTYPE
  5
27C
330
69
100
AcDbSymbolTableRecord
100
AcDbLinetypeTableRecord
  2
SEKKEI_A2_
 70
     0
  3
center(A2)  ____ _ ____ _ ____ _ ____ _ ____ _ 
 72
    65
 73
     4
 40
14.28749999999999
 49
9.525
 74
     0
 49
-1.587499999999999
 74
     0
 49
1.587499999999999
 74
     0
 49
-1.587499999999999
 74
     0
  0
LTYPE
  5
2B4
330
69
100
AcDbSymbolTableRecord
100
AcDbLinetypeTableRecord
  2
HIDDEN2
 70
     0
  3
Hidden (.5x) _ _ _ _ _ _ _ _ _ _ _ _ _ _ _ _ _
 72
    65
 73
     2
 40
4.762499999999999
 49
3.174999999999999
 74
     0
 49
-1.587499999999999
 74
     0
  0
LTYPE
  5
48F
330
69
100
AcDbSymbolTableRecord
100
AcDbLinetypeTableRecord
  2
SEKKEI_H
 70
     0
  3
Hidden-S _ _ _ _ _ _ _ _ _ _ _ _ _ _ _ _ _
 72
    65
 73
     2
 40
2.381249999999999
 49
1.587499999999999
 74
     0
 49
-0.79375
 74
     0
  0
ENDTAB
  0
TABLE
  2
LAYER
  5
66
330
0
100
AcDbSymbolTable
 70
     9
  0
LAYER
  5
5E
330
66
100
AcDbSymbolTableRecord
100
AcDbLayerTableRecord
  2
0
 70
     0
 62
     7
  6
CONTINUOUS
  0
LAYER
  5
3E
330
66
100
AcDbSymbolTableRecord
100
AcDbLayerTableRecord
  2
CENTER
 70
     0
 62
     3
  6
SEKKEI_A2_
  0
LAYER
  5
2B5
330
66
100
AcDbSymbolTableRecord
100
AcDbLayerTableRecord
  2
HIDS
 70
     0
 62
     1
  6
HIDDEN2
  0
LAYER
  5
2BA
330
66
100
AcDbSymbolTableRecord
100
AcDbLayerTableRecord
  2
HOJO
 70
     0
 62
     4
  6
CONTINUOUS
  0
LAYER
  5
3FA
330
66
100
AcDbSymbolTableRecord
100
AcDbLayerTableRecord
  2
TITLE
 70
     0
 62
     4
  6
CONTINUOUS
  0
ENDTAB
  0
TABLE
  2
STYLE
  5
67
330
0
100
AcDbSymbolTable
 70
     1
  0
STYLE
  5
16
330
67
100
AcDbSymbolTableRecord
100
AcDbTextStyleTableRecord
  2
STANDARD
 70
     0
 40
0.0
 41
1.0
 50
0.0
 71
     0
 42
2.0
  3
simplex.shx
  4
extfont.shx
  0
ENDTAB
  0
TABLE
  2
VIEW
  5
6C
330
0
100
AcDbSymbolTable
 70
     0
  0
ENDTAB
  0
TABLE
  2
UCS
  5
6D
330
0
100
AcDbSymbolTable
 70
     0
  0
ENDTAB
  0
TABLE
  2
APPID
  5
70
330
0
100
AcDbSymbolTable
 70
     1
  0
APPID
  5
71
330
70
100
AcDbSymbolTableRecord
100
AcDbRegAppTableRecord
  2
ACAD
 70
     0
  0
ENDTAB
  0
TABLE
  2
DIMSTYLE
  5
72
330
0
100
AcDbSymbolTable
 70
     1
  0
DIMSTYLE
105
73
330
72
100
AcDbSymbolTableRecord
100
AcDbDimStyleTableRecord
  2
STANDARD
 70
     0
  3

  4

  5

  6

  7

 40
2.0
 41
1.8
 42
0.625
 43
3.75
 44
0.8
 45
0.0
 46
0.0
 47
0.0
 48
0.0
140
1.8
141
2.5
142
0.0
143
0.0394
144
1.0
145
0.0
146
1.0
147
0.75
 71
     0
 72
     0
 73
     0
 74
     0
 75
     0
 76
     0
 77
     1
 78
     8
170
     0
171
     4
172
     1
173
     0
174
     0
175
     0
176
     0
177
     0
178
     0
270
     8
271
     2
272
     2
273
     8
274
     4
340
16
275
     0
280
     0
281
     0
282
     0
283
     1
284
     0
285
     0
286
     0
287
     3
288
     0
  0
ENDTAB
  0
TABLE
  2
BLOCK_RECORD
  5
1
330
0
100
AcDbSymbolTable
 70
    58
  0
BLOCK_RECORD
  5
2
102
{ACAD_XDICTIONARY
360
1894
102
}
330
1
100
AcDbSymbolTableRecord
100
AcDbBlockTableRecord
  2
*MODEL_SPACE
  0
BLOCK_RECORD
  5
186D
102
{ACAD_XDICTIONARY
360
1896
102
}
330
1
100
AcDbSymbolTableRecord
100
AcDbBlockTableRecord
  2
*PAPER_SPACE
  0
ENDTAB
  0
ENDSEC
  0
SECTION
  2
BLOCKS
  0
BLOCK
  5
5D
330
2
100
AcDbEntity
  8
0
100
AcDbBlockBegin
  2
*MODEL_SPACE
 70
     0
 10
0.0
 20
0.0
 30
0.0
  3
*MODEL_SPACE
  1

  0
ENDBLK
  5
5F
330
2
100
AcDbEntity
  8
0
100
AcDbBlockEnd
  0
BLOCK
  5
186F
330
186D
100
AcDbEntity
 67
     1
  8
0
100
AcDbBlockBegin
  2
*PAPER_SPACE
 70
     0
 10
0.0
 20
0.0
 30
0.0
  3
*PAPER_SPACE
  1

  0
ENDBLK
  5
1870
330
186D
100
AcDbEntity
 67
     1
  8
0
100
AcDbBlockEnd
  0
ENDSEC
  0
SECTION
  2
ENTITIES
  0
LINE
  5
61D
330
2
100
AcDbEntity
  8
0
100
AcDbLine
 10
454.9879160828584
 20
84.51315210551905
 30
0.0
 11
454.9879160828584
 21
141.370971105519
 31
0.0
  0
LINE
  5
61E
330
2
100
AcDbEntity
  8
0
100
AcDbLine
 10
344.9879160828584
 20
141.370971105519
 30
0.0
 11
344.9879160828584
 21
84.51315210551905
 31
0.0
  0
LINE
  5
61F
330
2
100
AcDbEntity
  8
0
100
AcDbLine
 10
351.9879160828584
 20
128.634277105519
 30
0.0
 11
351.9879160828584
 21
97.24957210551906
 31
0.0
  0
LINE
  5
620
330
2
100
AcDbEntity
  8
0
100
AcDbLine
 10
447.9879160828584
 20
128.634460105519
 30
0.0
 11
447.9879160828584
 21
97.25006010551902
 31
0.0
  0
ARC
  5
621
330
2
100
AcDbEntity
  8
0
100
AcDbCircle
 10
399.9879160828584
 20
112.942077105519
 30
0.0
 40
53.0
100
AcDbArc
 50
322.4153710000006
 51
53.53438200000049
  0
ARC
  5
622
330
2
100
AcDbEntity
  8
0
100
AcDbCircle
 10
399.9879160828584
 20
112.942077105519
 30
0.0
 40
53.0
100
AcDbArc
 50
126.4655989999998
 51
217.5845950000007
  0
LINE
  5
623
330
2
100
AcDbEntity
  8
CENTER
100
AcDbLine
 10
399.9879160828584
 20
43.19206210551906
 30
0.0
 11
399.9879160828584
 21
217.829592105519
 31
0.0
  0
LINE
  5
624
330
2
100
AcDbEntity
  8
0
100
AcDbLine
 10
242.6134903242286
 20
60.94207710551905
 30
0.0
 11
242.6134903242286
 21
165.942077105519
 31
0.0
  0
LINE
  5
625
330
2
100
AcDbEntity
  8
0
100
AcDbLine
 10
112.6134903242286
 20
59.94207710551904
 30
0.0
 11
112.6134903242286
 21
165.942077105519
 31
0.0
  0
LINE
  5
626
330
2
100
AcDbEntity
  8
0
100
AcDbLine
 10
55.11349032422867
 20
67.94207710551905
 30
0.0
 11
55.11349032422867
 21
157.942077105519
 31
0.0
  0
LINE
  5
627
330
2
100
AcDbEntity
  8
0
100
AcDbLine
 10
104.1134903242286
 20
167.942077105519
 30
0.0
 11
104.1134903242286
 21
57.94206210551905
 31
0.0
  0
ARC
  5
628
330
2
100
AcDbEntity
  8
0
100
AcDbCircle
 10
240.6134903242286
 20
60.94207710551905
 30
0.0
 40
2.0
100
AcDbArc
 50
0.0
 51
90.0
  0
LINE
  5
629
330
2
100
AcDbEntity
  8
0
100
AcDbLine
 10
104.1134903242286
 20
70.25796410551908
 30
0.0
 11
112.6134903242286
 21
70.25796410551908
 31
0.0
  0
LINE
  5
62A
330
2
100
AcDbEntity
  8
0
100
AcDbLine
 10
104.1134903242286
 20
59.94207710551904
 30
0.0
 11
112.6134903242286
 21
59.94207710551904
 31
0.0
  0
LINE
  5
62B
330
2
100
AcDbEntity
  8
0
100
AcDbLine
 10
60.11349032422867
 20
82.44207710551904
 30
0.0
 11
104.1134903242286
 21
82.44207710551904
 31
0.0
  0
LINE
  5
62C
330
2
100
AcDbEntity
  8
0
100
AcDbLine
 10
65.11349032422867
 20
57.94206210551905
 30
0.0
 11
104.1134903242286
 21
57.94206210551905
 31
0.0
  0
ARC
  5
62D
330
2
100
AcDbEntity
  8
0
100
AcDbCircle
 10
65.11349032422867
 20
67.94207710551905
 30
0.0
 40
10.0
100
AcDbArc
 50
180.0
 51
270.0
  0
LINE
  5
62E
330
2
100
AcDbEntity
  8
0
100
AcDbLine
 10
112.6134903242286
 20
70.31866410551907
 30
0.0
 11
182.6134903242286
 21
70.31866410551907
 31
0.0
  0
LINE
  5
62F
330
2
100
AcDbEntity
  8
0
100
AcDbLine
 10
112.6134903242286
 20
59.94207710551904
 30
0.0
 11
182.6134903242286
 21
59.94207710551904
 31
0.0
  0
LINE
  5
630
330
2
100
AcDbEntity
  8
HIDS
100
AcDbLine
 10
188.3634903242286
 20
62.94207710551905
 30
0.0
 11
188.3634903242286
 21
52.94206210551905
 31
0.0
  0
LINE
  5
631
330
2
100
AcDbEntity
  8
HIDS
100
AcDbLine
 10
196.8634903242286
 20
62.94207710551905
 30
0.0
 11
196.8634903242286
 21
52.94206210551905
 31
0.0
  0
LINE
  5
632
330
2
100
AcDbEntity
  8
HIDS
100
AcDbLine
 10
228.3634903242286
 20
62.94207710551905
 30
0.0
 11
228.3634903242286
 21
52.94206210551905
 31
0.0
  0
LINE
  5
633
330
2
100
AcDbEntity
  8
HIDS
100
AcDbLine
 10
236.8634903242286
 20
62.94207710551905
 30
0.0
 11
236.8634903242286
 21
52.94206210551905
 31
0.0
  0
LINE
  5
634
330
2
100
AcDbEntity
  8
CENTER
100
AcDbLine
 10
232.6134903242286
 20
67.19207710551905
 30
0.0
 11
232.6134903242286
 21
48.44206210551906
 31
0.0
  0
LINE
  5
635
330
2
100
AcDbEntity
  8
CENTER
100
AcDbLine
 10
192.6134903242286
 20
66.81707710551904
 30
0.0
 11
192.6134903242286
 21
47.69206210551906
 31
0.0
  0
LINE
  5
636
330
2
100
AcDbEntity
  8
0
100
AcDbLine
 10
182.6134903242286
 20
60.94207710551905
 30
0.0
 11
182.6134903242286
 21
52.94206210551905
 31
0.0
  0
LINE
  5
637
330
2
100
AcDbEntity
  8
0
100
AcDbLine
 10
242.6134903242286
 20
60.94207710551905
 30
0.0
 11
242.6134903242286
 21
52.94206210551905
 31
0.0
  0
LINE
  5
638
330
2
100
AcDbEntity
  8
0
100
AcDbLine
 10
182.6134903242286
 20
52.94206210551905
 30
0.0
 11
242.6134903242286
 21
52.94206210551905
 31
0.0
  0
LINE
  5
639
330
2
100
AcDbEntity
  8
0
100
AcDbLine
 10
184.6134903242286
 20
62.94207710551905
 30
0.0
 11
240.6134903242286
 21
62.94207710551905
 31
0.0
  0
LINE
  5
63A
330
2
100
AcDbEntity
  8
0
100
AcDbLine
 10
182.6134903242286
 20
77.61547810551906
 30
0.0
 11
182.6134903242286
 21
60.94207710551905
 31
0.0
  0
LINE
  5
63B
330
2
100
AcDbEntity
  8
0
100
AcDbLine
 10
204.6134903242286
 20
81.72348010551905
 30
0.0
 11
204.6134903242286
 21
64.94207710551904
 31
0.0
  0
ARC
  5
63C
330
2
100
AcDbEntity
  8
0
100
AcDbCircle
 10
184.6134903242286
 20
60.94207710551905
 30
0.0
 40
2.0
100
AcDbArc
 50
90.0
 51
180.0
  0
ARC
  5
63D
330
2
100
AcDbEntity
  8
0
100
AcDbCircle
 10
202.6134903242286
 20
64.94207710551904
 30
0.0
 40
2.0
100
AcDbArc
 50
270.0
 51
0.0
  0
LINE
  5
63E
330
2
100
AcDbEntity
  8
0
100
AcDbLine
 10
185.6134903242286
 20
80.61547810551905
 30
0.0
 11
203.9884903242286
 21
80.61547810551905
 31
0.0
  0
ARC
  5
63F
330
2
100
AcDbEntity
  8
0
100
AcDbCircle
 10
185.6134903242286
 20
77.61547810551906
 30
0.0
 40
3.0
100
AcDbArc
 50
90.0
 51
180.0
  0
ARC
  5
640
330
2
100
AcDbEntity
  8
0
100
AcDbCircle
 10
202.6134903242286
 20
81.72348010551905
 30
0.0
 40
2.0
100
AcDbArc
 50
0.0
 51
90.0
  0
LINE
  5
641
330
2
100
AcDbEntity
  8
0
100
AcDbLine
 10
220.6134903242286
 20
81.72348010551905
 30
0.0
 11
220.6134903242286
 21
64.94207710551904
 31
0.0
  0
ARC
  5
642
330
2
100
AcDbEntity
  8
0
100
AcDbCircle
 10
222.6134903242286
 20
64.94207710551904
 30
0.0
 40
2.0
100
AcDbArc
 50
180.0
 51
270.0
  0
LINE
  5
643
330
2
100
AcDbEntity
  8
0
100
AcDbLine
 10
241.9884903242286
 20
80.61547810551905
 30
0.0
 11
221.2384903242286
 21
80.61547810551905
 31
0.0
  0
ARC
  5
644
330
2
100
AcDbEntity
  8
0
100
AcDbCircle
 10
222.6134903242286
 20
81.72348010551905
 30
0.0
 40
2.0
100
AcDbArc
 50
90.0
 51
180.0
  0
ARC
  5
645
330
2
100
AcDbEntity
  8
0
100
AcDbCircle
 10
352.9879160828584
 20
67.94207710551905
 30
0.0
 40
5.0
100
AcDbArc
 50
270.0
 51
0.0
  0
ARC
  5
646
330
2
100
AcDbEntity
  8
0
100
AcDbCircle
 10
399.9879160828584
 20
112.942077105519
 30
0.0
 40
50.5
100
AcDbArc
 50
198.103806
 51
341.8962100000005
  0
LINE
  5
647
330
2
100
AcDbEntity
  8
0
100
AcDbLine
 10
359.9879160828584
 20
52.94206210551905
 30
0.0
 11
334.9879160828584
 21
52.94206210551905
 31
0.0
  0
LINE
  5
648
330
2
100
AcDbEntity
  8
HIDS
100
AcDbLine
 10
349.2379160828584
 20
62.94207710551905
 30
0.0
 11
349.2379160828584
 21
52.94206210551905
 31
0.0
  0
LINE
  5
649
330
2
100
AcDbEntity
  8
HIDS
100
AcDbLine
 10
340.7379160828584
 20
62.94207710551905
 30
0.0
 11
340.7379160828584
 21
52.94206210551905
 31
0.0
  0
LINE
  5
64A
330
2
100
AcDbEntity
  8
CENTER
100
AcDbLine
 10
344.9879160828584
 20
67.44207710551904
 30
0.0
 11
344.9879160828584
 21
46.69206210551905
 31
0.0
  0
LINE
  5
64B
330
2
100
AcDbEntity
  8
0
100
AcDbLine
 10
334.9879160828584
 20
60.94207710551905
 30
0.0
 11
334.9879160828584
 21
52.94206210551905
 31
0.0
  0
LINE
  5
64C
330
2
100
AcDbEntity
  8
0
100
AcDbLine
 10
346.4523930828584
 20
80.97756910551902
 30
0.0
 11
350.3237010828584
 21
77.10626210551907
 31
0.0
  0
LINE
  5
64D
330
2
100
AcDbEntity
  8
0
100
AcDbLine
 10
335.5737010828584
 20
62.35626210551908
 30
0.0
 11
356.2034920828584
 21
82.98587010551903
 31
0.0
  0
LINE
  5
64E
330
2
100
AcDbEntity
  8
0
100
AcDbLine
 10
357.9879160828584
 20
67.94207710551905
 30
0.0
 11
357.9879160828584
 21
80.61556910551905
 31
0.0
  0
LINE
  5
64F
330
2
100
AcDbEntity
  8
0
100
AcDbLine
 10
352.9879160828584
 20
62.94207710551905
 30
0.0
 11
336.9879160828584
 21
62.94207710551905
 31
0.0
  0
ARC
  5
650
330
2
100
AcDbEntity
  8
0
100
AcDbCircle
 10
336.9879160828584
 20
60.94207710551905
 30
0.0
 40
2.0
100
AcDbArc
 50
90.0
 51
180.0
  0
ARC
  5
651
330
2
100
AcDbEntity
  8
0
100
AcDbCircle
 10
349.9879160828584
 20
84.51315210551905
 30
0.0
 40
5.0
100
AcDbArc
 50
180.0
 51
225.0003970000002
  0
LINE
  5
652
330
2
100
AcDbEntity
  8
0
100
AcDbLine
 10
438.9879160828584
 20
53.94206210551906
 30
0.0
 11
360.9879160828584
 21
53.94206210551906
 31
0.0
  0
LINE
  5
654
330
2
100
AcDbEntity
  8
0
100
AcDbLine
 10
359.9879160828584
 20
52.94206210551905
 30
0.0
 11
360.9879160828584
 21
53.94206210551906
 31
0.0
  0
LINE
  5
655
330
2
100
AcDbEntity
  8
0
100
AcDbLine
 10
391.0231020828584
 20
90.49526910551902
 30
0.0
 11
393.6129160828584
 21
90.49526910551902
 31
0.0
  0
LINE
  5
656
330
2
100
AcDbEntity
  8
0
100
AcDbLine
 10
392.6914980828584
 20
85.70437610551909
 30
0.0
 11
391.7828990828585
 21
84.94207710551904
 31
0.0
  0
ARC
  5
657
330
2
100
AcDbEntity
  8
0
100
AcDbCircle
 10
390.6993110828584
 20
88.05487010551905
 30
0.0
 40
1.992186999999999
100
AcDbArc
 50
270.0002139999998
 51
0.0001089999998967
  0
LINE
  5
658
330
2
100
AcDbEntity
  8
0
100
AcDbLine
 10
392.6914980828584
 20
89.44937110551904
 30
0.0
 11
391.0231020828584
 21
89.44937110551904
 31
0.0
  0
LINE
  5
659
330
2
100
AcDbEntity
  8
0
100
AcDbLine
 10
388.3952950828584
 20
94.50457710551905
 30
0.0
 11
392.6819160828584
 21
94.50457710551905
 31
0.0
  0
LINE
  5
65A
330
2
100
AcDbEntity
  8
0
100
AcDbLine
 10
392.1004030828584
 20
93.23455710551906
 30
0.0
 11
389.0285040828584
 21
93.23455710551906
 31
0.0
  0
LINE
  5
65B
330
2
100
AcDbEntity
  8
0
100
AcDbLine
 10
388.3086860828584
 20
92.34207110551905
 30
0.0
 11
388.3086860828584
 21
86.83297710551903
 31
0.0
  0
LINE
  5
65C
330
2
100
AcDbEntity
  8
0
100
AcDbLine
 10
387.2379160828584
 20
93.02255210551903
 30
0.0
 11
387.2379160828584
 21
86.18286110551906
 31
0.0
  0
LINE
  5
65D
330
2
100
AcDbEntity
  8
0
100
AcDbLine
 10
388.4677130828585
 20
84.94207710551904
 30
0.0
 11
391.7828990828585
 21
84.94207710551904
 31
0.0
  0
LINE
  5
65E
330
2
100
AcDbEntity
  8
0
100
AcDbLine
 10
390.6993110828584
 20
86.06265210551901
 30
0.0
 11
389.0400090828585
 21
86.06265210551901
 31
0.0
  0
LINE
  5
65F
330
2
100
AcDbEntity
  8
0
100
AcDbLine
 10
387.2379160828584
 20
86.18286110551906
 30
0.0
 11
388.4677130828585
 21
84.94207710551904
 31
0.0
  0
LINE
  5
660
330
2
100
AcDbEntity
  8
0
100
AcDbLine
 10
388.3086860828584
 20
86.83297710551903
 30
0.0
 11
389.0400090828585
 21
86.06265210551901
 31
0.0
  0
LINE
  5
661
330
2
100
AcDbEntity
  8
0
100
AcDbLine
 10
391.0231020828584
 20
90.49526910551902
 30
0.0
 11
391.0231020828584
 21
89.44937110551904
 31
0.0
  0
LINE
  5
662
330
2
100
AcDbEntity
  8
0
100
AcDbLine
 10
388.3952950828584
 20
94.50457710551905
 30
0.0
 11
387.2379160828584
 21
93.02255210551903
 31
0.0
  0
LINE
  5
663
330
2
100
AcDbEntity
  8
0
100
AcDbLine
 10
389.0285040828584
 20
93.23455710551906
 30
0.0
 11
388.3086860828584
 21
92.34207110551905
 31
0.0
  0
LINE
  5
664
330
2
100
AcDbEntity
  8
0
100
AcDbLine
 10
407.9317020828584
 20
89.41207810551906
 30
0.0
 11
409.9721990828585
 21
89.41207810551906
 31
0.0
  0
LINE
  5
665
330
2
100
AcDbEntity
  8
0
100
AcDbLine
 10
407.9317020828584
 20
90.40795810551907
 30
0.0
 11
410.3864140828584
 21
90.40795810551907
 31
0.0
  0
LINE
  5
666
330
2
100
AcDbEntity
  8
0
100
AcDbLine
 10
407.9317020828584
 20
93.33416710551905
 30
0.0
 11
410.9065860828584
 21
93.33227510551905
 31
0.0
  0
LINE
  5
667
330
2
100
AcDbEntity
  8
0
100
AcDbLine
 10
408.3674930828584
 20
84.94207710551904
 30
0.0
 11
406.3629160828584
 21
84.94207710551904
 31
0.0
  0
LINE
  5
668
330
2
100
AcDbEntity
  8
0
100
AcDbLine
 10
407.9317020828584
 20
85.93817110551901
 30
0.0
 11
408.3674930828584
 21
85.93817110551901
 31
0.0
  0
LINE
  5
669
330
2
100
AcDbEntity
  8
0
100
AcDbLine
 10
406.3629160828584
 20
94.50457710551905
 30
0.0
 11
410.1853950828584
 21
94.50457710551905
 31
0.0
  0
LINE
  5
66A
330
2
100
AcDbEntity
  8
0
100
AcDbLine
 10
392.6914980828584
 20
89.44937110551904
 30
0.0
 11
392.6914980828584
 21
88.05487010551905
 31
0.0
  0
LINE
  5
66B
330
2
100
AcDbEntity
  8
0
100
AcDbLine
 10
392.6914980828584
 20
88.45327710551902
 30
0.0
 11
392.6914980828584
 21
89.25015210551903
 31
0.0
  0
LINE
  5
66C
330
2
100
AcDbEntity
  8
0
100
AcDbLine
 10
407.9317020828584
 20
89.41207810551906
 30
0.0
 11
407.9317020828584
 21
85.93817110551901
 31
0.0
  0
LINE
  5
66D
330
2
100
AcDbEntity
  8
0
100
AcDbLine
 10
406.8359990828584
 20
93.33416710551905
 30
0.0
 11
406.8359990828584
 21
85.93817110551901
 31
0.0
  0
LINE
  5
66E
330
2
100
AcDbEntity
  8
0
100
AcDbLine
 10
400.5607000828584
 20
93.33416710551905
 30
0.0
 11
400.5607000828584
 21
85.98797510551907
 31
0.0
  0
LINE
  5
66F
330
2
100
AcDbEntity
  8
0
100
AcDbLine
 10
399.3652960828585
 20
93.33416710551905
 30
0.0
 11
399.3652960828585
 21
85.98797510551907
 31
0.0
  0
LINE
  5
670
330
2
100
AcDbEntity
  8
0
100
AcDbLine
 10
393.6129160828584
 20
90.49526910551902
 30
0.0
 11
393.6129160828584
 21
84.94207710551904
 31
0.0
  0
LINE
  5
671
330
2
100
AcDbEntity
  8
0
100
AcDbLine
 10
398.8922130828584
 20
84.94207710551904
 30
0.0
 11
400.9591070828584
 21
84.94207710551904
 31
0.0
  0
LINE
  5
672
330
2
100
AcDbEntity
  8
0
100
AcDbLine
 10
398.8922130828584
 20
85.98797510551907
 30
0.0
 11
399.3652960828585
 21
85.98797510551907
 31
0.0
  0
LINE
  5
673
330
2
100
AcDbEntity
  8
0
100
AcDbLine
 10
398.8922130828584
 20
85.98797510551907
 30
0.0
 11
398.8922130828584
 21
84.94207710551904
 31
0.0
  0
LINE
  5
674
330
2
100
AcDbEntity
  8
0
100
AcDbLine
 10
392.6914980828584
 20
84.94207710551904
 30
0.0
 11
393.6129160828584
 21
84.94207710551904
 31
0.0
  0
LINE
  5
675
330
2
100
AcDbEntity
  8
0
100
AcDbLine
 10
392.6914980828584
 20
85.70437610551909
 30
0.0
 11
392.6914980828584
 21
84.94207710551904
 31
0.0
  0
LINE
  5
676
330
2
100
AcDbEntity
  8
0
100
AcDbLine
 10
406.3629160828584
 20
85.93817110551901
 30
0.0
 11
406.3629160828584
 21
84.94207710551904
 31
0.0
  0
LINE
  5
677
330
2
100
AcDbEntity
  8
0
100
AcDbLine
 10
406.3629160828584
 20
85.93817110551901
 30
0.0
 11
406.8359990828584
 21
85.93817110551901
 31
0.0
  0
LINE
  5
678
330
2
100
AcDbEntity
  8
0
100
AcDbLine
 10
400.9591070828584
 20
85.98797510551907
 30
0.0
 11
400.9591070828584
 21
84.94207710551904
 31
0.0
  0
LINE
  5
679
330
2
100
AcDbEntity
  8
0
100
AcDbLine
 10
400.5607000828584
 20
85.98797510551907
 30
0.0
 11
400.9591070828584
 21
85.98797510551907
 31
0.0
  0
LINE
  5
67A
330
2
100
AcDbEntity
  8
0
100
AcDbLine
 10
396.8004160828584
 20
94.50457710551905
 30
0.0
 11
403.1754160828584
 21
94.50457710551905
 31
0.0
  0
LINE
  5
67B
330
2
100
AcDbEntity
  8
0
100
AcDbLine
 10
392.6914980828584
 20
92.66305510551905
 30
0.0
 11
392.6914980828584
 21
92.51235910551907
 31
0.0
  0
LINE
  5
67C
330
2
100
AcDbEntity
  8
0
100
AcDbLine
 10
399.3652960828585
 20
93.33416710551905
 30
0.0
 11
397.8504030828584
 21
93.33416710551905
 31
0.0
  0
LINE
  5
67D
330
2
100
AcDbEntity
  8
0
100
AcDbLine
 10
397.8504030828584
 20
93.33416710551905
 30
0.0
 11
397.5079960828584
 21
92.51235910551907
 31
0.0
  0
LINE
  5
67E
330
2
100
AcDbEntity
  8
0
100
AcDbLine
 10
396.8004160828584
 20
92.51235910551907
 30
0.0
 11
397.5079960828584
 21
92.51235910551907
 31
0.0
  0
LINE
  5
67F
330
2
100
AcDbEntity
  8
0
100
AcDbLine
 10
393.6129160828584
 20
93.47146510551908
 30
0.0
 11
393.6129160828584
 21
92.51235910551907
 31
0.0
  0
LINE
  5
680
330
2
100
AcDbEntity
  8
0
100
AcDbLine
 10
392.6914980828584
 20
92.51235910551907
 30
0.0
 11
393.6129160828584
 21
92.51235910551907
 31
0.0
  0
LINE
  5
681
330
2
100
AcDbEntity
  8
0
100
AcDbLine
 10
392.6819160828584
 20
94.50457710551905
 30
0.0
 11
393.6129160828584
 21
93.47146510551908
 31
0.0
  0
LINE
  5
682
330
2
100
AcDbEntity
  8
0
100
AcDbLine
 10
392.6914980828584
 20
92.66305510551905
 30
0.0
 11
392.0882880828584
 21
93.23455710551906
 31
0.0
  0
LINE
  5
683
330
2
100
AcDbEntity
  8
0
100
AcDbLine
 10
396.8004160828584
 20
92.51235910551907
 30
0.0
 11
396.8004160828584
 21
94.50457710551905
 31
0.0
  0
LINE
  5
684
330
2
100
AcDbEntity
  8
0
100
AcDbLine
 10
406.3629160828584
 20
93.33416710551905
 30
0.0
 11
406.8359990828584
 21
93.33416710551905
 31
0.0
  0
LINE
  5
685
330
2
100
AcDbEntity
  8
0
100
AcDbLine
 10
400.5607000828584
 20
93.33416710551905
 30
0.0
 11
402.2217110828584
 21
93.33416710551905
 31
0.0
  0
LINE
  5
686
330
2
100
AcDbEntity
  8
0
100
AcDbLine
 10
402.2217110828584
 20
93.33416710551905
 30
0.0
 11
402.5104990828585
 21
92.51235910551907
 31
0.0
  0
LINE
  5
687
330
2
100
AcDbEntity
  8
0
100
AcDbLine
 10
407.9317020828584
 20
93.33416710551905
 30
0.0
 11
407.9317020828584
 21
90.40795810551907
 31
0.0
  0
LINE
  5
688
330
2
100
AcDbEntity
  8
0
100
AcDbLine
 10
406.3629160828584
 20
94.50457710551905
 30
0.0
 11
406.3629160828584
 21
93.33416710551905
 31
0.0
  0
LINE
  5
689
330
2
100
AcDbEntity
  8
0
100
AcDbLine
 10
402.5104990828585
 20
92.51235910551907
 30
0.0
 11
403.1754160828584
 21
92.51235910551907
 31
0.0
  0
LINE
  5
68A
330
2
100
AcDbEntity
  8
0
100
AcDbLine
 10
403.1754160828584
 20
92.51235910551907
 30
0.0
 11
403.1754160828584
 21
94.50457710551905
 31
0.0
  0
LINE
  5
68B
330
2
100
AcDbEntity
  8
0
100
AcDbLine
 10
409.9721990828585
 20
89.41207810551906
 30
0.0
 11
411.4671940828585
 21
85.93817110551901
 31
0.0
  0
LINE
  5
68C
330
2
100
AcDbEntity
  8
0
100
AcDbLine
 10
410.8898020828585
 20
89.49865710551904
 30
0.0
 11
412.4696050828585
 21
85.93817110551901
 31
0.0
  0
LINE
  5
68D
330
2
100
AcDbEntity
  8
0
100
AcDbLine
 10
408.3674930828584
 20
85.93817110551901
 30
0.0
 11
408.3674930828584
 21
84.94207710551904
 31
0.0
  0
LINE
  5
68E
330
2
100
AcDbEntity
  8
0
100
AcDbLine
 10
411.2687080828584
 20
85.93817110551901
 30
0.0
 11
411.2687080828584
 21
84.94207710551904
 31
0.0
  0
LINE
  5
68F
330
2
100
AcDbEntity
  8
0
100
AcDbLine
 10
412.7379160828584
 20
85.93817110551901
 30
0.0
 11
412.7379160828584
 21
84.94207710551904
 31
0.0
  0
LINE
  5
690
330
2
100
AcDbEntity
  8
0
100
AcDbLine
 10
411.2687080828584
 20
84.94207710551904
 30
0.0
 11
412.7379160828584
 21
84.94207710551904
 31
0.0
  0
LINE
  5
691
330
2
100
AcDbEntity
  8
0
100
AcDbLine
 10
412.4696050828585
 20
85.93817110551901
 30
0.0
 11
412.7379160828584
 21
85.93817110551901
 31
0.0
  0
LINE
  5
692
330
2
100
AcDbEntity
  8
0
100
AcDbLine
 10
411.2687080828584
 20
85.93817110551901
 30
0.0
 11
411.4671940828585
 21
85.93817110551901
 31
0.0
  0
ARC
  5
693
330
2
100
AcDbEntity
  8
0
100
AcDbCircle
 10
410.1853950828584
 20
91.95205610551903
 30
0.0
 40
1.557193
100
AcDbArc
 50
277.4147259999999
 51
62.41185000000022
  0
ARC
  5
694
330
2
100
AcDbEntity
  8
0
100
AcDbCircle
 10
410.1853950828584
 20
91.95205610551903
 30
0.0
 40
2.55249
100
AcDbArc
 50
286.0181269999999
 51
90.00351000000003
  0
LINE
  5
695
330
2
100
AcDbEntity
  8
HIDS
100
AcDbLine
 10
450.7379160828584
 20
62.94207710551905
 30
0.0
 11
450.7379160828584
 21
52.94206210551905
 31
0.0
  0
LINE
  5
696
330
2
100
AcDbEntity
  8
HIDS
100
AcDbLine
 10
459.2379160828584
 20
62.94207710551905
 30
0.0
 11
459.2379160828584
 21
52.94206210551905
 31
0.0
  0
LINE
  5
697
330
2
100
AcDbEntity
  8
CENTER
100
AcDbLine
 10
454.9879160828584
 20
67.44207710551904
 30
0.0
 11
454.9879160828584
 21
46.69206210551905
 31
0.0
  0
LINE
  5
698
330
2
100
AcDbEntity
  8
0
100
AcDbLine
 10
464.9879160828584
 20
60.94207710551905
 30
0.0
 11
464.9879160828584
 21
52.94206210551905
 31
0.0
  0
LINE
  5
699
330
2
100
AcDbEntity
  8
0
100
AcDbLine
 10
439.9879160828584
 20
52.94206210551905
 30
0.0
 11
464.9879160828584
 21
52.94206210551905
 31
0.0
  0
LINE
  5
69A
330
2
100
AcDbEntity
  8
0
100
AcDbLine
 10
439.9879160828584
 20
52.94206210551905
 30
0.0
 11
438.9879160828584
 21
53.94206210551906
 31
0.0
  0
LINE
  5
69B
330
2
100
AcDbEntity
  8
0
100
AcDbLine
 10
464.4021000828585
 20
62.35626210551908
 30
0.0
 11
443.7723090828584
 21
82.98587010551903
 31
0.0
  0
LINE
  5
69C
330
2
100
AcDbEntity
  8
0
100
AcDbLine
 10
446.9879160828584
 20
62.94207710551905
 30
0.0
 11
462.9879160828584
 21
62.94207710551905
 31
0.0
  0
LINE
  5
69D
330
2
100
AcDbEntity
  8
0
100
AcDbLine
 10
453.5234990828584
 20
80.97756910551902
 30
0.0
 11
449.6521000828585
 21
77.10617010551908
 31
0.0
  0
LINE
  5
69E
330
2
100
AcDbEntity
  8
0
100
AcDbLine
 10
441.9879160828585
 20
67.94207710551905
 30
0.0
 11
441.9879160828585
 21
80.61566110551906
 31
0.0
  0
ARC
  5
69F
330
2
100
AcDbEntity
  8
0
100
AcDbCircle
 10
446.9879160828584
 20
67.94207710551905
 30
0.0
 40
5.0
100
AcDbArc
 50
180.0
 51
270.0
  0
ARC
  5
6A0
330
2
100
AcDbEntity
  8
0
100
AcDbCircle
 10
449.9879160828585
 20
84.51306110551906
 30
0.0
 40
5.0
100
AcDbArc
 50
315.0004309999994
 51
0.0
  0
ARC
  5
6A1
330
2
100
AcDbEntity
  8
0
100
AcDbCircle
 10
462.9879160828584
 20
60.94207710551905
 30
0.0
 40
2.0
100
AcDbArc
 50
0.0
 51
90.0
  0
LINE
  5
6A2
330
2
100
AcDbEntity
  8
0
100
AcDbLine
 10
246.6134903242287
 20
104.442077105519
 30
0.0
 11
242.6134903242286
 21
104.442077105519
 31
0.0
  0
LINE
  5
6A3
330
2
100
AcDbEntity
  8
0
100
AcDbLine
 10
246.6134903242287
 20
151.442077105519
 30
0.0
 11
242.6134903242286
 21
151.442077105519
 31
0.0
  0
LINE
  5
6A4
330
2
100
AcDbEntity
  8
CENTER
100
AcDbLine
 10
218.5502883242286
 20
127.942077105519
 30
0.0
 11
288.6134903242286
 21
127.942077105519
 31
0.0
  0
LINE
  5
6A6
330
2
100
AcDbEntity
  8
0
100
AcDbLine
 10
246.6135063242286
 20
329.2622522097661
 30
0.0
 11
242.6135063242286
 21
329.2622522097661
 31
0.0
  0
LINE
  5
6A7
330
2
100
AcDbEntity
  8
0
100
AcDbLine
 10
246.6135063242286
 20
376.2622522097661
 30
0.0
 11
242.6135063242286
 21
376.2622522097661
 31
0.0
  0
ARC
  5
6A8
330
2
100
AcDbEntity
  8
0
100
AcDbCircle
 10
239.6135063242286
 20
290.7622522097661
 30
0.0
 40
3.0
100
AcDbArc
 50
270.0
 51
0.0
  0
ARC
  5
6A9
330
2
100
AcDbEntity
  8
0
100
AcDbCircle
 10
239.6135063242286
 20
414.7622522097662
 30
0.0
 40
3.0
100
AcDbArc
 50
0.0
 51
90.0
  0
LINE
  5
6AA
330
2
100
AcDbEntity
  8
CENTER
100
AcDbLine
 10
42.74349132422867
 20
352.7622522097661
 30
0.0
 11
285.2689623242287
 21
352.7622522097661
 31
0.0
  0
LINE
  5
6AB
330
2
100
AcDbEntity
  8
0
100
AcDbLine
 10
55.11349032422867
 20
307.7622522097661
 30
0.0
 11
55.11349032422867
 21
397.7622522097661
 31
0.0
  0
LINE
  5
6AC
330
2
100
AcDbEntity
  8
0
100
AcDbLine
 10
104.1134903242286
 20
407.7622522097661
 30
0.0
 11
104.1134903242286
 21
376.2623592097661
 31
0.0
  0
LINE
  5
6AD
330
2
100
AcDbEntity
  8
0
100
AcDbLine
 10
112.6135323242286
 20
299.7622522097661
 30
0.0
 11
112.6135323242286
 21
327.762252209766
 31
0.0
  0
LINE
  5
6AE
330
2
100
AcDbEntity
  8
0
100
AcDbLine
 10
242.6135063242286
 20
290.7622522097661
 30
0.0
 11
242.6135063242286
 21
414.7622522097662
 31
0.0
  0
LINE
  5
6AF
330
2
100
AcDbEntity
  8
CENTER
100
AcDbLine
 10
45.42309132422872
 20
112.942077105519
 30
0.0
 11
253.5213943709631
 21
112.942077105519
 31
0.0
  0
LINE
  5
6B0
330
2
100
AcDbEntity
  8
0
100
AcDbLine
 10
104.1134903242286
 20
155.504669105519
 30
0.0
 11
112.6134903242286
 21
155.504669105519
 31
0.0
  0
LINE
  5
6B3
330
2
100
AcDbEntity
  8
0
100
AcDbLine
 10
104.1134903242286
 20
165.942077105519
 30
0.0
 11
112.6134903242286
 21
165.942077105519
 31
0.0
  0
LINE
  5
6B4
330
2
100
AcDbEntity
  8
0
100
AcDbLine
 10
112.6135323242286
 20
321.2622522097661
 30
0.0
 11
104.1134903242286
 21
321.2622522097661
 31
0.0
  0
LINE
  5
6B5
330
2
100
AcDbEntity
  8
0
100
AcDbLine
 10
104.1134903242286
 20
299.7622522097661
 30
0.0
 11
112.6135323242286
 21
299.7622522097661
 31
0.0
  0
ARC
  5
6B6
330
2
100
AcDbEntity
  8
0
100
AcDbCircle
 10
104.1134903242286
 20
146.355163105519
 30
0.0
 40
1.5
100
AcDbArc
 50
0.0
 51
90.0
  0
ARC
  5
6B7
330
2
100
AcDbEntity
  8
0
100
AcDbCircle
 10
104.1134903242286
 20
146.355163105519
 30
0.0
 40
3.0
100
AcDbArc
 50
0.0
 51
90.0
  0
ARC
  5
6B8
330
2
100
AcDbEntity
  8
0
100
AcDbCircle
 10
104.1134903242286
 20
146.355163105519
 30
0.0
 40
4.5
100
AcDbArc
 50
0.0
 51
90.0
  0
LINE
  5
6B9
330
2
100
AcDbEntity
  8
0
100
AcDbLine
 10
60.11349032422867
 20
143.442077105519
 30
0.0
 11
104.1134903242286
 21
143.442077105519
 31
0.0
  0
LINE
  5
6BA
330
2
100
AcDbEntity
  8
HOJO
100
AcDbLine
 10
107.1134903242286
 20
142.355163105519
 30
0.0
 11
108.6134903242286
 21
141.855163105519
 31
0.0
  0
LINE
  5
6BB
330
2
100
AcDbEntity
  8
HOJO
100
AcDbLine
 10
105.6134903242286
 20
141.355163105519
 30
0.0
 11
107.1134903242286
 21
141.855163105519
 31
0.0
  0
LINE
  5
6BC
330
2
100
AcDbEntity
  8
0
100
AcDbLine
 10
108.6134903242286
 20
146.355163105519
 30
0.0
 11
108.6134903242286
 21
141.855163105519
 31
0.0
  0
LINE
  5
6BD
330
2
100
AcDbEntity
  8
0
100
AcDbLine
 10
107.1134903242286
 20
146.355163105519
 30
0.0
 11
107.1134903242286
 21
141.855163105519
 31
0.0
  0
LINE
  5
6BE
330
2
100
AcDbEntity
  8
0
100
AcDbLine
 10
105.6134903242286
 20
146.355163105519
 30
0.0
 11
105.6134903242286
 21
141.339568105519
 31
0.0
  0
LINE
  5
6BF
330
2
100
AcDbEntity
  8
0
100
AcDbLine
 10
65.11349032422867
 20
167.942077105519
 30
0.0
 11
104.1134903242286
 21
167.942077105519
 31
0.0
  0
ARC
  5
6C0
330
2
100
AcDbEntity
  8
0
100
AcDbCircle
 10
65.11349032422867
 20
157.942077105519
 30
0.0
 40
10.0
100
AcDbArc
 50
90.0
 51
180.0
  0
LINE
  5
6C7
330
2
100
AcDbEntity
  8
0
100
AcDbLine
 10
60.11349032422867
 20
322.2622522097661
 30
0.0
 11
104.1134903242286
 21
322.2622522097661
 31
0.0
  0
LINE
  5
6C8
330
2
100
AcDbEntity
  8
0
100
AcDbLine
 10
65.11349032422867
 20
297.7622522097661
 30
0.0
 11
104.1134903242286
 21
297.7622522097661
 31
0.0
  0
ARC
  5
6C9
330
2
100
AcDbEntity
  8
0
100
AcDbCircle
 10
65.11349032422867
 20
307.7622522097661
 30
0.0
 40
10.0
100
AcDbArc
 50
180.0
 51
270.0
  0
ARC
  5
6CA
330
2
100
AcDbEntity
  8
0
100
AcDbCircle
 10
104.1134903242286
 20
307.699263209766
 30
0.0
 40
4.5
100
AcDbArc
 50
0.0
 51
90.0
  0
LINE
  5
6CB
330
2
100
AcDbEntity
  8
HOJO
100
AcDbLine
 10
107.1134903242286
 20
303.699263209766
 30
0.0
 11
108.6134903242286
 21
303.199263209766
 31
0.0
  0
LINE
  5
6CC
330
2
100
AcDbEntity
  8
HOJO
100
AcDbLine
 10
105.6134903242286
 20
302.699263209766
 30
0.0
 11
107.1134903242286
 21
303.199263209766
 31
0.0
  0
LINE
  5
6CD
330
2
100
AcDbEntity
  8
0
100
AcDbLine
 10
108.6134903242286
 20
307.699263209766
 30
0.0
 11
108.6134903242286
 21
303.199263209766
 31
0.0
  0
LINE
  5
6CE
330
2
100
AcDbEntity
  8
0
100
AcDbLine
 10
107.1134903242286
 20
307.699263209766
 30
0.0
 11
107.1134903242286
 21
303.199263209766
 31
0.0
  0
LINE
  5
6CF
330
2
100
AcDbEntity
  8
0
100
AcDbLine
 10
105.6134903242286
 20
307.699263209766
 30
0.0
 11
105.6134903242286
 21
302.6836692097661
 31
0.0
  0
ARC
  5
6D0
330
2
100
AcDbEntity
  8
0
100
AcDbCircle
 10
104.1134903242286
 20
307.699263209766
 30
0.0
 40
1.5
100
AcDbArc
 50
0.0
 51
90.0
  0
ARC
  5
6D1
330
2
100
AcDbEntity
  8
0
100
AcDbCircle
 10
104.1134903242286
 20
307.699263209766
 30
0.0
 40
3.0
100
AcDbArc
 50
0.0
 51
90.0
  0
LINE
  5
6D2
330
2
100
AcDbEntity
  8
0
100
AcDbLine
 10
112.6134903242286
 20
155.565460105519
 30
0.0
 11
242.6134903242286
 21
155.565460105519
 31
0.0
  0
LINE
  5
6D3
330
2
100
AcDbEntity
  8
0
100
AcDbLine
 10
112.6134903242286
 20
165.942077105519
 30
0.0
 11
242.6134903242286
 21
165.942077105519
 31
0.0
  0
LINE
  5
6D6
330
2
100
AcDbEntity
  8
0
100
AcDbLine
 10
112.6135323242286
 20
321.2622522097661
 30
0.0
 11
242.6135063242286
 21
321.2622522097661
 31
0.0
  0
LINE
  5
6D7
330
2
100
AcDbEntity
  8
0
100
AcDbLine
 10
112.6135323242286
 20
299.7622522097661
 30
0.0
 11
242.6135063242286
 21
299.7622522097661
 31
0.0
  0
LINE
  5
6D8
330
2
100
AcDbEntity
  8
0
100
AcDbLine
 10
185.6134983242286
 20
287.7622522097661
 30
0.0
 11
239.6135063242286
 21
287.7622522097661
 31
0.0
  0
ARC
  5
6D9
330
2
100
AcDbEntity
  8
0
100
AcDbCircle
 10
192.6134983242287
 20
297.7622522097661
 30
0.0
 40
4.25
100
AcDbArc
 50
151.9275049999994
 51
28.07248699999956
  0
ARC
  5
6DA
330
2
100
AcDbEntity
  8
HIDS
  6
SEKKEI_H
100
AcDbCircle
 10
192.6134983242287
 20
297.7622522097661
 30
0.0
 40
4.25
100
AcDbArc
 50
28.07248699999956
 51
151.9275049999994
  0
LINE
  5
6DB
330
2
100
AcDbEntity
  8
CENTER
100
AcDbLine
 10
192.6134983242287
 20
306.780837209766
 30
0.0
 11
192.6134983242287
 21
289.2900532097661
 31
0.0
  0
LINE
  5
6DC
330
2
100
AcDbEntity
  8
CENTER
100
AcDbLine
 10
184.5577123242287
 20
297.7622522097661
 30
0.0
 11
201.3800613242286
 21
297.7622522097661
 31
0.0
  0
ARC
  5
6DD
330
2
100
AcDbEntity
  8
0
100
AcDbCircle
 10
185.6134983242286
 20
290.7622522097661
 30
0.0
 40
3.0
100
AcDbArc
 50
180.0
 51
270.0
  0
LINE
  5
6DE
330
2
100
AcDbEntity
  8
0
100
AcDbLine
 10
182.6134983242286
 20
290.7622522097661
 30
0.0
 11
182.6134983242286
 21
299.7622522097661
 31
0.0
  0
LINE
  5
6DF
330
2
100
AcDbEntity
  8
0
100
AcDbLine
 10
204.6135133242287
 20
299.7622522097661
 30
0.0
 11
204.6135133242287
 21
289.6242822097661
 31
0.0
  0
ARC
  5
6E0
330
2
100
AcDbEntity
  8
HIDS
  6
SEKKEI_H
100
AcDbCircle
 10
232.6135063242286
 20
297.7622522097661
 30
0.0
 40
4.25
100
AcDbArc
 50
28.07248699999956
 51
151.9275049999994
  0
ARC
  5
6E1
330
2
100
AcDbEntity
  8
0
100
AcDbCircle
 10
232.6135063242286
 20
297.7622522097661
 30
0.0
 40
4.25
100
AcDbArc
 50
151.9275049999994
 51
28.07248699999956
  0
LINE
  5
6E2
330
2
100
AcDbEntity
  8
CENTER
100
AcDbLine
 10
232.6135063242286
 20
306.000991209766
 30
0.0
 11
232.6135063242286
 21
289.011550209766
 31
0.0
  0
LINE
  5
6E3
330
2
100
AcDbEntity
  8
CENTER
100
AcDbLine
 10
224.6639663242286
 20
297.7622522097661
 30
0.0
 11
240.9849813242286
 21
297.7622522097661
 31
0.0
  0
LINE
  5
6E4
330
2
100
AcDbEntity
  8
0
100
AcDbLine
 10
220.6135063242286
 20
299.7622522097661
 30
0.0
 11
220.6135063242286
 21
289.6242822097661
 31
0.0
  0
LINE
  5
6E7
330
2
100
AcDbEntity
  8
0
100
AcDbLine
 10
112.6135323242286
 20
384.2622522097661
 30
0.0
 11
104.1134903242286
 21
384.2622522097661
 31
0.0
  0
LINE
  5
6E8
330
2
100
AcDbEntity
  8
0
100
AcDbLine
 10
104.1134903242286
 20
405.7622522097662
 30
0.0
 11
112.6135323242286
 21
405.7622522097662
 31
0.0
  0
LINE
  5
6F2
330
2
100
AcDbEntity
  8
0
100
AcDbLine
 10
60.11349032422867
 20
383.2622522097661
 30
0.0
 11
104.1134903242286
 21
383.2622522097661
 31
0.0
  0
LINE
  5
6F3
330
2
100
AcDbEntity
  8
0
100
AcDbLine
 10
65.11349032422867
 20
407.7622522097661
 30
0.0
 11
104.1134903242286
 21
407.7622522097661
 31
0.0
  0
ARC
  5
6F4
330
2
100
AcDbEntity
  8
0
100
AcDbCircle
 10
65.11349032422867
 20
397.7622522097661
 30
0.0
 40
10.0
100
AcDbArc
 50
90.0
 51
180.0
  0
LINE
  5
6F5
330
2
100
AcDbEntity
  8
CENTER
100
AcDbLine
 10
232.6135063242286
 20
399.5234822097661
 30
0.0
 11
232.6135063242286
 21
416.512923209766
 31
0.0
  0
ARC
  5
6F6
330
2
100
AcDbEntity
  8
0
100
AcDbCircle
 10
185.6134983242286
 20
414.7622522097662
 30
0.0
 40
3.0
100
AcDbArc
 50
90.0
 51
180.0
  0
LINE
  5
6F7
330
2
100
AcDbEntity
  8
0
100
AcDbLine
 10
112.6135323242286
 20
384.2622522097661
 30
0.0
 11
242.6135063242286
 21
384.2622522097661
 31
0.0
  0
LINE
  5
6F8
330
2
100
AcDbEntity
  8
0
100
AcDbLine
 10
112.6135323242286
 20
405.7622522097662
 30
0.0
 11
242.6135063242286
 21
405.7622522097662
 31
0.0
  0
LINE
  5
6F9
330
2
100
AcDbEntity
  8
0
100
AcDbLine
 10
112.6135323242286
 20
377.7622522097661
 30
0.0
 11
112.6135323242286
 21
405.7622522097662
 31
0.0
  0
ARC
  5
6FD
330
2
100
AcDbEntity
  8
0
100
AcDbCircle
 10
192.6134983242287
 20
407.7622522097661
 30
0.0
 40
4.25
100
AcDbArc
 50
331.9275130000004
 51
208.0724950000005
  0
ARC
  5
6FE
330
2
100
AcDbEntity
  8
HIDS
  6
SEKKEI_H
100
AcDbCircle
 10
192.6134983242287
 20
407.7622522097661
 30
0.0
 40
4.25
100
AcDbArc
 50
208.0724950000005
 51
331.9275130000004
  0
LINE
  5
6FF
330
2
100
AcDbEntity
  8
CENTER
100
AcDbLine
 10
184.5577123242287
 20
407.7622522097661
 30
0.0
 11
201.3800613242286
 21
407.7622522097661
 31
0.0
  0
LINE
  5
700
330
2
100
AcDbEntity
  8
CENTER
100
AcDbLine
 10
192.6134983242287
 20
398.7436362097661
 30
0.0
 11
192.6134983242287
 21
416.2344202097661
 31
0.0
  0
LINE
  5
701
330
2
100
AcDbEntity
  8
0
100
AcDbLine
 10
182.6134983242286
 20
414.7622522097662
 30
0.0
 11
182.6134983242286
 21
405.7622522097662
 31
0.0
  0
LINE
  5
702
330
2
100
AcDbEntity
  8
0
100
AcDbLine
 10
204.6135133242287
 20
405.7622522097662
 30
0.0
 11
204.6135133242287
 21
415.9001912097661
 31
0.0
  0
LINE
  5
703
330
2
100
AcDbEntity
  8
CENTER
100
AcDbLine
 10
224.6639663242286
 20
407.7622522097661
 30
0.0
 11
240.9849813242286
 21
407.7622522097661
 31
0.0
  0
LINE
  5
704
330
2
100
AcDbEntity
  8
0
100
AcDbLine
 10
220.6135063242286
 20
405.7622522097662
 30
0.0
 11
220.6135063242286
 21
415.9001912097661
 31
0.0
  0
ARC
  5
705
330
2
100
AcDbEntity
  8
HIDS
  6
SEKKEI_H
100
AcDbCircle
 10
232.6135063242286
 20
407.7622522097661
 30
0.0
 40
4.25
100
AcDbArc
 50
208.0724950000005
 51
331.9275130000004
  0
ARC
  5
706
330
2
100
AcDbEntity
  8
0
100
AcDbCircle
 10
232.6135063242286
 20
407.7622522097661
 30
0.0
 40
4.25
100
AcDbArc
 50
331.9275130000004
 51
208.0724950000005
  0
LINE
  5
707
330
2
100
AcDbEntity
  8
0
100
AcDbLine
 10
239.6135063242286
 20
417.7622522097662
 30
0.0
 11
185.6134983242286
 21
417.7622522097662
 31
0.0
  0
LINE
  5
708
330
2
100
AcDbEntity
  8
0
100
AcDbLine
 10
368.0234990828584
 20
166.477569105519
 30
0.0
 11
346.4523930828584
 21
144.906555105519
 31
0.0
  0
ARC
  5
709
330
2
100
AcDbEntity
  8
0
100
AcDbCircle
 10
399.9879160828584
 20
112.942077105519
 30
0.0
 40
50.5
100
AcDbArc
 50
18.1038000000002
 51
161.8961939999999
  0
LINE
  5
70A
330
2
100
AcDbEntity
  8
CENTER
100
AcDbLine
 10
333.9879160828584
 20
112.942077105519
 30
0.0
 11
463.4879160828584
 21
112.942077105519
 31
0.0
  0
LINE
  5
70B
330
2
100
AcDbEntity
  8
0
100
AcDbLine
 10
247.6134903242286
 20
105.442077105519
 30
0.0
 11
247.6134903242286
 21
150.442077105519
 31
0.0
  0
LINE
  5
70C
330
2
100
AcDbEntity
  8
0
100
AcDbLine
 10
255.6134903242286
 20
124.942077105519
 30
0.0
 11
279.6134903242286
 21
124.942077105519
 31
0.0
  0
LINE
  5
70D
330
2
100
AcDbEntity
  8
0
100
AcDbLine
 10
255.6134903242286
 20
130.942077105519
 30
0.0
 11
279.6134903242286
 21
130.942077105519
 31
0.0
  0
LINE
  5
70E
330
2
100
AcDbEntity
  8
0
100
AcDbLine
 10
249.6134903242286
 20
118.942077105519
 30
0.0
 11
279.6134903242286
 21
118.942077105519
 31
0.0
  0
LINE
  5
70F
330
2
100
AcDbEntity
  8
0
100
AcDbLine
 10
249.6134903242286
 20
136.942077105519
 30
0.0
 11
279.6134903242286
 21
136.942077105519
 31
0.0
  0
LINE
  5
710
330
2
100
AcDbEntity
  8
0
100
AcDbLine
 10
249.6134903242286
 20
137.942077105519
 30
0.0
 11
249.6134903242286
 21
117.942077105519
 31
0.0
  0
ARC
  5
711
330
2
100
AcDbEntity
  8
0
100
AcDbCircle
 10
246.6134903242287
 20
105.442077105519
 30
0.0
 40
1.0
100
AcDbArc
 50
270.0
 51
0.0
  0
LINE
  5
712
330
2
100
AcDbEntity
  8
0
100
AcDbLine
 10
247.6134903242286
 20
117.942077105519
 30
0.0
 11
249.6134903242286
 21
117.942077105519
 31
0.0
  0
ARC
  5
713
330
2
100
AcDbEntity
  8
0
100
AcDbCircle
 10
255.6134903242286
 20
127.942077105519
 30
0.0
 40
3.0
100
AcDbArc
 50
90.0
 51
270.0
  0
LINE
  5
714
330
2
100
AcDbEntity
  8
0
100
AcDbLine
 10
247.6134903242286
 20
137.942077105519
 30
0.0
 11
249.6134903242286
 21
137.942077105519
 31
0.0
  0
LINE
  5
715
330
2
100
AcDbEntity
  8
0
100
AcDbLine
 10
279.6134903242286
 20
118.942077105519
 30
0.0
 11
279.6134903242286
 21
136.942077105519
 31
0.0
  0
ARC
  5
716
330
2
100
AcDbEntity
  8
0
100
AcDbCircle
 10
246.6134903242287
 20
150.442077105519
 30
0.0
 40
1.0
100
AcDbArc
 50
0.0
 51
90.0
  0
ARC
  5
717
330
2
100
AcDbEntity
  8
0
100
AcDbCircle
 10
349.9879160828584
 20
141.371063105519
 30
0.0
 40
5.0
100
AcDbArc
 50
135.000397
 51
180.0
  0
LINE
  5
718
330
2
100
AcDbEntity
  8
0
100
AcDbLine
 10
428.4168100828584
 20
167.942077105519
 30
0.0
 11
423.4879010828585
 21
167.942077105519
 31
0.0
  0
LINE
  5
719
330
2
100
AcDbEntity
  8
CENTER
100
AcDbLine
 10
370.7791450828584
 20
127.942077105519
 30
0.0
 11
429.8791510828585
 21
127.942077105519
 31
0.0
  0
LINE
  5
71A
330
2
100
AcDbEntity
  8
0
100
AcDbLine
 10
429.5227970828584
 20
165.426574105519
 30
0.0
 11
399.9879160828584
 21
165.942077105519
 31
0.0
  0
CIRCLE
  5
71B
330
2
100
AcDbEntity
  8
0
100
AcDbCircle
 10
399.9879160828584
 20
127.942077105519
 30
0.0
 40
23.5
  0
ARC
  5
71C
330
2
100
AcDbEntity
  8
0
100
AcDbCircle
 10
399.9879160828584
 20
127.942077105519
 30
0.0
 40
9.0
100
AcDbArc
 50
199.4712070000002
 51
160.5287929999997
  0
LINE
  5
71D
330
2
100
AcDbEntity
  8
0
100
AcDbLine
 10
388.4879160828584
 20
124.942077105519
 30
0.0
 11
394.4879160828584
 21
124.942077105519
 31
0.0
  0
LINE
  5
71E
330
2
100
AcDbEntity
  8
0
100
AcDbLine
 10
388.4879160828584
 20
130.942077105519
 30
0.0
 11
394.4879160828584
 21
130.942077105519
 31
0.0
  0
LINE
  5
71F
330
2
100
AcDbEntity
  8
0
100
AcDbLine
 10
388.4879160828584
 20
130.942077105519
 30
0.0
 11
388.4879160828584
 21
124.942077105519
 31
0.0
  0
LINE
  5
720
330
2
100
AcDbEntity
  8
0
100
AcDbLine
 10
394.4879160828584
 20
130.942077105519
 30
0.0
 11
394.4879160828584
 21
124.942077105519
 31
0.0
  0
LINE
  5
721
330
2
100
AcDbEntity
  8
0
100
AcDbLine
 10
370.4530040828584
 20
165.426574105519
 30
0.0
 11
399.9879160828584
 21
165.942077105519
 31
0.0
  0
LINE
  5
722
330
2
100
AcDbEntity
  8
0
100
AcDbLine
 10
368.4879160828584
 20
163.426879105519
 30
0.0
 11
368.4879160828584
 21
155.565460105519
 31
0.0
  0
ARC
  5
723
330
2
100
AcDbEntity
  8
0
100
AcDbCircle
 10
371.5589910828585
 20
162.942077105519
 30
0.0
 40
5.0
100
AcDbArc
 50
90.0
 51
135.0001979999996
  0
ARC
  5
724
330
2
100
AcDbEntity
  8
0
100
AcDbCircle
 10
370.4879160828584
 20
163.426879105519
 30
0.0
 40
2.0
100
AcDbArc
 50
90.99992400000003
 51
180.0
  0
LINE
  5
725
330
2
100
AcDbEntity
  8
0
100
AcDbLine
 10
453.5234080828584
 20
144.906555105519
 30
0.0
 11
431.9523930828585
 21
166.477569105519
 31
0.0
  0
ARC
  5
726
330
2
100
AcDbEntity
  8
0
100
AcDbCircle
 10
449.9879160828585
 20
141.370971105519
 30
0.0
 40
5.0
100
AcDbArc
 50
0.0
 51
45.00016000000004
  0
LINE
  5
727
330
2
100
AcDbEntity
  8
0
100
AcDbLine
 10
431.4879160828584
 20
163.426879105519
 30
0.0
 11
431.4879160828584
 21
155.565460105519
 31
0.0
  0
ARC
  5
728
330
2
100
AcDbEntity
  8
0
100
AcDbCircle
 10
399.9879160828584
 20
112.942077105519
 30
0.0
 40
53.0
100
AcDbArc
 50
53.53437000000036
 51
53.53438200000049
  0
ARC
  5
729
330
2
100
AcDbEntity
  8
0
100
AcDbCircle
 10
428.4169010828584
 20
162.942077105519
 30
0.0
 40
5.0
100
AcDbArc
 50
45.00019800000019
 51
90.0
  0
ARC
  5
72A
330
2
100
AcDbEntity
  8
0
100
AcDbCircle
 10
429.4879160828585
 20
163.426879105519
 30
0.0
 40
2.0
100
AcDbArc
 50
0.0
 51
89.00007599999998
  0
TEXT
  5
72B
330
2
100
AcDbEntity
  8
TITLE
100
AcDbText
 10
431.5507180265946
 20
327.2214515864094
 30
0.0
 40
5.0
  1
GLMN-18-40~240-S90K
100
AcDbText
  0
TEXT
  5
72C
330
2
100
AcDbEntity
  8
TITLE
100
AcDbText
 10
313.550827622053
 20
327.2214515864094
 30
0.0
 40
5.0
  1
GLMN-18-40~240-T90K
100
AcDbText
  0
TEXT
  5
72D
330
2
100
AcDbEntity
  8
TITLE
100
AcDbText
 10
313.550827622053
 20
361.5071658721236
 30
0.0
 40
5.0
  1
GLMN-18-160~240-T40K
100
AcDbText
  0
TEXT
  5
72E
330
2
100
AcDbEntity
  8
TITLE
100
AcDbText
 10
431.5507180265946
 20
344.3643087292665
 30
0.0
 40
5.0
  1
GLMN-18-80~240-S60K
100
AcDbText
  0
TEXT
  5
72F
330
2
100
AcDbEntity
  8
TITLE
100
AcDbText
 10
313.550827622053
 20
344.3643087292665
 30
0.0
 40
5.0
  1
GLMN-18-80~240-T60K
100
AcDbText
  0
TEXT
  5
730
330
2
100
AcDbEntity
  8
TITLE
100
AcDbText
 10
431.5507180265946
 20
361.5071658721236
 30
0.0
 40
5.0
  1
GLMN-18-160~240-S40K
100
AcDbText
  0
LINE
  5
731
330
2
100
AcDbEntity
  8
0
100
AcDbLine
 10
247.6135063242286
 20
330.2622522097661
 30
0.0
 11
247.6135063242286
 21
375.2622522097662
 31
0.0
  0
LINE
  5
732
330
2
100
AcDbEntity
  8
0
100
AcDbLine
 10
252.6134903242286
 20
344.277236209766
 30
0.0
 11
279.6134903242286
 21
344.277236209766
 31
0.0
  0
LINE
  5
733
330
2
100
AcDbEntity
  8
0
100
AcDbLine
 10
252.6134903242286
 20
341.2622522097661
 30
0.0
 11
279.6134903242286
 21
341.2622522097661
 31
0.0
  0
LINE
  5
734
330
2
100
AcDbEntity
  8
0
100
AcDbLine
 10
249.6135063242286
 20
361.7622522097661
 30
0.0
 11
279.6134903242286
 21
361.7622522097661
 31
0.0
  0
LINE
  5
735
330
2
100
AcDbEntity
  8
0
100
AcDbLine
 10
249.6135063242286
 20
362.7622522097662
 30
0.0
 11
249.6135063242286
 21
342.7622522097661
 31
0.0
  0
ARC
  5
736
330
2
100
AcDbEntity
  8
0
100
AcDbCircle
 10
246.6135063242286
 20
330.2622522097661
 30
0.0
 40
1.0
100
AcDbArc
 50
270.0
 51
0.0
  0
LINE
  5
737
330
2
100
AcDbEntity
  8
0
100
AcDbLine
 10
249.6135063242286
 20
343.7622522097661
 30
0.0
 11
252.6134903242286
 21
343.7622522097661
 31
0.0
  0
LINE
  5
738
330
2
100
AcDbEntity
  8
0
100
AcDbLine
 10
247.6135063242286
 20
342.7622522097661
 30
0.0
 11
249.6135063242286
 21
342.7622522097661
 31
0.0
  0
LINE
  5
739
330
2
100
AcDbEntity
  8
0
100
AcDbLine
 10
252.6134903242286
 20
344.277236209766
 30
0.0
 11
252.6134903242286
 21
341.2622522097661
 31
0.0
  0
LINE
  5
73A
330
2
100
AcDbEntity
  8
0
100
AcDbLine
 10
247.6135063242286
 20
362.7622522097662
 30
0.0
 11
249.6135063242286
 21
362.7622522097662
 31
0.0
  0
LINE
  5
73B
330
2
100
AcDbEntity
  8
0
100
AcDbLine
 10
279.6134903242286
 20
341.2622522097661
 30
0.0
 11
279.6134903242286
 21
361.7622522097661
 31
0.0
  0
ARC
  5
73C
330
2
100
AcDbEntity
  8
0
100
AcDbCircle
 10
246.6135063242286
 20
375.2622522097662
 30
0.0
 40
1.0
100
AcDbArc
 50
0.0
 51
90.0
  0
TEXT
  5
73D
330
2
100
AcDbEntity
  8
TITLE
100
AcDbText
 10
431.5507180265946
 20
352.9357373006951
 30
0.0
 40
5.0
  1
GLMN-18-160~240-S40WK
100
AcDbText
  0
TEXT
  5
73E
330
2
100
AcDbEntity
  8
TITLE
100
AcDbText
 10
313.550827622053
 20
335.7928801578379
 30
0.0
 40
5.0
  1
GLMN-18-80~240-T60WK
100
AcDbText
  0
TEXT
  5
73F
330
2
100
AcDbEntity
  8
TITLE
100
AcDbText
 10
431.5507180265946
 20
335.7928801578379
 30
0.0
 40
5.0
  1
GLMN-18-80~240-S60WK
100
AcDbText
  0
TEXT
  5
740
330
2
100
AcDbEntity
  8
TITLE
100
AcDbText
 10
313.550827622053
 20
318.6500230149808
 30
0.0
 40
5.0
  1
GLMN-18-40~240-T90WK
100
AcDbText
  0
TEXT
  5
741
330
2
100
AcDbEntity
  8
TITLE
100
AcDbText
 10
431.5507180265946
 20
318.6500230149808
 30
0.0
 40
5.0
  1
GLMN-18-40~240-S90WK
100
AcDbText
  0
TEXT
  5
742
330
2
100
AcDbEntity
  8
TITLE
100
AcDbText
 10
313.550827622053
 20
352.9357373006951
 30
0.0
 40
5.0
  1
GLMN-18-160~240-T40WK
100
AcDbText
  0
LINE
  5
13D6
330
2
100
AcDbEntity
  8
0
100
AcDbLine
 10
424.9879010828585
 20
211.442092105519
 30
0.0
 11
424.9879010828585
 21
169.4420771055189
 31
0.0
  0
LINE
  5
13D8
330
2
100
AcDbEntity
  8
0
100
AcDbLine
 10
374.9879160828584
 20
211.442092105519
 30
0.0
 11
374.9879160828584
 21
169.4420771055189
 31
0.0
  0
LINE
  5
13E9
330
2
100
AcDbEntity
  8
CENTER
100
AcDbLine
 10
369.9443091016499
 20
195.442077105519
 30
0.0
 11
430.031523064067
 21
195.442077105519
 31
0.0
  0
LINE
  5
13EA
330
2
100
AcDbEntity
  8
0
100
AcDbLine
 10
374.9879160828584
 20
180.4420771055189
 30
0.0
 11
424.9879010828585
 21
180.4420771055189
 31
0.0
  0
LINE
  5
13EB
330
2
100
AcDbEntity
  8
0
100
AcDbLine
 10
374.9879160828584
 20
169.4420771055189
 30
0.0
 11
424.9879010828585
 21
169.4420771055189
 31
0.0
  0
LINE
  5
13EC
330
2
100
AcDbEntity
  8
0
100
AcDbLine
 10
374.9879160828584
 20
179.442077105519
 30
0.0
 11
424.9879010828585
 21
179.442077105519
 31
0.0
  0
LINE
  5
13EE
330
2
100
AcDbEntity
  8
0
100
AcDbLine
 10
376.9879160828584
 20
167.442077105519
 30
0.0
 11
422.9879010828585
 21
167.442077105519
 31
0.0
  0
LINE
  5
13EF
330
2
100
AcDbEntity
  8
0
100
AcDbLine
 10
374.9879160828584
 20
169.4420771055189
 30
0.0
 11
376.9879160828584
 21
167.442077105519
 31
0.0
  0
LINE
  5
13F0
330
2
100
AcDbEntity
  8
0
100
AcDbLine
 10
377.4879160828584
 20
167.442077105519
 30
0.0
 11
377.4879160828584
 21
165.5493616134262
 31
0.0
  0
LINE
  5
13F1
330
2
100
AcDbEntity
  8
0
100
AcDbLine
 10
422.4879010828585
 20
167.442077105519
 30
0.0
 11
422.4879010828584
 21
165.5493614630401
 31
0.0
  0
LINE
  5
13F2
330
2
100
AcDbEntity
  8
0
100
AcDbLine
 10
422.9879010828585
 20
167.442077105519
 30
0.0
 11
424.9879010828585
 21
169.4420771055189
 31
0.0
  0
LINE
  5
13F4
330
2
100
AcDbEntity
  8
0
100
AcDbLine
 10
151.6132923242287
 20
370.2622522097661
 30
0.0
 11
151.6132923242287
 21
335.2622522097661
 31
0.0
  0
LINE
  5
13F5
330
2
100
AcDbEntity
  8
0
100
AcDbLine
 10
153.6134903242286
 20
375.7622522097661
 30
0.0
 11
153.6132923242287
 21
329.7622522097661
 31
0.0
  0
LINE
  5
13F6
330
2
100
AcDbEntity
  8
CENTER
100
AcDbLine
 10
128.6134903242286
 20
322.7186452285576
 30
0.0
 11
128.6134903242286
 21
382.8058591909746
 31
0.0
  0
LINE
  5
13F7
330
2
100
AcDbEntity
  8
0
100
AcDbLine
 10
105.6133833242287
 20
370.2622522097661
 30
0.0
 11
105.6133833242287
 21
335.2622522097661
 31
0.0
  0
LINE
  5
13F8
330
2
100
AcDbEntity
  8
0
100
AcDbLine
 10
103.6133833242287
 20
329.7622522097661
 30
0.0
 11
103.6133833242287
 21
375.7622522097661
 31
0.0
  0
LINE
  5
13F9
330
2
100
AcDbEntity
  8
0
100
AcDbLine
 10
105.6133833242287
 20
327.7622522097661
 30
0.0
 11
151.6132923242287
 21
327.7622522097661
 31
0.0
  0
LINE
  5
13FA
330
2
100
AcDbEntity
  8
0
100
AcDbLine
 10
146.1132923242287
 20
329.7622522097661
 30
0.0
 11
111.1133833242287
 21
329.7622522097661
 31
0.0
  0
ARC
  5
140F
330
2
100
AcDbEntity
  8
0
100
AcDbCircle
 10
107.1133833242287
 20
331.2621602097661
 30
0.0
 40
4.0
100
AcDbArc
 50
0.0
 51
90.0
  0
CIRCLE
  5
1410
330
2
100
AcDbEntity
  8
0
100
AcDbCircle
 10
107.1133833242287
 20
331.2621602097661
 30
0.0
 40
3.500000000000028
  0
ARC
  5
1411
330
2
100
AcDbEntity
  8
0
100
AcDbCircle
 10
109.1430833242286
 20
333.291860209766
 30
0.0
 40
1.742199999999999
100
AcDbArc
 50
179.9986903345002
 51
270.0013096654997
  0
ARC
  5
1412
330
2
100
AcDbEntity
  8
0
100
AcDbCircle
 10
107.1133833242287
 20
331.2621602097661
 30
0.0
 40
2.049999999999998
100
AcDbArc
 50
0.0
 51
8.061960083981649
  0
ARC
  5
1413
330
2
100
AcDbEntity
  8
0
100
AcDbCircle
 10
107.1133833242287
 20
331.2621602097661
 30
0.0
 40
2.049999999999998
100
AcDbArc
 50
90.0
 51
98.06196008398188
  0
ARC
  5
1414
330
2
100
AcDbEntity
  8
0
100
AcDbCircle
 10
107.1133833242287
 20
331.2621602097661
 30
0.0
 40
2.049999999999998
100
AcDbArc
 50
81.93803991601813
 51
90.0
  0
ARC
  5
1415
330
2
100
AcDbEntity
  8
0
100
AcDbCircle
 10
109.1430833242286
 20
329.2324602097661
 30
0.0
 40
1.742199999999999
100
AcDbArc
 50
89.99869033450025
 51
180.0013096654997
  0
ARC
  5
1416
330
2
100
AcDbEntity
  8
0
100
AcDbCircle
 10
107.1133833242287
 20
331.2621602097661
 30
0.0
 40
2.049999999999998
100
AcDbArc
 50
351.9380399160183
 51
0.0
  0
ARC
  5
1417
330
2
100
AcDbEntity
  8
0
100
AcDbCircle
 10
107.1133833242287
 20
331.2621602097661
 30
0.0
 40
2.049999999999998
100
AcDbArc
 50
261.9380399160181
 51
270.0
  0
ARC
  5
1418
330
2
100
AcDbEntity
  8
0
100
AcDbCircle
 10
107.1133833242287
 20
331.2621602097661
 30
0.0
 40
2.049999999999998
100
AcDbArc
 50
270.0
 51
278.0619600839818
  0
ARC
  5
1419
330
2
100
AcDbEntity
  8
0
100
AcDbCircle
 10
107.1133833242287
 20
331.2621602097661
 30
0.0
 40
2.049999999999998
100
AcDbArc
 50
171.9380399160183
 51
180.0
  0
LINE
  5
141A
330
2
100
AcDbEntity
  8
0
100
AcDbLine
 10
103.6133833242287
 20
329.7622522097661
 30
0.0
 11
105.6133833242287
 21
327.7622522097661
 31
0.0
  0
ARC
  5
141B
330
2
100
AcDbEntity
  8
0
100
AcDbCircle
 10
107.1133833242287
 20
331.2621602097661
 30
0.0
 40
2.049999999999998
100
AcDbArc
 50
180.0
 51
188.0619600839816
  0
ARC
  5
141C
330
2
100
AcDbEntity
  8
0
100
AcDbCircle
 10
105.0836833242285
 20
333.291860209766
 30
0.0
 40
1.742199999999999
100
AcDbArc
 50
269.9986903345067
 51
0.0013096654997424
  0
ARC
  5
141D
330
2
100
AcDbEntity
  8
0
100
AcDbCircle
 10
105.0836833242285
 20
329.2324602097661
 30
0.0
 40
1.742199999999999
100
AcDbArc
 50
359.9986903345002
 51
90.00130966549322
  0
LINE
  5
141E
330
2
100
AcDbEntity
  8
0
100
AcDbLine
 10
107.1133833242287
 20
335.2622522097661
 30
0.0
 11
103.6133833242287
 21
335.2622522097661
 31
0.0
  0
LINE
  5
141F
330
2
100
AcDbEntity
  8
0
100
AcDbLine
 10
111.1133833242287
 20
331.2621602097661
 30
0.0
 11
111.1133833242287
 21
327.7622522097661
 31
0.0
  0
CIRCLE
  5
1430
330
2
100
AcDbEntity
  8
0
100
AcDbCircle
 10
150.1134903242286
 20
331.2621602097661
 30
0.0
 40
3.500000000000028
  0
ARC
  5
1431
330
2
100
AcDbEntity
  8
0
100
AcDbCircle
 10
150.1134903242286
 20
331.2621602097661
 30
0.0
 40
4.0
100
AcDbArc
 50
90.0
 51
180.0
  0
LINE
  5
1432
330
2
100
AcDbEntity
  8
0
100
AcDbLine
 10
151.6132923242287
 20
327.7622522097661
 30
0.0
 11
153.6132923242287
 21
329.7622522097661
 31
0.0
  0
LINE
  5
1433
330
2
100
AcDbEntity
  8
0
100
AcDbLine
 10
153.6132923242287
 20
329.7622522097661
 30
0.0
 11
151.6132923242287
 21
327.7622522097661
 31
0.0
  0
ARC
  5
1434
330
2
100
AcDbEntity
  8
0
100
AcDbCircle
 10
152.1431903242286
 20
333.291860209766
 30
0.0
 40
1.742199999999999
100
AcDbArc
 50
179.9986903345002
 51
270.0013096654997
  0
ARC
  5
1435
330
2
100
AcDbEntity
  8
0
100
AcDbCircle
 10
150.1134903242286
 20
331.2621602097661
 30
0.0
 40
2.049999999999998
100
AcDbArc
 50
0.0
 51
8.061960083981649
  0
ARC
  5
1436
330
2
100
AcDbEntity
  8
0
100
AcDbCircle
 10
150.1134903242286
 20
331.2621602097661
 30
0.0
 40
2.049999999999998
100
AcDbArc
 50
90.0
 51
98.06196008398188
  0
ARC
  5
1437
330
2
100
AcDbEntity
  8
0
100
AcDbCircle
 10
150.1134903242286
 20
331.2621602097661
 30
0.0
 40
2.049999999999998
100
AcDbArc
 50
81.93803991601813
 51
90.0
  0
ARC
  5
1438
330
2
100
AcDbEntity
  8
0
100
AcDbCircle
 10
152.1431903242286
 20
329.2324602097661
 30
0.0
 40
1.742199999999999
100
AcDbArc
 50
89.99869033450025
 51
180.0013096654997
  0
ARC
  5
1439
330
2
100
AcDbEntity
  8
0
100
AcDbCircle
 10
150.1134903242286
 20
331.2621602097661
 30
0.0
 40
2.049999999999998
100
AcDbArc
 50
351.9380399160183
 51
0.0
  0
ARC
  5
143A
330
2
100
AcDbEntity
  8
0
100
AcDbCircle
 10
150.1134903242286
 20
331.2621602097661
 30
0.0
 40
2.049999999999998
100
AcDbArc
 50
261.9380399160181
 51
270.0
  0
ARC
  5
143B
330
2
100
AcDbEntity
  8
0
100
AcDbCircle
 10
150.1134903242286
 20
331.2621602097661
 30
0.0
 40
2.049999999999998
100
AcDbArc
 50
270.0
 51
278.0619600839818
  0
ARC
  5
143C
330
2
100
AcDbEntity
  8
0
100
AcDbCircle
 10
150.1134903242286
 20
331.2621602097661
 30
0.0
 40
2.049999999999998
100
AcDbArc
 50
171.9380399160183
 51
180.0
  0
ARC
  5
143D
330
2
100
AcDbEntity
  8
0
100
AcDbCircle
 10
150.1134903242286
 20
331.2621602097661
 30
0.0
 40
2.049999999999998
100
AcDbArc
 50
180.0
 51
188.0619600839816
  0
LINE
  5
143E
330
2
100
AcDbEntity
  8
0
100
AcDbLine
 10
146.1132923242287
 20
331.2621602097661
 30
0.0
 11
146.1132923242287
 21
327.7622522097661
 31
0.0
  0
ARC
  5
143F
330
2
100
AcDbEntity
  8
0
100
AcDbCircle
 10
148.0837903242285
 20
333.291860209766
 30
0.0
 40
1.742199999999999
100
AcDbArc
 50
269.9986903345067
 51
0.0013096654997424
  0
ARC
  5
1440
330
2
100
AcDbEntity
  8
0
100
AcDbCircle
 10
148.0837903242285
 20
329.2324602097661
 30
0.0
 40
1.742199999999999
100
AcDbArc
 50
359.9986903345002
 51
90.00130966549322
  0
LINE
  5
1441
330
2
100
AcDbEntity
  8
0
100
AcDbLine
 10
150.1132923242287
 20
335.2622522097661
 30
0.0
 11
153.6132923242287
 21
335.2622522097661
 31
0.0
  0
LINE
  5
1443
330
2
100
AcDbEntity
  8
0
100
AcDbLine
 10
105.6133833242287
 20
377.7622522097661
 30
0.0
 11
151.6132923242287
 21
377.7622522097661
 31
0.0
  0
LINE
  5
1444
330
2
100
AcDbEntity
  8
0
100
AcDbLine
 10
146.1132923242287
 20
375.7622522097661
 30
0.0
 11
111.1133833242287
 21
375.762252209766
 31
0.0
  0
ARC
  5
1445
330
2
100
AcDbEntity
  8
0
100
AcDbCircle
 10
107.1133833242287
 20
374.2622522097661
 30
0.0
 40
4.0
100
AcDbArc
 50
270.0
 51
0.0
  0
LINE
  5
1446
330
2
100
AcDbEntity
  8
0
100
AcDbLine
 10
107.1133833242287
 20
370.2622522097661
 30
0.0
 11
103.6133833242287
 21
370.2622522097661
 31
0.0
  0
ARC
  5
1447
330
2
100
AcDbEntity
  8
0
100
AcDbCircle
 10
107.1133833242287
 20
374.2622522097661
 30
0.0
 40
2.049999999999998
100
AcDbArc
 50
90.0
 51
98.06196008398188
  0
ARC
  5
1448
330
2
100
AcDbEntity
  8
0
100
AcDbCircle
 10
107.1133833242287
 20
374.2622522097661
 30
0.0
 40
2.049999999999998
100
AcDbArc
 50
81.93803991601813
 51
90.0
  0
LINE
  5
1449
330
2
100
AcDbEntity
  8
0
100
AcDbLine
 10
103.6133833242287
 20
375.7622522097661
 30
0.0
 11
105.6133833242287
 21
377.7622522097661
 31
0.0
  0
LINE
  5
144A
330
2
100
AcDbEntity
  8
0
100
AcDbLine
 10
103.6133833242287
 20
375.7622522097661
 30
0.0
 11
105.6133833242287
 21
377.7622522097661
 31
0.0
  0
ARC
  5
144B
330
2
100
AcDbEntity
  8
0
100
AcDbCircle
 10
109.1430833242286
 20
372.2325522097661
 30
0.0
 40
1.742199999999999
100
AcDbArc
 50
89.99869033450025
 51
180.0013096654997
  0
ARC
  5
144C
330
2
100
AcDbEntity
  8
0
100
AcDbCircle
 10
107.1133833242287
 20
374.2622522097661
 30
0.0
 40
2.049999999999998
100
AcDbArc
 50
351.9380399160183
 51
0.0
  0
ARC
  5
144D
330
2
100
AcDbEntity
  8
0
100
AcDbCircle
 10
107.1133833242287
 20
374.2622522097661
 30
0.0
 40
2.049999999999998
100
AcDbArc
 50
0.0
 51
8.061960083981649
  0
ARC
  5
144E
330
2
100
AcDbEntity
  8
0
100
AcDbCircle
 10
107.1133833242287
 20
374.2622522097661
 30
0.0
 40
2.049999999999998
100
AcDbArc
 50
261.9380399160181
 51
270.0
  0
ARC
  5
144F
330
2
100
AcDbEntity
  8
0
100
AcDbCircle
 10
107.1133833242287
 20
374.2622522097661
 30
0.0
 40
2.049999999999998
100
AcDbArc
 50
270.0
 51
278.0619600839818
  0
ARC
  5
1450
330
2
100
AcDbEntity
  8
0
100
AcDbCircle
 10
107.1133833242287
 20
374.2622522097661
 30
0.0
 40
2.049999999999998
100
AcDbArc
 50
180.0
 51
188.0619600839816
  0
ARC
  5
1451
330
2
100
AcDbEntity
  8
0
100
AcDbCircle
 10
107.1133833242287
 20
374.2622522097661
 30
0.0
 40
2.049999999999998
100
AcDbArc
 50
171.9380399160183
 51
180.0
  0
ARC
  5
1452
330
2
100
AcDbEntity
  8
0
100
AcDbCircle
 10
105.0836833242285
 20
372.2325522097661
 30
0.0
 40
1.742199999999999
100
AcDbArc
 50
359.9986903345002
 51
90.00130966549322
  0
CIRCLE
  5
1453
330
2
100
AcDbEntity
  8
0
100
AcDbCircle
 10
107.1133833242287
 20
374.2622522097661
 30
0.0
 40
3.500000000000028
  0
ARC
  5
1454
330
2
100
AcDbEntity
  8
0
100
AcDbCircle
 10
105.0836833242285
 20
376.291952209766
 30
0.0
 40
1.742199999999999
100
AcDbArc
 50
269.9986903345067
 51
0.0013096654997424
  0
ARC
  5
1455
330
2
100
AcDbEntity
  8
0
100
AcDbCircle
 10
109.1430833242286
 20
376.291952209766
 30
0.0
 40
1.742199999999999
100
AcDbArc
 50
179.9986903345002
 51
270.0013096654997
  0
LINE
  5
1456
330
2
100
AcDbEntity
  8
0
100
AcDbLine
 10
111.1133833242287
 20
374.2622522097661
 30
0.0
 11
111.1133833242287
 21
377.762068209766
 31
0.0
  0
ARC
  5
1457
330
2
100
AcDbEntity
  8
0
100
AcDbCircle
 10
150.1134903242286
 20
374.2622522097661
 30
0.0
 40
4.0
100
AcDbArc
 50
180.0
 51
270.0
  0
LINE
  5
1458
330
2
100
AcDbEntity
  8
0
100
AcDbLine
 10
150.1132923242287
 20
370.2622522097661
 30
0.0
 11
153.6132923242287
 21
370.2622522097661
 31
0.0
  0
LINE
  5
1459
330
2
100
AcDbEntity
  8
0
100
AcDbLine
 10
153.6134903242286
 20
375.7622522097661
 30
0.0
 11
151.6132923242287
 21
377.7622522097661
 31
0.0
  0
LINE
  5
145A
330
2
100
AcDbEntity
  8
0
100
AcDbLine
 10
153.6132923242287
 20
375.7622522097661
 30
0.0
 11
151.6132923242287
 21
377.7622522097661
 31
0.0
  0
LINE
  5
145B
330
2
100
AcDbEntity
  8
0
100
AcDbLine
 10
153.6132923242287
 20
375.7622522097661
 30
0.0
 11
151.6132923242287
 21
377.7622522097661
 31
0.0
  0
CIRCLE
  5
145C
330
2
100
AcDbEntity
  8
0
100
AcDbCircle
 10
150.1134903242286
 20
374.2622522097661
 30
0.0
 40
3.500000000000028
  0
ARC
  5
145D
330
2
100
AcDbEntity
  8
0
100
AcDbCircle
 10
150.1134903242286
 20
374.2622522097661
 30
0.0
 40
2.049999999999998
100
AcDbArc
 50
90.0
 51
98.06196008398188
  0
ARC
  5
145E
330
2
100
AcDbEntity
  8
0
100
AcDbCircle
 10
150.1134903242286
 20
374.2622522097661
 30
0.0
 40
2.049999999999998
100
AcDbArc
 50
81.93803991601813
 51
90.0
  0
ARC
  5
145F
330
2
100
AcDbEntity
  8
0
100
AcDbCircle
 10
152.1431903242286
 20
372.2325522097661
 30
0.0
 40
1.742199999999999
100
AcDbArc
 50
89.99869033450025
 51
180.0013096654997
  0
ARC
  5
1460
330
2
100
AcDbEntity
  8
0
100
AcDbCircle
 10
150.1134903242286
 20
374.2622522097661
 30
0.0
 40
2.049999999999998
100
AcDbArc
 50
351.9380399160183
 51
0.0
  0
ARC
  5
1461
330
2
100
AcDbEntity
  8
0
100
AcDbCircle
 10
150.1134903242286
 20
374.2622522097661
 30
0.0
 40
2.049999999999998
100
AcDbArc
 50
0.0
 51
8.061960083981649
  0
ARC
  5
1462
330
2
100
AcDbEntity
  8
0
100
AcDbCircle
 10
150.1134903242286
 20
374.2622522097661
 30
0.0
 40
2.049999999999998
100
AcDbArc
 50
261.9380399160181
 51
270.0
  0
ARC
  5
1463
330
2
100
AcDbEntity
  8
0
100
AcDbCircle
 10
150.1134903242286
 20
374.2622522097661
 30
0.0
 40
2.049999999999998
100
AcDbArc
 50
270.0
 51
278.0619600839818
  0
ARC
  5
1464
330
2
100
AcDbEntity
  8
0
100
AcDbCircle
 10
152.1431903242286
 20
376.291952209766
 30
0.0
 40
1.742199999999999
100
AcDbArc
 50
179.9986903345002
 51
270.0013096654997
  0
ARC
  5
1465
330
2
100
AcDbEntity
  8
0
100
AcDbCircle
 10
150.1134903242286
 20
374.2622522097661
 30
0.0
 40
2.049999999999998
100
AcDbArc
 50
180.0
 51
188.0619600839816
  0
ARC
  5
1466
330
2
100
AcDbEntity
  8
0
100
AcDbCircle
 10
150.1134903242286
 20
374.2622522097661
 30
0.0
 40
2.049999999999998
100
AcDbArc
 50
171.9380399160183
 51
180.0
  0
LINE
  5
1467
330
2
100
AcDbEntity
  8
0
100
AcDbLine
 10
146.1132923242287
 20
374.2622522097661
 30
0.0
 11
146.1132923242287
 21
377.762068209766
 31
0.0
  0
ARC
  5
1468
330
2
100
AcDbEntity
  8
0
100
AcDbCircle
 10
148.0837903242285
 20
376.291952209766
 30
0.0
 40
1.742199999999999
100
AcDbArc
 50
269.9986903345067
 51
0.0013096654997424
  0
ARC
  5
1469
330
2
100
AcDbEntity
  8
0
100
AcDbCircle
 10
148.0837903242285
 20
372.2325522097661
 30
0.0
 40
1.742199999999999
100
AcDbArc
 50
359.9986903345002
 51
90.00130966549322
  0
LINE
  5
146A
330
2
100
AcDbEntity
  8
0
100
AcDbLine
 10
382.4879160828584
 20
211.442092105519
 30
0.0
 11
417.4879160828584
 21
211.442092105519
 31
0.0
  0
LINE
  5
146B
330
2
100
AcDbEntity
  8
0
100
AcDbLine
 10
379.8258248988852
 20
212.442092105519
 30
0.0
 11
420.1500072668316
 21
212.442092105519
 31
0.0
  0
LINE
  5
146C
330
2
100
AcDbEntity
  8
0
100
AcDbLine
 10
382.4879160828584
 20
209.942092105519
 30
0.0
 11
382.4879160828584
 21
211.9420921055191
 31
0.0
  0
LINE
  5
146D
330
2
100
AcDbEntity
  8
0
100
AcDbLine
 10
381.9879160828583
 20
209.9420921055191
 30
0.0
 11
381.8899799439705
 21
211.0615072953373
 31
0.0
  0
LINE
  5
146E
330
2
100
AcDbEntity
  8
0
100
AcDbLine
 10
374.9879160828584
 20
209.9420921055191
 30
0.0
 11
375.0858522217463
 21
211.0615072953373
 31
0.0
  0
LINE
  5
146F
330
2
100
AcDbEntity
  8
0
100
AcDbLine
 10
382.4879160828584
 20
209.942092105519
 30
0.0
 11
374.9879160828584
 21
209.9420921055191
 31
0.0
  0
ARC
  5
1470
330
2
100
AcDbEntity
  8
0
100
AcDbCircle
 10
376.3809053292655
 20
210.9482048297654
 30
0.0
 40
1.3
100
AcDbArc
 50
105.8808500082777
 51
174.9999999999999
  0
LINE
  5
1471
330
2
100
AcDbEntity
  8
0
100
AcDbLine
 10
377.1500072668318
 20
212.442092105519
 30
0.0
 11
375.9879160828584
 21
212.442092105519
 31
0.0
  0
LINE
  5
1472
330
2
100
AcDbEntity
  8
0
100
AcDbLine
 10
375.9879160828584
 20
212.442092105519
 30
0.0
 11
374.9879160828584
 21
211.442092105519
 31
0.0
  0
ARC
  5
1473
330
2
100
AcDbEntity
  8
0
100
AcDbCircle
 10
380.5949268364514
 20
210.9482048297654
 30
0.0
 40
1.3
100
AcDbArc
 50
5.000000000000026
 51
74.11914999171549
  0
LINE
  5
1474
330
2
100
AcDbEntity
  8
0
100
AcDbLine
 10
382.4879160828584
 20
211.942092105519
 30
0.0
 11
381.4328934724788
 21
211.942092105519
 31
0.0
  0
LINE
  5
1475
330
2
100
AcDbEntity
  8
0
100
AcDbLine
 10
380.5176559060225
 20
212.0945336428967
 30
0.0
 11
380.5379160828584
 21
212.3055103883582
 31
0.0
  0
LINE
  5
1476
330
2
100
AcDbEntity
  8
0
100
AcDbLine
 10
382.9879160828584
 20
212.442092105519
 30
0.0
 11
382.4879160828584
 21
211.942092105519
 31
0.0
  0
SPLINE
  5
1477
330
2
100
AcDbEntity
  8
0
100
AcDbSpline
210
0.0
220
0.0
230
1.0
 70
     8
 71
     3
 72
    11
 73
     7
 74
     0
 42
0.0000000001
 43
0.0000000001
 40
0.0
 40
0.0
 40
0.0
 40
0.0
 40
0.4601364636755307
 40
1.04988694485363
 40
1.713742833862792
 40
2.320347933405154
 40
2.320347933405154
 40
2.320347933405154
 40
2.320347933405179
 10
378.2004160824033
 20
211.025092105519
 30
0.0
 10
378.1779984252954
 20
211.1801155451989
 30
0.0
 10
378.1268483700622
 20
211.5338303631165
 30
0.0
 10
377.6909632085286
 20
211.9585580347181
 30
0.0
 10
377.0859124935212
 20
212.177745214684
 30
0.0
 10
376.6607278693454
 20
212.1087539150734
 30
0.0
 10
376.4581762596943
 20
212.0945336428967
 30
0.0
  0
LINE
  5
1478
330
2
100
AcDbEntity
  8
0
100
AcDbLine
 10
378.2004160824033
 20
211.025092105519
 30
0.0
 11
378.7754160833134
 21
211.025092105519
 31
0.0
  0
LINE
  5
1479
330
2
100
AcDbEntity
  8
0
100
AcDbLine
 10
376.4581762596943
 20
212.0945336428967
 30
0.0
 11
376.4379160828584
 21
212.3055103883582
 31
0.0
  0
SPLINE
  5
147A
330
2
100
AcDbEntity
  8
0
100
AcDbSpline
210
0.0
220
0.0
230
1.0
 70
     8
 71
     3
 72
    11
 73
     7
 74
     0
 42
0.0000000001
 43
0.0000000001
 40
0.0
 40
0.0
 40
0.0
 40
0.0
 40
0.4601364636755307
 40
1.04988694485363
 40
1.713742833862792
 40
2.320347933405154
 40
2.320347933405154
 40
2.320347933405154
 40
2.320347933405179
 10
378.7754160833134
 20
211.025092105519
 30
0.0
 10
378.7978337404212
 20
211.1801155451989
 30
0.0
 10
378.8489837956545
 20
211.5338303631165
 30
0.0
 10
379.2848689571881
 20
211.9585580347181
 30
0.0
 10
379.8899196721956
 20
212.177745214684
 30
0.0
 10
380.3151042963714
 20
212.1087539150734
 30
0.0
 10
380.5176559060225
 20
212.0945336428967
 30
0.0
  0
ARC
  5
147B
330
2
100
AcDbEntity
  8
0
100
AcDbCircle
 10
378.4879160828583
 20
203.5420921055191
 30
0.0
 40
9.0
100
AcDbArc
 50
74.11914999171549
 51
105.8808500082777
  0
LINE
  5
147C
330
2
100
AcDbEntity
  8
0
100
AcDbLine
 10
417.4879160828584
 20
209.942092105519
 30
0.0
 11
424.9879160828585
 21
209.9420921055191
 31
0.0
  0
ARC
  5
147D
330
2
100
AcDbEntity
  8
0
100
AcDbCircle
 10
419.3809053292655
 20
210.9482048297654
 30
0.0
 40
1.3
100
AcDbArc
 50
105.8808500082777
 51
174.9999999999999
  0
LINE
  5
147E
330
2
100
AcDbEntity
  8
0
100
AcDbLine
 10
417.9879160828585
 20
209.9420921055191
 30
0.0
 11
418.0858522217463
 21
211.0615072953373
 31
0.0
  0
LINE
  5
147F
330
2
100
AcDbEntity
  8
0
100
AcDbLine
 10
417.4879160828584
 20
209.942092105519
 30
0.0
 11
417.4879160828584
 21
211.9420921055191
 31
0.0
  0
LINE
  5
1480
330
2
100
AcDbEntity
  8
0
100
AcDbLine
 10
417.4879160828584
 20
211.942092105519
 30
0.0
 11
418.5429386932381
 21
211.942092105519
 31
0.0
  0
LINE
  5
1481
330
2
100
AcDbEntity
  8
0
100
AcDbLine
 10
416.9879160828585
 20
212.442092105519
 30
0.0
 11
417.4879160828584
 21
211.942092105519
 31
0.0
  0
LINE
  5
1482
330
2
100
AcDbEntity
  8
0
100
AcDbLine
 10
424.9879160828585
 20
209.9420921055191
 30
0.0
 11
424.8899799439707
 21
211.0615072953373
 31
0.0
  0
ARC
  5
1483
330
2
100
AcDbEntity
  8
0
100
AcDbCircle
 10
423.5949268364514
 20
210.9482048297654
 30
0.0
 40
1.3
100
AcDbArc
 50
5.000000000000026
 51
74.11914999171549
  0
LINE
  5
1484
330
2
100
AcDbEntity
  8
0
100
AcDbLine
 10
423.9879160828584
 20
212.442092105519
 30
0.0
 11
424.9879160828585
 21
211.442092105519
 31
0.0
  0
SPLINE
  5
1485
330
2
100
AcDbEntity
  8
0
100
AcDbSpline
210
0.0
220
0.0
230
1.0
 70
     8
 71
     3
 72
    11
 73
     7
 74
     0
 42
0.0000000001
 43
0.0000000001
 40
0.0
 40
0.0
 40
0.0
 40
0.0
 40
0.4601364636755307
 40
1.04988694485363
 40
1.713742833862792
 40
2.320347933405154
 40
2.320347933405154
 40
2.320347933405154
 40
2.320347933405179
 10
421.2004160824035
 20
211.025092105519
 30
0.0
 10
421.1779984252957
 20
211.1801155451989
 30
0.0
 10
421.1268483700624
 20
211.5338303631165
 30
0.0
 10
420.6909632085287
 20
211.9585580347181
 30
0.0
 10
420.0859124935213
 20
212.177745214684
 30
0.0
 10
419.6607278693455
 20
212.1087539150734
 30
0.0
 10
419.4581762596944
 20
212.0945336428967
 30
0.0
  0
LINE
  5
1486
330
2
100
AcDbEntity
  8
0
100
AcDbLine
 10
419.4581762596944
 20
212.0945336428967
 30
0.0
 11
419.4379160828585
 21
212.3055103883582
 31
0.0
  0
LINE
  5
1487
330
2
100
AcDbEntity
  8
0
100
AcDbLine
 10
423.5176559060226
 20
212.0945336428967
 30
0.0
 11
423.5379160828585
 21
212.3055103883582
 31
0.0
  0
LINE
  5
1488
330
2
100
AcDbEntity
  8
0
100
AcDbLine
 10
421.7754160833136
 20
211.025092105519
 30
0.0
 11
421.2004160824035
 21
211.025092105519
 31
0.0
  0
SPLINE
  5
1489
330
2
100
AcDbEntity
  8
0
100
AcDbSpline
210
0.0
220
0.0
230
1.0
 70
     8
 71
     3
 72
    11
 73
     7
 74
     0
 42
0.0000000001
 43
0.0000000001
 40
0.0
 40
0.0
 40
0.0
 40
0.0
 40
0.4601364636755307
 40
1.04988694485363
 40
1.713742833862792
 40
2.320347933405154
 40
2.320347933405154
 40
2.320347933405154
 40
2.320347933405179
 10
421.7754160833136
 20
211.025092105519
 30
0.0
 10
421.7978337404215
 20
211.1801155451989
 30
0.0
 10
421.8489837956547
 20
211.5338303631165
 30
0.0
 10
422.2848689571883
 20
211.9585580347181
 30
0.0
 10
422.8899196721957
 20
212.177745214684
 30
0.0
 10
423.3151042963715
 20
212.1087539150734
 30
0.0
 10
423.5176559060226
 20
212.0945336428967
 30
0.0
  0
ARC
  5
148A
330
2
100
AcDbEntity
  8
0
100
AcDbCircle
 10
421.4879160828585
 20
203.5420921055191
 30
0.0
 40
9.0
100
AcDbArc
 50
74.11914999171549
 51
105.8808500082777
  0
LINE
  5
148B
330
2
100
AcDbEntity
  8
0
100
AcDbLine
 10
422.825824898885
 20
212.442092105519
 30
0.0
 11
423.9879160828584
 21
212.442092105519
 31
0.0
  0
LINE
  5
14E3
330
2
100
AcDbEntity
  8
CENTER
100
AcDbLine
 10
128.6134903242286
 20
161.052581105519
 30
0.0
 11
128.6134903242286
 21
217.829592105519
 31
0.0
  0
LINE
  5
14E4
330
2
100
AcDbEntity
  8
0
100
AcDbLine
 10
108.4513991402552
 20
212.4420921055189
 30
0.0
 11
148.7755815082023
 21
212.442092105519
 31
0.0
  0
LINE
  5
14E5
330
2
100
AcDbEntity
  8
0
100
AcDbLine
 10
111.1134903242286
 20
211.442092105519
 30
0.0
 11
146.1134903242286
 21
211.442092105519
 31
0.0
  0
LINE
  5
14E6
330
2
100
AcDbEntity
  8
0
100
AcDbLine
 10
105.1134833242286
 20
167.442077105519
 30
0.0
 11
151.6134903242286
 21
167.442077105519
 31
0.0
  0
LINE
  5
14E7
330
2
100
AcDbEntity
  8
0
100
AcDbLine
 10
103.6134833242287
 20
179.442077105519
 30
0.0
 11
153.6134903242286
 21
179.442077105519
 31
0.0
  0
LINE
  5
14E8
330
2
100
AcDbEntity
  8
0
100
AcDbLine
 10
103.6134833242287
 20
169.442077105519
 30
0.0
 11
153.6134903242286
 21
169.442077105519
 31
0.0
  0
LINE
  5
14E9
330
2
100
AcDbEntity
  8
0
100
AcDbLine
 10
103.6134833242287
 20
180.442077105519
 30
0.0
 11
153.6134903242286
 21
180.442077105519
 31
0.0
  0
LINE
  5
14EA
330
2
100
AcDbEntity
  8
CENTER
100
AcDbLine
 10
98.56988334302014
 20
195.442077105519
 30
0.0
 11
158.6570973054372
 21
195.442077105519
 31
0.0
  0
LINE
  5
14EB
330
2
100
AcDbEntity
  8
0
100
AcDbLine
 10
103.6134833242287
 20
211.442092105519
 30
0.0
 11
103.6134833242287
 21
169.442077105519
 31
0.0
  0
LINE
  5
14EC
330
2
100
AcDbEntity
  8
0
100
AcDbLine
 10
103.6134833242287
 20
169.442077105519
 30
0.0
 11
105.6134833242287
 21
167.442077105519
 31
0.0
  0
LINE
  5
14ED
330
2
100
AcDbEntity
  8
0
100
AcDbLine
 10
105.1134833242286
 20
167.442077105519
 30
0.0
 11
105.1134833242286
 21
165.942077105519
 31
0.0
  0
LINE
  5
14EE
330
2
100
AcDbEntity
  8
0
100
AcDbLine
 10
102.7384833242287
 20
184.942077105519
 30
0.0
 11
104.7384833242287
 21
184.942077105519
 31
0.0
  0
LINE
  5
14EF
330
2
100
AcDbEntity
  8
0
100
AcDbLine
 10
104.6134903242286
 20
212.442092105519
 30
0.0
 11
103.6134903242286
 21
211.442092105519
 31
0.0
  0
ARC
  5
14F0
330
2
100
AcDbEntity
  8
0
100
AcDbCircle
 10
105.0064795706357
 20
210.9482048297654
 30
0.0
 40
1.3
100
AcDbArc
 50
105.8808500082777
 51
174.9999999999999
  0
LINE
  5
14F1
330
2
100
AcDbEntity
  8
0
100
AcDbLine
 10
102.7384833242287
 20
205.942077105519
 30
0.0
 11
104.7384833242287
 21
205.942077105519
 31
0.0
  0
LINE
  5
14F2
330
2
100
AcDbEntity
  8
0
100
AcDbLine
 10
103.6134903242286
 20
209.9420921055191
 30
0.0
 11
103.7114264631165
 21
211.0615072953373
 31
0.0
  0
LINE
  5
14F3
330
2
100
AcDbEntity
  8
0
100
AcDbLine
 10
111.1134903242286
 20
209.942092105519
 30
0.0
 11
103.6134903242286
 21
209.9420921055191
 31
0.0
  0
ARC
  5
14F4
330
2
100
AcDbEntity
  8
0
100
AcDbCircle
 10
107.1134903242286
 20
203.5420921055191
 30
0.0
 40
9.0
100
AcDbArc
 50
74.11914999171549
 51
105.8808500082777
  0
SPLINE
  5
14F5
330
2
100
AcDbEntity
  8
0
100
AcDbSpline
210
0.0
220
0.0
230
1.0
 70
     8
 71
     3
 72
    11
 73
     7
 74
     0
 42
0.0000000001
 43
0.0000000001
 40
0.0
 40
0.0
 40
0.0
 40
0.0
 40
0.4601364636755307
 40
1.04988694485363
 40
1.713742833862792
 40
2.320347933405154
 40
2.320347933405154
 40
2.320347933405154
 40
2.320347933405179
 10
107.4009903246836
 20
211.025092105519
 30
0.0
 10
107.4234079817915
 20
211.1801155451989
 30
0.0
 10
107.4745580370247
 20
211.5338303631165
 30
0.0
 10
107.9104431985583
 20
211.9585580347181
 30
0.0
 10
108.5154939135658
 20
212.1777452146839
 30
0.0
 10
108.9406785377416
 20
212.1087539150734
 30
0.0
 10
109.1432301473927
 20
212.0945336428967
 30
0.0
  0
SPLINE
  5
14F6
330
2
100
AcDbEntity
  8
0
100
AcDbSpline
210
0.0
220
0.0
230
1.0
 70
     8
 71
     3
 72
    11
 73
     7
 74
     0
 42
0.0000000001
 43
0.0000000001
 40
0.0
 40
0.0
 40
0.0
 40
0.0
 40
0.4601364636755307
 40
1.04988694485363
 40
1.713742833862792
 40
2.320347933405154
 40
2.320347933405154
 40
2.320347933405154
 40
2.320347933405179
 10
106.8259903237735
 20
211.025092105519
 30
0.0
 10
106.8035726666657
 20
211.1801155451989
 30
0.0
 10
106.7524226114324
 20
211.5338303631165
 30
0.0
 10
106.3165374498988
 20
211.9585580347181
 30
0.0
 10
105.7114867348914
 20
212.1777452146839
 30
0.0
 10
105.2863021107156
 20
212.1087539150734
 30
0.0
 10
105.0837505010645
 20
212.0945336428967
 30
0.0
  0
LINE
  5
14F7
330
2
100
AcDbEntity
  8
0
100
AcDbLine
 10
105.0837505010645
 20
212.0945336428967
 30
0.0
 11
105.0634903242286
 21
212.3055103883582
 31
0.0
  0
LINE
  5
14F8
330
2
100
AcDbEntity
  8
0
100
AcDbLine
 10
105.7755815082022
 20
212.442092105519
 30
0.0
 11
104.6134903242286
 21
212.442092105519
 31
0.0
  0
LINE
  5
14F9
330
2
100
AcDbEntity
  8
0
100
AcDbLine
 10
106.8259903237735
 20
211.025092105519
 30
0.0
 11
107.4009903246836
 21
211.025092105519
 31
0.0
  0
LINE
  5
14FA
330
2
100
AcDbEntity
  8
0
100
AcDbLine
 10
111.6134903242286
 20
212.442092105519
 30
0.0
 11
111.1134903242286
 21
211.942092105519
 31
0.0
  0
LINE
  5
14FB
330
2
100
AcDbEntity
  8
0
100
AcDbLine
 10
111.1134903242286
 20
209.942092105519
 30
0.0
 11
111.1134903242286
 21
211.9420921055191
 31
0.0
  0
LINE
  5
14FC
330
2
100
AcDbEntity
  8
0
100
AcDbLine
 10
109.1432301473927
 20
212.0945336428967
 30
0.0
 11
109.1634903242286
 21
212.3055103883582
 31
0.0
  0
LINE
  5
14FD
330
2
100
AcDbEntity
  8
0
100
AcDbLine
 10
110.6134903242286
 20
209.9420921055191
 30
0.0
 11
110.5155541853407
 21
211.0615072953373
 31
0.0
  0
ARC
  5
14FE
330
2
100
AcDbEntity
  8
0
100
AcDbCircle
 10
109.2205010778216
 20
210.9482048297654
 30
0.0
 40
1.3
100
AcDbArc
 50
5.000000000000026
 51
74.11914999171549
  0
LINE
  5
14FF
330
2
100
AcDbEntity
  8
0
100
AcDbLine
 10
111.1134903242286
 20
211.942092105519
 30
0.0
 11
110.058467713849
 21
211.942092105519
 31
0.0
  0
LINE
  5
1500
330
2
100
AcDbEntity
  8
0
100
AcDbLine
 10
153.6134903242286
 20
211.442092105519
 30
0.0
 11
153.6134903242286
 21
169.442077105519
 31
0.0
  0
LINE
  5
1502
330
2
100
AcDbEntity
  8
0
100
AcDbLine
 10
151.1134903242286
 20
167.442077105519
 30
0.0
 11
151.1134903242286
 21
165.942077105519
 31
0.0
  0
LINE
  5
1503
330
2
100
AcDbEntity
  8
0
100
AcDbLine
 10
151.6134903242286
 20
167.442077105519
 30
0.0
 11
153.6134903242286
 21
169.442077105519
 31
0.0
  0
ARC
  5
1504
330
2
100
AcDbEntity
  8
0
100
AcDbCircle
 10
150.1134903242288
 20
203.5420921055191
 30
0.0
 40
9.0
100
AcDbArc
 50
74.11914999171549
 51
105.8808500082777
  0
SPLINE
  5
1505
330
2
100
AcDbEntity
  8
0
100
AcDbSpline
210
0.0
220
0.0
230
1.0
 70
     8
 71
     3
 72
    11
 73
     7
 74
     0
 42
0.0000000001
 43
0.0000000001
 40
0.0
 40
0.0
 40
0.0
 40
0.0
 40
0.4601364636755307
 40
1.04988694485363
 40
1.713742833862792
 40
2.320347933405154
 40
2.320347933405154
 40
2.320347933405154
 40
2.320347933405179
 10
150.4009903246837
 20
211.025092105519
 30
0.0
 10
150.4234079817916
 20
211.1801155451989
 30
0.0
 10
150.4745580370249
 20
211.5338303631165
 30
0.0
 10
150.9104431985585
 20
211.9585580347181
 30
0.0
 10
151.5154939135659
 20
212.1777452146839
 30
0.0
 10
151.9406785377418
 20
212.1087539150734
 30
0.0
 10
152.1432301473928
 20
212.0945336428967
 30
0.0
  0
LINE
  5
1506
330
2
100
AcDbEntity
  8
0
100
AcDbLine
 10
146.1134903242286
 20
209.942092105519
 30
0.0
 11
153.6134903242286
 21
209.9420921055191
 31
0.0
  0
SPLINE
  5
1507
330
2
100
AcDbEntity
  8
0
100
AcDbSpline
210
0.0
220
0.0
230
1.0
 70
     8
 71
     3
 72
    11
 73
     7
 74
     0
 42
0.0000000001
 43
0.0000000001
 40
0.0
 40
0.0
 40
0.0
 40
0.0
 40
0.4601364636755307
 40
1.04988694485363
 40
1.713742833862792
 40
2.320347933405154
 40
2.320347933405154
 40
2.320347933405154
 40
2.320347933405179
 10
149.8259903237737
 20
211.025092105519
 30
0.0
 10
149.8035726666659
 20
211.1801155451989
 30
0.0
 10
149.7524226114326
 20
211.5338303631165
 30
0.0
 10
149.3165374498989
 20
211.9585580347181
 30
0.0
 10
148.7114867348916
 20
212.1777452146839
 30
0.0
 10
148.2863021107157
 20
212.1087539150734
 30
0.0
 10
148.0837505010647
 20
212.0945336428967
 30
0.0
  0
LINE
  5
1508
330
2
100
AcDbEntity
  8
0
100
AcDbLine
 10
148.0837505010647
 20
212.0945336428967
 30
0.0
 11
148.0634903242287
 21
212.3055103883582
 31
0.0
  0
ARC
  5
1509
330
2
100
AcDbEntity
  8
0
100
AcDbCircle
 10
148.0064795706357
 20
210.9482048297654
 30
0.0
 40
1.3
100
AcDbArc
 50
105.8808500082777
 51
174.9999999999999
  0
LINE
  5
150A
330
2
100
AcDbEntity
  8
0
100
AcDbLine
 10
146.1134903242286
 20
211.942092105519
 30
0.0
 11
147.1685129346083
 21
211.942092105519
 31
0.0
  0
LINE
  5
150B
330
2
100
AcDbEntity
  8
0
100
AcDbLine
 10
145.6134903242286
 20
212.442092105519
 30
0.0
 11
146.1134903242286
 21
211.942092105519
 31
0.0
  0
LINE
  5
150C
330
2
100
AcDbEntity
  8
0
100
AcDbLine
 10
150.4009903246837
 20
211.025092105519
 30
0.0
 11
149.8259903237737
 21
211.025092105519
 31
0.0
  0
LINE
  5
150D
330
2
100
AcDbEntity
  8
0
100
AcDbLine
 10
146.6134903242287
 20
209.9420921055191
 30
0.0
 11
146.7114264631165
 21
211.0615072953373
 31
0.0
  0
LINE
  5
150E
330
2
100
AcDbEntity
  8
0
100
AcDbLine
 10
146.1134903242286
 20
209.942092105519
 30
0.0
 11
146.1134903242286
 21
211.9420921055191
 31
0.0
  0
LINE
  5
150F
330
2
100
AcDbEntity
  8
0
100
AcDbLine
 10
151.4513991402552
 20
212.442092105519
 30
0.0
 11
152.6134903242286
 21
212.442092105519
 31
0.0
  0
LINE
  5
1510
330
2
100
AcDbEntity
  8
0
100
AcDbLine
 10
152.1432301473928
 20
212.0945336428967
 30
0.0
 11
152.1634903242288
 21
212.3055103883582
 31
0.0
  0
ARC
  5
1511
330
2
100
AcDbEntity
  8
0
100
AcDbCircle
 10
152.2205010778216
 20
210.9482048297654
 30
0.0
 40
1.3
100
AcDbArc
 50
5.000000000000026
 51
74.11914999171549
  0
LINE
  5
1512
330
2
100
AcDbEntity
  8
0
100
AcDbLine
 10
152.6134903242286
 20
212.442092105519
 30
0.0
 11
153.6134903242286
 21
211.442092105519
 31
0.0
  0
LINE
  5
1513
330
2
100
AcDbEntity
  8
0
100
AcDbLine
 10
153.6134903242286
 20
209.9420921055191
 30
0.0
 11
153.5155541853408
 21
211.0615072953373
 31
0.0
  0
LINE
  5
160A
330
2
100
AcDbEntity
  8
0
100
AcDbLine
 10
376.4879160828584
 20
167.942077105519
 30
0.0
 11
371.5589910828585
 21
167.942077105519
 31
0.0
  0
LINE
  5
160C
330
2
100
AcDbEntity
  8
0
100
AcDbLine
 10
104.1134903242286
 20
329.2621452097661
 30
0.0
 11
104.1134903242286
 21
297.7622522097661
 31
0.0
  0
ENDSEC
  0
SECTION
  2
OBJECTS
  0
DICTIONARY
  5
7
330
0
100
AcDbDictionary
  3
ACAD_GROUP
350
75
  3
ACAD_LAYOUT
350
61
  3
ACAD_MLINESTYLE
350
76
  3
ACAD_PLOTSETTINGS
350
77
  3
ACAD_PLOTSTYLENAME
350
6
  3
ACADDIM
350
480
  3
ACDBHEADERROUNDTRIPXREC
350
1873
  3
ACDBVARIABLEDICTIONARY
350
102
  3
DWGPROPS
350
3D2
  0
DICTIONARY
  5
1894
330
2
100
AcDbDictionary
280
     1
  3
ACAD_LAYOUTSELFREF
360
1895
  0
DICTIONARY
  5
1896
330
186D
100
AcDbDictionary
280
     1
  3
ACAD_LAYOUTSELFREF
360
1897
  0
DICTIONARY
  5
75
102
{ACAD_REACTORS
330
7
102
}
330
7
100
AcDbDictionary
  0
DICTIONARY
  5
61
102
{ACAD_REACTORS
330
7
102
}
330
7
100
AcDbDictionary
  0
DICTIONARY
  5
76
102
{ACAD_REACTORS
330
7
102
}
330
7
100
AcDbDictionary
  3
STANDARD
350
78
  0
DICTIONARY
  5
77
102
{ACAD_REACTORS
330
7
102
}
330
7
100
AcDbDictionary
  0
ACDBDICTIONARYWDFLT
  5
6
102
{ACAD_REACTORS
330
7
102
}
330
7
100
AcDbDictionary
281
     1
  3
Normal
350
5
100
AcDbDictionaryWithDefault
340
5
  0
XRECORD
  5
480
102
{ACAD_REACTORS
330
7
102
}
330
7
100
AcDbXrecord
 90
   990106
  3

 60
     0
 61
     0
 62
     1
 63
     3
 64
     1
 65
     0
 66
     0
 67
     3
 68
     1
 69
     0
 70
     0
 71
     0
 72
     0
 40
0.0
170
     2
  0
DICTIONARY
  5
1873
102
{ACAD_REACTORS
330
7
102
}
330
7
100
AcDbDictionary
  3
CEPSNTYPE
350
187D
  3
DIMSTYLEDATA
350
1881
  3
FINGERPRINTGUID
350
187E
  3
HYPERLINKBASE
350
1876
  3
INSUNITS
350
187C
  3
LAYOUTDICT
350
1878
  3
LWETCUNION
350
187B
  3
PLOTSETDICT
350
1879
  3
PLOTSTYLNAMDICT
350
187A
  3
PSVPSCALE
350
1880
  3
PUCSBASE
350
1884
  3
PUCSORGBACK
350
188A
  3
PUCSORGBOTTOM
350
1886
  3
PUCSORGFRONT
350
1889
  3
PUCSORGLEFT
350
1887
  3
PUCSORGRIGHT
350
1888
  3
PUCSORGTOP
350
1885
  3
PUCSORTHOREF
350
1882
  3
PUCSORTHOVIEW
350
1883
  3
STYLESHEET
350
1877
  3
TSTACKALIGN
350
1874
  3
TSTACKSIZE
350
1875
  3
UCSBASE
350
188D
  3
UCSORGBACK
350
1893
  3
UCSORGBOTTOM
350
188F
  3
UCSORGFRONT
350
1892
  3
UCSORGLEFT
350
1890
  3
UCSORGRIGHT
350
1891
  3
UCSORGTOP
350
188E
  3
UCSORTHOREF
350
188B
  3
UCSORTHOVIEW
350
188C
  3
VERSIONGUID
350
187F
  0
DICTIONARY
  5
102
102
{ACAD_REACTORS
330
7
102
}
330
7
100
AcDbDictionary
  3
DIMASSOC
350
103
  0
XRECORD
  5
3D2
102
{ACAD_REACTORS
330
7
102
}
330
7
100
AcDbXrecord
  1
DWGPROPS COOKIE
  2

  3

  4

  6

  7

  8

  9

300
=
301
=
302
=
303
=
304
=
305
=
306
=
307
=
308
=
309
=
 40
0.5353330671296296
 41
2452052.431989363
 42
2453406.550756377
  1

 90
        0
  0
XRECORD
  5
1895
102
{ACAD_REACTORS
330
1894
102
}
330
1894
100
AcDbXrecord
340
2
  0
XRECORD
  5
1897
102
{ACAD_REACTORS
330
1896
102
}
330
1896
100
AcDbXrecord
340
186D
  0
MLINESTYLE
  5
78
102
{ACAD_REACTORS
330
76
102
}
330
76
100
AcDbMlineStyle
  2
STANDARD
 70
     0
  3

 62
     0
 51
90.0
 52
90.0
 71
     2
 49
0.5
 62
   256
  6
BYLAYER
 49
-0.5
 62
   256
  6
BYLAYER
  0
ACDBPLACEHOLDER
  5
5
102
{ACAD_REACTORS
330
6
102
}
330
6
100
AcDbPlaceHolder
280
     0
  0
XRECORD
  5
187D
102
{ACAD_REACTORS
330
1873
102
}
330
1873
100
AcDbXrecord
 90
        0
  0
XRECORD
  5
1881
102
{ACAD_REACTORS
330
1873
102
}
330
1873
100
AcDbXrecord
1000
DSTYLE
1002
{
1070
   179
 70
     2
1070
   277
 70
     6
1002
}
  0
XRECORD
  5
187E
102
{ACAD_REACTORS
330
1873
102
}
330
1873
100
AcDbXrecord
  1
{6385560B-F4B1-4644-A7C2-A3E32AC3D232}
  0
XRECORD
  5
1876
102
{ACAD_REACTORS
330
1873
102
}
330
1873
100
AcDbXrecord
  1

  0
XRECORD
  5
187C
102
{ACAD_REACTORS
330
1873
102
}
330
1873
100
AcDbXrecord
 90
        0
  0
XRECORD
  5
1878
102
{ACAD_REACTORS
330
1873
102
}
330
1873
100
AcDbXrecord
340
61
  0
XRECORD
  5
187B
102
{ACAD_REACTORS
330
1873
102
}
330
1873
100
AcDbXrecord
 90
    10781
  0
XRECORD
  5
1879
102
{ACAD_REACTORS
330
1873
102
}
330
1873
100
AcDbXrecord
340
77
  0
XRECORD
  5
187A
102
{ACAD_REACTORS
330
1873
102
}
330
1873
100
AcDbXrecord
340
6
  0
XRECORD
  5
1880
102
{ACAD_REACTORS
330
1873
102
}
330
1873
100
AcDbXrecord
 40
0.0
  0
XRECORD
  5
1884
102
{ACAD_REACTORS
330
1873
102
}
330
1873
100
AcDbXrecord
340
0
  0
XRECORD
  5
188A
102
{ACAD_REACTORS
330
1873
102
}
330
1873
100
AcDbXrecord
 10
0.0
 20
0.0
 30
0.0
  0
XRECORD
  5
1886
102
{ACAD_REACTORS
330
1873
102
}
330
1873
100
AcDbXrecord
 10
0.0
 20
0.0
 30
0.0
  0
XRECORD
  5
1889
102
{ACAD_REACTORS
330
1873
102
}
330
1873
100
AcDbXrecord
 10
0.0
 20
0.0
 30
0.0
  0
XRECORD
  5
1887
102
{ACAD_REACTORS
330
1873
102
}
330
1873
100
AcDbXrecord
 10
0.0
 20
0.0
 30
0.0
  0
XRECORD
  5
1888
102
{ACAD_REACTORS
330
1873
102
}
330
1873
100
AcDbXrecord
 10
0.0
 20
0.0
 30
0.0
  0
XRECORD
  5
1885
102
{ACAD_REACTORS
330
1873
102
}
330
1873
100
AcDbXrecord
 10
0.0
 20
0.0
 30
0.0
  0
XRECORD
  5
1882
102
{ACAD_REACTORS
330
1873
102
}
330
1873
100
AcDbXrecord
340
0
  0
XRECORD
  5
1883
102
{ACAD_REACTORS
330
1873
102
}
330
1873
100
AcDbXrecord
 70
     0
  0
XRECORD
  5
1877
102
{ACAD_REACTORS
330
1873
102
}
330
1873
100
AcDbXrecord
  1
Sekkei.ctb
  0
XRECORD
  5
1874
102
{ACAD_REACTORS
330
1873
102
}
330
1873
100
AcDbXrecord
 90
        1
  0
XRECORD
  5
1875
102
{ACAD_REACTORS
330
1873
102
}
330
1873
100
AcDbXrecord
 90
       70
  0
XRECORD
  5
188D
102
{ACAD_REACTORS
330
1873
102
}
330
1873
100
AcDbXrecord
340
0
  0
XRECORD
  5
1893
102
{ACAD_REACTORS
330
1873
102
}
330
1873
100
AcDbXrecord
 10
0.0
 20
0.0
 30
0.0
  0
XRECORD
  5
188F
102
{ACAD_REACTORS
330
1873
102
}
330
1873
100
AcDbXrecord
 10
0.0
 20
0.0
 30
0.0
  0
XRECORD
  5
1892
102
{ACAD_REACTORS
330
1873
102
}
330
1873
100
AcDbXrecord
 10
0.0
 20
0.0
 30
0.0
  0
XRECORD
  5
1890
102
{ACAD_REACTORS
330
1873
102
}
330
1873
100
AcDbXrecord
 10
0.0
 20
0.0
 30
0.0
  0
XRECORD
  5
1891
102
{ACAD_REACTORS
330
1873
102
}
330
1873
100
AcDbXrecord
 10
0.0
 20
0.0
 30
0.0
  0
XRECORD
  5
188E
102
{ACAD_REACTORS
330
1873
102
}
330
1873
100
AcDbXrecord
 10
0.0
 20
0.0
 30
0.0
  0
XRECORD
  5
188B
102
{ACAD_REACTORS
330
1873
102
}
330
1873
100
AcDbXrecord
340
0
  0
XRECORD
  5
188C
102
{ACAD_REACTORS
330
1873
102
}
330
1873
100
AcDbXrecord
 70
     0
  0
XRECORD
  5
187F
102
{ACAD_REACTORS
330
1873
102
}
330
1873
100
AcDbXrecord
  1
{2AC07BB9-B825-40BA-AC17-F9E1614C7786}
  0
DICTIONARYVAR
  5
103
102
{ACAD_REACTORS
330
102
102
}
330
102
100
DictionaryVariables
280
     0
  1
1
  0
ENDSEC
  0
EOF
