  0
SECTION
  2
HEADER
  9
$CLAYER
  8
1
  9
$LTSCALE
 40
3.0
  0
ENDSEC
  0
SECTION
  2
TABLES
  0
TABLE
  2
LTYPE
 70
     4
  0
LTYPE
  2
CONTINUOUS
  3
solid line
 70
    64
 72
    65
 73
     0
 40
0.0
  0
LTYPE
  2
DASHED
  3
__ __ __ __ __ __ __ __ __ __ __ __ __ __ __
 70
    64
 72
    65
 73
     2
 40
0.75
 49
0.5
 49
-0.25
  0
LTYPE
  2
CENTER
  3
____ _ ____ _ ____ _ ____ _ ____ _ ____ _ ____
 70
    64
 72
    65
 73
     4
 40
2.0
 49
1.25
 49
-0.25
 49
0.25
 49
-0.25
  0
LTYPE
  2
PHANTOM
  3
_____ _ _ _____ _ _ _____ _ _ _____ _ _ ____
 70
    64
 72
    65
 73
     6
 40
2.5
 49
1.25
 49
-0.25
 49
0.25
 49
-0.25
 49
0.25
 49
-0.25
  0
ENDTAB
  0
TABLE
  2
LAYER
 70
     1
  0
LAYER
  2
0
 70
    64
 62
     7
  6
CONTINUOUS
  0
ENDTAB
  0
TABLE
  2
STYLE
 70
     1
  0
STYLE
  2
STANDARD
 70
     0
 40
0.000000
 41
1.000000
 50
0.000000
 71
     0
 42
3.000000
  3
txt
  4
BIGFONT
  0
ENDTAB
  0
ENDSEC
  0
SECTION
  2
BLOCKS
  0
ENDSEC
  0
SECTION
  2
ENTITIES
  0
LINE
  8
0
  6
CENTER
 10
-11.492500
 20
299.864838
 11
231.032974
 21
299.864838
  0
LINE
  8
0
  6
CONTINUOUS
 10
58.377541
 20
352.864838
 11
188.377502
 21
352.864838
  0
LINE
  8
0
  6
CONTINUOUS
 10
58.377541
 20
246.864838
 11
188.377502
 21
246.864838
  0
LINE
  8
0
  6
CONTINUOUS
 10
188.377502
 20
237.864838
 11
188.377502
 21
361.864838
  0
LINE
  8
0
  6
CONTINUOUS
 10
185.377502
 20
364.864838
 11
131.377502
 21
364.864838
  0
LINE
  8
0
  6
CONTINUOUS
 10
131.377502
 20
234.864838
 11
185.377502
 21
234.864838
  0
LINE
  8
0
  6
CONTINUOUS
 10
128.377502
 20
361.864838
 11
128.377502
 21
352.864838
  0
LINE
  8
0
  6
CONTINUOUS
 10
128.377502
 20
237.864838
 11
128.377502
 21
246.864838
  0
ARC
  8
0
  6
CONTINUOUS
 10
131.377502
 20
361.864838
 40
3.000000
 50
90.000000
 51
180.000000
  0
ARC
  8
0
  6
CONTINUOUS
 10
185.377502
 20
361.864838
 40
3.000000
 50
0.000000
 51
90.000000
  0
ARC
  8
0
  6
CONTINUOUS
 10
185.377502
 20
237.864838
 40
3.000000
 50
-90.000000
 51
0.000000
  0
ARC
  8
0
  6
CONTINUOUS
 10
131.377502
 20
237.864838
 40
3.000000
 50
180.000000
 51
270.000000
  0
LINE
  8
0
  6
CONTINUOUS
 10
49.877499
 20
352.864838
 11
58.377541
 21
352.864838
  0
LINE
  8
0
  6
CONTINUOUS
 10
49.877499
 20
246.864853
 11
58.377541
 21
246.864853
  0
LINE
  8
0
  6
CONTINUOUS
 10
58.377541
 20
331.364838
 11
49.877499
 21
331.364838
  0
LINE
  8
0
  6
CONTINUOUS
 10
58.377541
 20
268.364838
 11
49.877499
 21
268.364838
  0
LINE
  8
0
  6
CONTINUOUS
 10
58.377541
 20
246.864853
 11
58.377541
 21
268.864838
  0
LINE
  8
0
  6
CONTINUOUS
 10
58.377541
 20
331.364838
 11
188.377502
 21
331.364838
  0
LINE
  8
0
  6
CONTINUOUS
 10
58.377541
 20
268.364838
 11
188.377502
 21
268.364838
  0
LINE
  8
0
  6
CONTINUOUS
 10
193.377502
 20
277.364838
 11
193.377502
 21
322.364838
  0
LINE
  8
0
  6
CONTINUOUS
 10
192.377502
 20
323.364838
 11
188.377502
 21
323.364838
  0
LINE
  8
0
  6
CONTINUOUS
 10
192.377502
 20
276.364838
 11
188.377502
 21
276.364838
  0
ARC
  8
0
  6
CONTINUOUS
 10
192.377502
 20
322.364838
 40
1.000000
 50
0.000000
 51
90.000000
  0
ARC
  8
0
  6
CONTINUOUS
 10
192.377502
 20
277.364838
 40
1.000000
 50
-90.000000
 51
0.000000
  0
LINE
  8
0
  6
CONTINUOUS
 10
225.377502
 20
288.364838
 11
225.377502
 21
308.864838
  0
LINE
  8
0
  6
CONTINUOUS
 10
195.377502
 20
308.864838
 11
225.377502
 21
308.864838
  0
LINE
  8
0
  6
CONTINUOUS
 10
195.377502
 20
290.864838
 11
198.377502
 21
290.864838
  0
LINE
  8
0
  6
CONTINUOUS
 10
195.377502
 20
309.864838
 11
195.377502
 21
289.864838
  0
LINE
  8
0
  6
CONTINUOUS
 10
193.377502
 20
309.864838
 11
195.377502
 21
309.864838
  0
LINE
  8
0
  6
CONTINUOUS
 10
193.377502
 20
289.864838
 11
195.377502
 21
289.864838
  0
LINE
  8
0
  6
CONTINUOUS
 10
166.377518
 20
246.864838
 11
166.377518
 21
236.726868
  0
LINE
  8
0
  6
CONTINUOUS
 10
150.377518
 20
246.864838
 11
150.377518
 21
236.726868
  0
LINE
  8
0
  6
CENTER
 10
178.377502
 20
253.103592
 11
178.377502
 21
236.114136
  0
LINE
  8
0
  6
CENTER
 10
138.377502
 20
253.883438
 11
138.377502
 21
236.392654
  0
LINE
  8
0
  6
CENTER
 10
130.321732
 20
244.864838
 11
147.144073
 21
244.864838
  0
LINE
  8
0
  6
CENTER
 10
170.427979
 20
244.864838
 11
186.748993
 21
244.864838
  0
ARC
  8
0
  6
CONTINUOUS
 10
178.377502
 20
244.864838
 40
4.250000
 50
-208.072495
 51
28.072487
  0
ARC
  8
0
  6
DASHED
 10
138.377502
 20
244.864838
 40
4.250000
 50
28.072487
 51
151.927505
  0
ARC
  8
0
  6
CONTINUOUS
 10
138.377502
 20
244.864838
 40
4.250000
 50
-208.072495
 51
28.072487
  0
ARC
  8
0
  6
DASHED
 10
178.377502
 20
244.864838
 40
4.250000
 50
28.072487
 51
151.927505
  0
LINE
  8
0
  6
CONTINUOUS
 10
198.377502
 20
291.379852
 11
198.377502
 21
288.364838
  0
LINE
  8
0
  6
CONTINUOUS
 10
198.377502
 20
288.364838
 11
225.377502
 21
288.364838
  0
LINE
  8
0
  6
CONTINUOUS
 10
198.377502
 20
291.379852
 11
225.377502
 21
291.379852
  0
LINE
  8
0
  6
CONTINUOUS
 10
58.377541
 20
330.864838
 11
58.377541
 21
352.864838
  0
LINE
  8
0
  6
CONTINUOUS
 10
166.377518
 20
352.864838
 11
166.377518
 21
363.002808
  0
LINE
  8
0
  6
CONTINUOUS
 10
150.377518
 20
352.864838
 11
150.377518
 21
363.002808
  0
LINE
  8
0
  6
CENTER
 10
178.377502
 20
346.626099
 11
178.377502
 21
363.615540
  0
LINE
  8
0
  6
CENTER
 10
138.377502
 20
345.846252
 11
138.377502
 21
363.337036
  0
LINE
  8
0
  6
CENTER
 10
130.321732
 20
354.864838
 11
147.144073
 21
354.864838
  0
LINE
  8
0
  6
CENTER
 10
170.427979
 20
354.864838
 11
186.748993
 21
354.864838
  0
ARC
  8
0
  6
CONTINUOUS
 10
178.377502
 20
354.864838
 40
4.250000
 50
-28.072487
 51
208.072495
  0
ARC
  8
0
  6
DASHED
 10
138.377502
 20
354.864838
 40
4.250000
 50
-151.927505
 51
-28.072487
  0
ARC
  8
0
  6
CONTINUOUS
 10
138.377502
 20
354.864838
 40
4.250000
 50
-28.072487
 51
208.072495
  0
ARC
  8
0
  6
DASHED
 10
178.377502
 20
354.864838
 40
4.250000
 50
-151.927505
 51
-28.072487
  0
LINE
  8
0
  6
CONTINUOUS
 10
49.877499
 20
118.091248
 11
49.877499
 21
8.091250
  0
LINE
  8
0
  6
CONTINUOUS
 10
49.877499
 20
116.091248
 11
58.377499
 21
116.091248
  0
LINE
  8
0
  6
CONTINUOUS
 10
49.877499
 20
10.091250
 11
58.377499
 21
10.091250
  0
LINE
  8
0
  6
CONTINUOUS
 10
49.877499
 20
105.653847
 11
58.377499
 21
105.653847
  0
LINE
  8
0
  6
CONTINUOUS
 10
49.877499
 20
20.407150
 11
58.377499
 21
20.407150
  0
LINE
  8
0
  6
CONTINUOUS
 10
10.877500
 20
118.091248
 11
49.877499
 21
118.091248
  0
LINE
  8
0
  6
CONTINUOUS
 10
10.877500
 20
8.091250
 11
49.877499
 21
8.091250
  0
LINE
  8
0
  6
CONTINUOUS
 10
0.877500
 20
18.091249
 11
0.877500
 21
108.091248
  0
LINE
  8
0
  6
CONTINUOUS
 10
5.877500
 20
93.591248
 11
49.877499
 21
93.591248
  0
LINE
  8
0
  6
CONTINUOUS
 10
5.877500
 20
32.591251
 11
49.877499
 21
32.591251
  0
ARC
  8
0
  6
CONTINUOUS
 10
10.877500
 20
108.091248
 40
10.000000
 50
90.000000
 51
180.000000
  0
ARC
  8
0
  6
CONTINUOUS
 10
10.877500
 20
18.091249
 40
10.000000
 50
180.000000
 51
270.000000
  0
LINE
  8
0
  6
CONTINUOUS
 10
58.377499
 20
10.091250
 11
58.377499
 21
116.091248
  0
LINE
  8
0
  6
CENTER
 10
-8.932188
 20
63.091251
 11
201.127502
 21
63.091251
  0
LINE
  8
0
  6
CONTINUOUS
 10
188.377502
 20
11.091250
 11
188.377502
 21
3.091250
  0
LINE
  8
0
  6
CONTINUOUS
 10
128.377502
 20
11.091250
 11
128.377502
 21
3.091250
  0
LINE
  8
0
  6
CENTER
 10
138.377502
 20
16.966249
 11
138.377502
 21
-2.158750
  0
LINE
  8
0
  6
CENTER
 10
178.377502
 20
17.341249
 11
178.377502
 21
-1.408750
  0
LINE
  8
0
  6
CENTER
 10
164.314301
 20
78.091248
 11
234.377502
 21
78.091248
  0
LINE
  8
0
  6
CONTINUOUS
 10
128.377502
 20
3.091250
 11
188.377502
 21
3.091250
  0
LINE
  8
0
  6
CONTINUOUS
 10
58.377499
 20
116.091248
 11
188.377502
 21
116.091248
  0
LINE
  8
0
  6
CONTINUOUS
 10
58.377499
 20
10.091250
 11
128.377502
 21
10.091250
  0
LINE
  8
0
  6
CONTINUOUS
 10
166.377502
 20
31.872650
 11
166.377502
 21
15.091250
  0
LINE
  8
0
  6
CONTINUOUS
 10
150.377502
 20
31.872650
 11
150.377502
 21
15.091250
  0
LINE
  8
0
  6
CONTINUOUS
 10
130.377502
 20
13.091250
 11
186.377502
 21
13.091250
  0
LINE
  8
0
  6
CONTINUOUS
 10
188.377502
 20
11.091250
 11
188.377502
 21
116.091248
  0
ARC
  8
0
  6
CONTINUOUS
 10
186.377502
 20
11.091250
 40
2.000000
 50
0.000000
 51
90.000000
  0
LINE
  8
0
  6
CONTINUOUS
 10
128.377502
 20
27.764650
 11
128.377502
 21
11.091250
  0
ARC
  8
0
  6
CONTINUOUS
 10
130.377502
 20
11.091250
 40
2.000000
 50
90.000000
 51
180.000000
  0
LINE
  8
0
  6
DASHED
 10
182.627502
 20
13.091250
 11
182.627502
 21
3.091250
  0
LINE
  8
0
  6
DASHED
 10
174.127502
 20
13.091250
 11
174.127502
 21
3.091250
  0
LINE
  8
0
  6
DASHED
 10
142.627502
 20
13.091250
 11
142.627502
 21
3.091250
  0
LINE
  8
0
  6
DASHED
 10
134.127502
 20
13.091250
 11
134.127502
 21
3.091250
  0
LINE
  8
0
  6
CONTINUOUS
 10
58.377499
 20
105.714653
 11
188.377502
 21
105.714653
  0
LINE
  8
0
  6
CONTINUOUS
 10
58.377499
 20
20.467850
 11
128.377502
 21
20.467850
  0
LINE
  8
0
  6
CONTINUOUS
 10
193.377502
 20
55.591251
 11
193.377502
 21
100.591248
  0
LINE
  8
0
  6
CONTINUOUS
 10
192.377502
 20
101.591248
 11
188.377502
 21
101.591248
  0
LINE
  8
0
  6
CONTINUOUS
 10
192.377502
 20
54.591251
 11
188.377502
 21
54.591251
  0
ARC
  8
0
  6
CONTINUOUS
 10
192.377502
 20
100.591248
 40
1.000000
 50
0.000000
 51
90.000000
  0
ARC
  8
0
  6
CONTINUOUS
 10
192.377502
 20
55.591251
 40
1.000000
 50
-90.000000
 51
0.000000
  0
ARC
  8
0
  6
CONTINUOUS
 10
131.377502
 20
27.764650
 40
3.000000
 50
90.000000
 51
180.000000
  0
LINE
  8
0
  6
CONTINUOUS
 10
131.377502
 20
30.764650
 11
149.752502
 21
30.764650
  0
LINE
  8
0
  6
CONTINUOUS
 10
187.752502
 20
30.764650
 11
167.002502
 21
30.764650
  0
ARC
  8
0
  6
CONTINUOUS
 10
168.377502
 20
31.872650
 40
2.000000
 50
90.000000
 51
180.000000
  0
ARC
  8
0
  6
CONTINUOUS
 10
148.377502
 20
31.872650
 40
2.000000
 50
0.000000
 51
90.000000
  0
ARC
  8
0
  6
CONTINUOUS
 10
168.377502
 20
15.091250
 40
2.000000
 50
180.000000
 51
270.000000
  0
ARC
  8
0
  6
CONTINUOUS
 10
148.377502
 20
15.091250
 40
2.000000
 50
-90.000000
 51
0.000000
  0
LINE
  8
0
  6
CONTINUOUS
 10
225.377502
 20
69.091248
 11
225.377502
 21
87.091248
  0
LINE
  8
0
  6
CONTINUOUS
 10
195.377502
 20
87.091248
 11
225.377502
 21
87.091248
  0
LINE
  8
0
  6
CONTINUOUS
 10
195.377502
 20
69.091248
 11
225.377502
 21
69.091248
  0
LINE
  8
0
  6
CONTINUOUS
 10
195.377502
 20
88.091248
 11
195.377502
 21
68.091248
  0
LINE
  8
0
  6
CONTINUOUS
 10
193.377502
 20
88.091248
 11
195.377502
 21
88.091248
  0
LINE
  8
0
  6
CONTINUOUS
 10
193.377502
 20
68.091248
 11
195.377502
 21
68.091248
  0
ARC
  8
0
  6
CONTINUOUS
 10
201.377502
 20
78.091248
 40
3.000000
 50
90.000000
 51
270.000000
  0
LINE
  8
0
  6
CONTINUOUS
 10
201.377502
 20
81.091248
 11
225.377502
 21
81.091248
  0
LINE
  8
0
  6
CONTINUOUS
 10
201.377502
 20
75.091248
 11
225.377502
 21
75.091248
  0
LINE
  8
0
  6
CENTER
 10
360.877502
 20
-6.658750
 11
360.877502
 21
176.948746
  0
LINE
  8
0
  6
CENTER
 10
294.877502
 20
63.091251
 11
424.377502
 21
63.091251
  0
LINE
  8
0
  6
CONTINUOUS
 10
400.877502
 20
3.091250
 11
425.877502
 21
3.091250
  0
LINE
  8
0
  6
CONTINUOUS
 10
425.877502
 20
11.091250
 11
425.877502
 21
3.091250
  0
LINE
  8
0
  6
CONTINUOUS
 10
399.877502
 20
4.091250
 11
360.877502
 21
4.091250
  0
LINE
  8
0
  6
CONTINUOUS
 10
407.877502
 20
13.091250
 11
423.877502
 21
13.091250
  0
LINE
  8
0
  6
CONTINUOUS
 10
392.377502
 20
113.576050
 11
392.377502
 21
105.714653
  0
LINE
  8
0
  6
CENTER
 10
415.877502
 20
17.591249
 11
415.877502
 21
-3.158750
  0
LINE
  8
0
  6
DASHED
 10
420.127502
 20
13.091250
 11
420.127502
 21
3.091250
  0
LINE
  8
0
  6
DASHED
 10
411.627502
 20
13.091250
 11
411.627502
 21
3.091250
  0
LINE
  8
0
  6
CONTINUOUS
 10
390.412415
 20
115.575752
 11
360.877502
 21
116.091248
  0
ARC
  8
0
  6
CONTINUOUS
 10
390.377502
 20
113.576050
 40
2.000000
 50
0.000000
 51
89.000076
  0
LINE
  8
0
  6
CENTER
 10
334.450287
 20
78.091248
 11
389.804993
 21
78.091248
  0
LINE
  8
0
  6
CONTINUOUS
 10
320.877502
 20
3.091250
 11
295.877502
 21
3.091250
  0
LINE
  8
0
  6
CONTINUOUS
 10
295.877502
 20
11.091250
 11
295.877502
 21
3.091250
  0
LINE
  8
0
  6
CONTINUOUS
 10
321.877502
 20
4.091250
 11
360.877502
 21
4.091250
  0
LINE
  8
0
  6
CONTINUOUS
 10
313.877502
 20
13.091250
 11
297.877502
 21
13.091250
  0
LINE
  8
0
  6
CONTINUOUS
 10
329.377502
 20
113.576050
 11
329.377502
 21
105.714653
  0
LINE
  8
0
  6
CENTER
 10
305.877502
 20
17.591249
 11
305.877502
 21
-3.158750
  0
LINE
  8
0
  6
DASHED
 10
301.627502
 20
13.091250
 11
301.627502
 21
3.091250
  0
LINE
  8
0
  6
DASHED
 10
310.127502
 20
13.091250
 11
310.127502
 21
3.091250
  0
LINE
  8
0
  6
CONTINUOUS
 10
331.342590
 20
115.575752
 11
360.877502
 21
116.091248
  0
ARC
  8
0
  6
CONTINUOUS
 10
331.377502
 20
113.576050
 40
2.000000
 50
90.999924
 51
180.000000
  0
ARC
  8
0
  6
CONTINUOUS
 10
360.877502
 20
63.091251
 40
53.000000
 50
126.465599
 51
217.584595
  0
ARC
  8
0
  6
CONTINUOUS
 10
360.877502
 20
63.091251
 40
53.000000
 50
53.534370
 51
53.534382
  0
ARC
  8
0
  6
CONTINUOUS
 10
360.877502
 20
63.091251
 40
53.000000
 50
-37.584629
 51
53.534382
  0
LINE
  8
0
  6
CONTINUOUS
 10
408.877502
 20
78.783653
 11
408.877502
 21
47.399250
  0
LINE
  8
0
  6
CONTINUOUS
 10
312.877502
 20
78.783447
 11
312.877502
 21
47.398750
  0
ARC
  8
0
  6
CONTINUOUS
 10
360.877502
 20
63.091251
 40
50.500000
 50
18.103800
 51
161.896194
  0
ARC
  8
0
  6
CONTINUOUS
 10
360.877502
 20
63.091251
 40
50.500000
 50
198.103806
 51
341.896210
  0
LINE
  8
0
  6
CONTINUOUS
 10
318.877502
 20
18.091249
 11
318.877502
 21
30.764750
  0
ARC
  8
0
  6
CONTINUOUS
 10
407.877502
 20
18.091249
 40
5.000000
 50
180.000000
 51
270.000000
  0
ARC
  8
0
  6
CONTINUOUS
 10
313.877502
 20
18.091249
 40
5.000000
 50
-90.000000
 51
0.000000
  0
LINE
  8
0
  6
CONTINUOUS
 10
402.877502
 20
18.091249
 11
402.877502
 21
30.764851
  0
CIRCLE
  8
0
  6
CONTINUOUS
 10
360.877502
 20
78.091248
 40
23.500000
  0
ARC
  8
0
  6
CONTINUOUS
 10
423.877502
 20
11.091250
 40
2.000000
 50
0.000000
 51
90.000000
  0
LINE
  8
0
  6
CONTINUOUS
 10
425.291687
 20
12.505450
 11
404.661896
 21
33.135052
  0
ARC
  8
0
  6
CONTINUOUS
 10
297.877502
 20
11.091250
 40
2.000000
 50
90.000000
 51
180.000000
  0
LINE
  8
0
  6
CONTINUOUS
 10
296.463287
 20
12.505450
 11
317.093109
 21
33.135052
  0
LINE
  8
0
  6
CONTINUOUS
 10
400.877502
 20
3.091250
 11
399.877502
 21
4.091250
  0
LINE
  8
0
  6
CONTINUOUS
 10
320.877502
 20
3.091250
 11
321.877502
 21
4.091250
  0
LINE
  8
0
  6
CONTINUOUS
 10
354.502502
 20
40.644451
 11
354.502502
 21
35.091251
  0
LINE
  8
0
  6
CONTINUOUS
 10
357.690002
 20
42.661549
 11
357.690002
 21
44.653751
  0
LINE
  8
0
  6
CONTINUOUS
 10
364.065002
 20
42.661549
 11
364.065002
 21
44.653751
  0
LINE
  8
0
  6
CONTINUOUS
 10
360.254913
 20
43.483349
 11
360.254913
 21
36.137150
  0
LINE
  8
0
  6
CONTINUOUS
 10
361.450287
 20
43.483349
 11
361.450287
 21
36.137150
  0
LINE
  8
0
  6
CONTINUOUS
 10
367.725586
 20
43.483349
 11
367.725586
 21
36.087349
  0
LINE
  8
0
  6
CONTINUOUS
 10
368.821289
 20
39.561249
 11
368.821289
 21
36.087349
  0
LINE
  8
0
  6
CONTINUOUS
 10
352.989990
 20
43.383751
 11
349.918091
 21
43.383751
  0
LINE
  8
0
  6
CONTINUOUS
 10
349.918091
 20
43.383751
 11
349.198303
 21
42.491249
  0
LINE
  8
0
  6
CONTINUOUS
 10
349.284912
 20
44.653751
 11
348.127502
 21
43.171749
  0
LINE
  8
0
  6
CONTINUOUS
 10
349.198303
 20
36.982151
 11
349.929596
 21
36.211849
  0
LINE
  8
0
  6
CONTINUOUS
 10
348.127502
 20
36.332050
 11
349.357300
 21
35.091251
  0
LINE
  8
0
  6
CONTINUOUS
 10
348.127502
 20
43.171749
 11
348.127502
 21
36.332050
  0
LINE
  8
0
  6
CONTINUOUS
 10
349.198303
 20
42.491249
 11
349.198303
 21
36.982151
  0
LINE
  8
0
  6
CONTINUOUS
 10
353.581085
 20
42.812248
 11
352.977905
 21
43.383751
  0
LINE
  8
0
  6
CONTINUOUS
 10
353.571503
 20
44.653751
 11
354.502502
 21
43.620651
  0
LINE
  8
0
  6
CONTINUOUS
 10
353.581085
 20
42.661549
 11
354.502502
 21
42.661549
  0
LINE
  8
0
  6
CONTINUOUS
 10
349.284912
 20
44.653751
 11
353.571503
 21
44.653751
  0
LINE
  8
0
  6
CONTINUOUS
 10
353.581085
 20
39.598549
 11
351.912689
 21
39.598549
  0
LINE
  8
0
  6
CONTINUOUS
 10
353.581085
 20
38.602451
 11
353.581085
 21
39.399349
  0
LINE
  8
0
  6
CONTINUOUS
 10
351.588898
 20
36.211849
 11
349.929596
 21
36.211849
  0
ARC
  8
0
  6
CONTINUOUS
 10
351.588898
 20
38.204048
 40
1.992187
 50
-89.999786
 51
0.000109
  0
LINE
  8
0
  6
CONTINUOUS
 10
353.581085
 20
35.853550
 11
353.581085
 21
35.091251
  0
LINE
  8
0
  6
CONTINUOUS
 10
354.502502
 20
43.620651
 11
354.502502
 21
42.661549
  0
LINE
  8
0
  6
CONTINUOUS
 10
353.581085
 20
39.598549
 11
353.581085
 21
38.204048
  0
LINE
  8
0
  6
CONTINUOUS
 10
351.912689
 20
40.644451
 11
351.912689
 21
39.598549
  0
LINE
  8
0
  6
CONTINUOUS
 10
353.581085
 20
35.091251
 11
354.502502
 21
35.091251
  0
LINE
  8
0
  6
CONTINUOUS
 10
353.581085
 20
35.853550
 11
352.672485
 21
35.091251
  0
LINE
  8
0
  6
CONTINUOUS
 10
361.450287
 20
36.137150
 11
361.848694
 21
36.137150
  0
LINE
  8
0
  6
CONTINUOUS
 10
359.781799
 20
36.137150
 11
359.781799
 21
35.091251
  0
LINE
  8
0
  6
CONTINUOUS
 10
361.848694
 20
36.137150
 11
361.848694
 21
35.091251
  0
LINE
  8
0
  6
CONTINUOUS
 10
363.400085
 20
42.661549
 11
364.065002
 21
42.661549
  0
LINE
  8
0
  6
CONTINUOUS
 10
357.690002
 20
42.661549
 11
358.397614
 21
42.661549
  0
LINE
  8
0
  6
CONTINUOUS
 10
357.690002
 20
44.653751
 11
364.065002
 21
44.653751
  0
LINE
  8
0
  6
CONTINUOUS
 10
359.781799
 20
35.091251
 11
361.848694
 21
35.091251
  0
LINE
  8
0
  6
CONTINUOUS
 10
359.781799
 20
36.137150
 11
360.254913
 21
36.137150
  0
ARC
  8
0
  6
CONTINUOUS
 10
371.075012
 20
42.101250
 40
2.552490
 50
-73.981873
 51
90.003510
  0
ARC
  8
0
  6
CONTINUOUS
 10
371.075012
 20
42.101250
 40
1.557193
 50
-82.585274
 51
62.411850
  0
LINE
  8
0
  6
CONTINUOUS
 10
367.252502
 20
44.653751
 11
371.075012
 21
44.653751
  0
LINE
  8
0
  6
CONTINUOUS
 10
367.252502
 20
44.653751
 11
367.252502
 21
43.483349
  0
LINE
  8
0
  6
CONTINUOUS
 10
368.821289
 20
43.483349
 11
368.821289
 21
40.557152
  0
LINE
  8
0
  6
CONTINUOUS
 10
371.779388
 20
39.647850
 11
373.359192
 21
36.087349
  0
LINE
  8
0
  6
CONTINUOUS
 10
370.861786
 20
39.561249
 11
372.356812
 21
36.087349
  0
LINE
  8
0
  6
CONTINUOUS
 10
367.252502
 20
36.087349
 11
367.725586
 21
36.087349
  0
LINE
  8
0
  6
CONTINUOUS
 10
368.821289
 20
36.087349
 11
369.257111
 21
36.087349
  0
LINE
  8
0
  6
CONTINUOUS
 10
369.257111
 20
35.091251
 11
367.252502
 21
35.091251
  0
LINE
  8
0
  6
CONTINUOUS
 10
372.158295
 20
36.087349
 11
372.356812
 21
36.087349
  0
LINE
  8
0
  6
CONTINUOUS
 10
373.359192
 20
36.087349
 11
373.627502
 21
36.087349
  0
LINE
  8
0
  6
CONTINUOUS
 10
372.158295
 20
35.091251
 11
373.627502
 21
35.091251
  0
LINE
  8
0
  6
CONTINUOUS
 10
373.627502
 20
36.087349
 11
373.627502
 21
35.091251
  0
LINE
  8
0
  6
CONTINUOUS
 10
372.158295
 20
36.087349
 11
372.158295
 21
35.091251
  0
LINE
  8
0
  6
CONTINUOUS
 10
369.257111
 20
36.087349
 11
369.257111
 21
35.091251
  0
LINE
  8
0
  6
CONTINUOUS
 10
367.252502
 20
36.087349
 11
367.252502
 21
35.091251
  0
LINE
  8
0
  6
CONTINUOUS
 10
358.739990
 20
43.483349
 11
358.397614
 21
42.661549
  0
LINE
  8
0
  6
CONTINUOUS
 10
363.111298
 20
43.483349
 11
363.400085
 21
42.661549
  0
LINE
  8
0
  6
CONTINUOUS
 10
361.450287
 20
43.483349
 11
363.111298
 21
43.483349
  0
LINE
  8
0
  6
CONTINUOUS
 10
360.254913
 20
43.483349
 11
358.739990
 21
43.483349
  0
LINE
  8
0
  6
CONTINUOUS
 10
367.252502
 20
43.483349
 11
367.725586
 21
43.483349
  0
LINE
  8
0
  6
CONTINUOUS
 10
368.821289
 20
43.483349
 11
371.796204
 21
43.481449
  0
LINE
  8
0
  6
CONTINUOUS
 10
353.581085
 20
42.812248
 11
353.581085
 21
42.661549
  0
LINE
  8
0
  6
CONTINUOUS
 10
349.357300
 20
35.091251
 11
352.672485
 21
35.091251
  0
LINE
  8
0
  6
CONTINUOUS
 10
368.821289
 20
40.557152
 11
371.276001
 21
40.557152
  0
LINE
  8
0
  6
CONTINUOUS
 10
368.821289
 20
39.561249
 11
370.861786
 21
39.561249
  0
LINE
  8
0
  6
CONTINUOUS
 10
351.912689
 20
40.644451
 11
354.502502
 21
40.644451
  0
LINE
  8
0
  6
CONTINUOUS
 10
305.877502
 20
91.520149
 11
305.877502
 21
34.662350
  0
LINE
  8
0
  6
CONTINUOUS
 10
415.877502
 20
34.662350
 11
415.877502
 21
91.520149
  0
LINE
  8
0
  6
CONTINUOUS
 10
328.913086
 20
116.626747
 11
307.342010
 21
95.055748
  0
LINE
  8
0
  6
CONTINUOUS
 10
414.412994
 20
95.055748
 11
392.842010
 21
116.626747
  0
LINE
  8
0
  6
CONTINUOUS
 10
414.413086
 20
31.126751
 11
410.541687
 21
27.255350
  0
LINE
  8
0
  6
CONTINUOUS
 10
307.342010
 20
31.126751
 11
311.213287
 21
27.255449
  0
ARC
  8
0
  6
CONTINUOUS
 10
310.877502
 20
34.662350
 40
5.000000
 50
180.000000
 51
225.000397
  0
ARC
  8
0
  6
CONTINUOUS
 10
310.877502
 20
91.520248
 40
5.000000
 50
135.000397
 51
180.000000
  0
ARC
  8
0
  6
CONTINUOUS
 10
332.448608
 20
113.091248
 40
5.000000
 50
101.245857
 51
135.000198
  0
ARC
  8
0
  6
CONTINUOUS
 10
389.306488
 20
113.091248
 40
5.000000
 50
45.000198
 51
78.755119
  0
ARC
  8
0
  6
CONTINUOUS
 10
410.877502
 20
91.520149
 40
5.000000
 50
0.000000
 51
45.000160
  0
ARC
  8
0
  6
CONTINUOUS
 10
410.877502
 20
34.662251
 40
5.000000
 50
-44.999569
 51
0.000000
  0
LINE
  8
0
  6
CONTINUOUS
 10
355.377502
 20
81.091248
 11
355.377502
 21
75.091248
  0
LINE
  8
0
  6
CONTINUOUS
 10
349.377502
 20
81.091248
 11
349.377502
 21
75.091248
  0
LINE
  8
0
  6
CONTINUOUS
 10
349.377502
 20
81.091248
 11
355.377502
 21
81.091248
  0
LINE
  8
0
  6
CONTINUOUS
 10
349.377502
 20
75.091248
 11
355.377502
 21
75.091248
  0
ARC
  8
0
  6
CONTINUOUS
 10
360.877502
 20
78.091248
 40
9.000000
 50
-160.528793
 51
160.528793
  0
LINE
  8
0
  6
CONTINUOUS
 10
49.877499
 20
354.864838
 11
49.877499
 21
329.364838
  0
LINE
  8
0
  6
CONTINUOUS
 10
10.877500
 20
354.864838
 11
49.877499
 21
354.864838
  0
LINE
  8
0
  6
CONTINUOUS
 10
10.877500
 20
244.864838
 11
49.877499
 21
244.864838
  0
LINE
  8
0
  6
CONTINUOUS
 10
0.877500
 20
254.864838
 11
0.877500
 21
344.864838
  0
LINE
  8
0
  6
CONTINUOUS
 10
5.877500
 20
330.364838
 11
49.877499
 21
330.364838
  0
LINE
  8
0
  6
CONTINUOUS
 10
5.877500
 20
269.364838
 11
49.877499
 21
269.364838
  0
ARC
  8
0
  6
CONTINUOUS
 10
10.877500
 20
344.864838
 40
10.000000
 50
90.000000
 51
180.000000
  0
ARC
  8
0
  6
CONTINUOUS
 10
10.877500
 20
254.864838
 40
10.000000
 50
180.000000
 51
270.000000
  0
LINE
  8
0
  6
CONTINUOUS
 10
49.377499
 20
328.864838
 11
49.377499
 21
270.864838
  0
LINE
  8
0
  6
CONTINUOUS
 10
111.377502
 20
270.864838
 11
111.377502
 21
328.864838
  0
LINE
  8
0
  6
CONTINUOUS
 10
51.377499
 20
330.864838
 11
109.377502
 21
330.864838
  0
LINE
  8
0
  6
CONTINUOUS
 10
51.377499
 20
268.864838
 11
109.377502
 21
268.864838
  0
LINE
  8
0
  6
CONTINUOUS
 10
109.377502
 20
330.864838
 11
111.377502
 21
328.864838
  0
LINE
  8
0
  6
CONTINUOUS
 10
111.377502
 20
270.864838
 11
109.377502
 21
268.864838
  0
LINE
  8
0
  6
CONTINUOUS
 10
49.377499
 20
270.864838
 11
51.377499
 21
268.864838
  0
LINE
  8
0
  6
CONTINUOUS
 10
49.377499
 20
328.864838
 11
51.377499
 21
330.864838
  0
LINE
  8
0
  6
CONTINUOUS
 10
103.377502
 20
325.864838
 11
103.377502
 21
330.864838
  0
LINE
  8
0
  6
CONTINUOUS
 10
106.377502
 20
322.864838
 11
111.377502
 21
322.864838
  0
CIRCLE
  8
0
  6
CONTINUOUS
 10
107.377502
 20
326.864838
 40
2.250000
  0
ARC
  8
0
  6
CONTINUOUS
 10
106.377502
 20
325.864838
 40
3.000000
 50
180.000000
 51
270.000000
  0
LINE
  8
0
  6
CONTINUOUS
 10
110.377502
 20
321.864838
 11
110.377502
 21
277.864838
  0
LINE
  8
0
  6
CONTINUOUS
 10
106.377502
 20
321.864838
 11
110.377502
 21
321.864838
  0
ARC
  8
0
  6
CONTINUOUS
 10
106.377502
 20
325.864838
 40
4.000000
 50
180.000000
 51
270.000000
  0
LINE
  8
0
  6
CONTINUOUS
 10
102.377502
 20
329.864838
 11
102.377502
 21
325.864838
  0
LINE
  8
0
  6
CONTINUOUS
 10
110.377502
 20
321.864838
 11
111.377502
 21
322.864838
  0
LINE
  8
0
  6
CONTINUOUS
 10
58.377499
 20
329.864838
 11
102.377502
 21
329.864838
  0
LINE
  8
0
  6
CONTINUOUS
 10
102.377502
 20
329.864838
 11
103.377502
 21
330.864838
  0
LINE
  8
0
  6
CONTINUOUS
 10
54.377499
 20
322.864838
 11
49.377499
 21
322.864838
  0
LINE
  8
0
  6
CONTINUOUS
 10
57.377499
 20
325.864838
 11
57.377499
 21
330.864838
  0
CIRCLE
  8
0
  6
CONTINUOUS
 10
53.377499
 20
326.864838
 40
2.250000
  0
ARC
  8
0
  6
CONTINUOUS
 10
54.377499
 20
325.864838
 40
3.000000
 50
-90.000000
 51
0.000000
  0
LINE
  8
0
  6
CONTINUOUS
 10
58.377499
 20
325.864838
 11
58.377499
 21
329.864838
  0
ARC
  8
0
  6
CONTINUOUS
 10
54.377499
 20
325.864838
 40
4.000000
 50
-90.000000
 51
0.000000
  0
LINE
  8
0
  6
CONTINUOUS
 10
50.377499
 20
321.864838
 11
54.377499
 21
321.864838
  0
LINE
  8
0
  6
CONTINUOUS
 10
58.377499
 20
329.864838
 11
57.377499
 21
330.864838
  0
LINE
  8
0
  6
CONTINUOUS
 10
50.377499
 20
321.864838
 11
49.377499
 21
322.864838
  0
LINE
  8
0
  6
CONTINUOUS
 10
57.377499
 20
273.864838
 11
57.377499
 21
268.864838
  0
LINE
  8
0
  6
CONTINUOUS
 10
54.377499
 20
276.864838
 11
49.377499
 21
276.864838
  0
CIRCLE
  8
0
  6
CONTINUOUS
 10
53.377499
 20
272.864838
 40
2.250000
  0
ARC
  8
0
  6
CONTINUOUS
 10
54.377499
 20
273.864838
 40
3.000000
 50
0.000000
 51
90.000000
  0
LINE
  8
0
  6
CONTINUOUS
 10
54.377499
 20
277.864838
 11
50.377499
 21
277.864838
  0
ARC
  8
0
  6
CONTINUOUS
 10
54.377499
 20
273.864838
 40
4.000000
 50
0.000000
 51
90.000000
  0
LINE
  8
0
  6
CONTINUOUS
 10
58.377499
 20
269.864838
 11
58.377499
 21
273.864838
  0
LINE
  8
0
  6
CONTINUOUS
 10
50.377499
 20
277.864838
 11
49.377499
 21
276.864838
  0
LINE
  8
0
  6
CONTINUOUS
 10
58.377499
 20
269.864838
 11
57.377499
 21
268.864838
  0
LINE
  8
0
  6
CONTINUOUS
 10
106.377502
 20
276.864838
 11
111.377502
 21
276.864838
  0
LINE
  8
0
  6
CONTINUOUS
 10
103.377502
 20
273.864838
 11
103.377502
 21
268.864838
  0
CIRCLE
  8
0
  6
CONTINUOUS
 10
107.377502
 20
272.864838
 40
2.250000
  0
ARC
  8
0
  6
CONTINUOUS
 10
106.377502
 20
273.864838
 40
3.000000
 50
90.000000
 51
180.000000
  0
LINE
  8
0
  6
CONTINUOUS
 10
102.377502
 20
273.864838
 11
102.377502
 21
269.864838
  0
ARC
  8
0
  6
CONTINUOUS
 10
106.377502
 20
273.864838
 40
4.000000
 50
90.000000
 51
180.000000
  0
LINE
  8
0
  6
CONTINUOUS
 10
110.377502
 20
277.864838
 11
106.377502
 21
277.864838
  0
LINE
  8
0
  6
CONTINUOUS
 10
102.377502
 20
269.864838
 11
103.377502
 21
268.864838
  0
LINE
  8
0
  6
CONTINUOUS
 10
110.377502
 20
277.864838
 11
111.377502
 21
276.864838
  0
LINE
  8
0
  6
CONTINUOUS
 10
58.377499
 20
269.864838
 11
102.377502
 21
269.864838
  0
LINE
  8
0
  6
CONTINUOUS
 10
50.377499
 20
321.864838
 11
50.377499
 21
277.864838
  0
LINE
  8
0
  6
CENTER
 10
80.377502
 20
336.111084
 11
80.377502
 21
263.418274
  0
LINE
  8
0
  6
CONTINUOUS
 10
50.877499
 20
117.591263
 11
109.377502
 21
117.591248
  0
LINE
  8
0
  6
CONTINUOUS
 10
50.877499
 20
117.591248
 11
50.877499
 21
116.091248
  0
LINE
  8
0
  6
CONTINUOUS
 10
96.877502
 20
117.591248
 11
96.877502
 21
116.091248
  0
LINE
  8
0
  6
CONTINUOUS
 10
49.377499
 20
166.591248
 11
49.377499
 21
119.591263
  0
LINE
  8
0
  6
CONTINUOUS
 10
111.377502
 20
166.591248
 11
111.377502
 21
119.591248
  0
LINE
  8
0
  6
CONTINUOUS
 10
111.377502
 20
119.591248
 11
109.377502
 21
117.591248
  0
LINE
  8
0
  6
CONTINUOUS
 10
49.377499
 20
119.591263
 11
51.377499
 21
117.591263
  0
LINE
  8
0
  6
CONTINUOUS
 10
49.377499
 20
119.591263
 11
111.377502
 21
119.591248
  0
LINE
  8
0
  6
CONTINUOUS
 10
49.377499
 20
129.591263
 11
111.377502
 21
129.591263
  0
LINE
  8
0
  6
CENTER
 10
80.377502
 20
175.104996
 11
80.377502
 21
112.997238
  0
LINE
  8
0
  6
CONTINUOUS
 10
49.377499
 20
130.591263
 11
111.377502
 21
130.591263
  0
LINE
  8
0
  6
CONTINUOUS
 10
50.377499
 20
167.591248
 11
110.377502
 21
167.591248
  0
LINE
  8
0
  6
CONTINUOUS
 10
110.377502
 20
167.591248
 11
111.377502
 21
166.591248
  0
LINE
  8
0
  6
CONTINUOUS
 10
49.377499
 20
166.591248
 11
50.377499
 21
167.591248
  0
LINE
  8
0
  6
CONTINUOUS
 10
49.377499
 20
166.591248
 11
111.377502
 21
166.591248
  0
LINE
  8
0
  6
CENTER
 10
46.752499
 20
150.591263
 11
52.502499
 21
150.591263
  0
LINE
  8
0
  6
CONTINUOUS
 10
48.252499
 20
161.091263
 11
51.377499
 21
161.091263
  0
LINE
  8
0
  6
CONTINUOUS
 10
48.252499
 20
140.091263
 11
51.377499
 21
140.091263
  0
LINE
  8
0
  6
CONTINUOUS
 10
383.377502
 20
117.591248
 11
383.377502
 21
115.698509
  0
LINE
  8
0
  6
CONTINUOUS
 10
338.377502
 20
117.591248
 11
338.377502
 21
115.698509
  0
LINE
  8
0
  6
CONTINUOUS
 10
331.877502
 20
117.591248
 11
389.877502
 21
117.591248
  0
LINE
  8
0
  6
CONTINUOUS
 10
391.877502
 20
166.591248
 11
391.877502
 21
119.591248
  0
LINE
  8
0
  6
CONTINUOUS
 10
329.877502
 20
166.591248
 11
329.877502
 21
119.591248
  0
LINE
  8
0
  6
CONTINUOUS
 10
391.877502
 20
119.591248
 11
389.877502
 21
117.591248
  0
LINE
  8
0
  6
CONTINUOUS
 10
329.877502
 20
119.591248
 11
331.877502
 21
117.591248
  0
LINE
  8
0
  6
CONTINUOUS
 10
329.877502
 20
119.591248
 11
391.877502
 21
119.591248
  0
LINE
  8
0
  6
CONTINUOUS
 10
329.877502
 20
129.591248
 11
391.877502
 21
129.591248
  0
LINE
  8
0
  6
CONTINUOUS
 10
329.877502
 20
130.591248
 11
391.877502
 21
130.591248
  0
LINE
  8
0
  6
CONTINUOUS
 10
330.877502
 20
167.591248
 11
390.877502
 21
167.591248
  0
LINE
  8
0
  6
CONTINUOUS
 10
390.877502
 20
167.591248
 11
391.877502
 21
166.591248
  0
LINE
  8
0
  6
CONTINUOUS
 10
330.877502
 20
167.591248
 11
329.877502
 21
166.591248
  0
LINE
  8
0
  6
CONTINUOUS
 10
329.877502
 20
166.591248
 11
391.877502
 21
166.591248
  0
LINE
  8
0
  6
CONTINUOUS
 10
49.877499
 20
244.864838
 11
49.877499
 21
270.364838
  0
TEXT
  8
0
 10
-11.000000
 20
-6.000000
 40
4.000000
 41
1.000000
  1
GLMN-18-80~240-T60WC
 50
0.000000
  0
ENDSEC
  0
EOF
