  0
SECTION
  2
HEADER
  9
$CLAYER
  8
1
  9
$LTSCALE
 40
3.0
  0
ENDSEC
  0
SECTION
  2
TABLES
  0
TABLE
  2
LTYPE
 70
     4
  0
LTYPE
  2
CONTINUOUS
  3
solid line
 70
    64
 72
    65
 73
     0
 40
0.0
  0
LTYPE
  2
DASHED
  3
__ __ __ __ __ __ __ __ __ __ __ __ __ __ __
 70
    64
 72
    65
 73
     2
 40
0.75
 49
0.5
 49
-0.25
  0
LTYPE
  2
CENTER
  3
____ _ ____ _ ____ _ ____ _ ____ _ ____ _ ____
 70
    64
 72
    65
 73
     4
 40
2.0
 49
1.25
 49
-0.25
 49
0.25
 49
-0.25
  0
LTYPE
  2
PHANTOM
  3
_____ _ _ _____ _ _ _____ _ _ _____ _ _ ____
 70
    64
 72
    65
 73
     6
 40
2.5
 49
1.25
 49
-0.25
 49
0.25
 49
-0.25
 49
0.25
 49
-0.25
  0
ENDTAB
  0
TABLE
  2
LAYER
 70
     1
  0
LAYER
  2
0
 70
    64
 62
     7
  6
CONTINUOUS
  0
ENDTAB
  0
TABLE
  2
STYLE
 70
     1
  0
STYLE
  2
STANDARD
 70
     0
 40
0.000000
 41
1.000000
 50
0.000000
 71
     0
 42
3.000000
  3
txt
  4
BIGFONT
  0
ENDTAB
  0
ENDSEC
  0
SECTION
  2
BLOCKS
  0
ENDSEC
  0
SECTION
  2
ENTITIES
  0
LINE
  8
0
  6
CENTER
 10
-12.004375
 20
64.236252
 11
196.945007
 21
64.236252
  0
LINE
  8
0
  6
CONTINUOUS
 10
187.720001
 20
12.236250
 11
187.720001
 21
4.236250
  0
LINE
  8
0
  6
CONTINUOUS
 10
127.720001
 20
12.236250
 11
127.720001
 21
4.236250
  0
LINE
  8
0
  6
CENTER
 10
137.720001
 20
18.111250
 11
137.720001
 21
-1.013750
  0
LINE
  8
0
  6
CENTER
 10
177.720001
 20
18.486250
 11
177.720001
 21
-0.263750
  0
LINE
  8
0
  6
CENTER
 10
163.656799
 20
79.236252
 11
228.282501
 21
79.236252
  0
LINE
  8
0
  6
CONTINUOUS
 10
127.720001
 20
4.236250
 11
187.720001
 21
4.236250
  0
LINE
  8
0
  6
CONTINUOUS
 10
57.720001
 20
117.236252
 11
187.720001
 21
117.236252
  0
LINE
  8
0
  6
CONTINUOUS
 10
57.720001
 20
11.236250
 11
127.720001
 21
11.236250
  0
LINE
  8
0
  6
CONTINUOUS
 10
165.720001
 20
33.017658
 11
165.720001
 21
16.236240
  0
LINE
  8
0
  6
CONTINUOUS
 10
149.720001
 20
33.017651
 11
149.720001
 21
16.236250
  0
LINE
  8
0
  6
CONTINUOUS
 10
129.720001
 20
14.236250
 11
185.720001
 21
14.236250
  0
LINE
  8
0
  6
CONTINUOUS
 10
187.720001
 20
12.236250
 11
187.720001
 21
117.236252
  0
ARC
  8
0
  6
CONTINUOUS
 10
185.720001
 20
12.236240
 40
2.000000
 50
0.000000
 51
90.000000
  0
LINE
  8
0
  6
CONTINUOUS
 10
127.720009
 20
28.909679
 11
127.720001
 21
12.236250
  0
ARC
  8
0
  6
CONTINUOUS
 10
129.720016
 20
12.236260
 40
2.000000
 50
90.000000
 51
180.000000
  0
LINE
  8
0
  6
DASHED
 10
181.970001
 20
14.236250
 11
181.970001
 21
4.236250
  0
LINE
  8
0
  6
DASHED
 10
173.470001
 20
14.236250
 11
173.470001
 21
4.236250
  0
LINE
  8
0
  6
DASHED
 10
141.970001
 20
14.236250
 11
141.970001
 21
4.236250
  0
LINE
  8
0
  6
DASHED
 10
133.470001
 20
14.236250
 11
133.470001
 21
4.236250
  0
LINE
  8
0
  6
CONTINUOUS
 10
57.720001
 20
106.859596
 11
187.720001
 21
106.859596
  0
LINE
  8
0
  6
CONTINUOUS
 10
57.720001
 20
21.612890
 11
127.720001
 21
21.612890
  0
LINE
  8
0
  6
CONTINUOUS
 10
192.720001
 20
56.736248
 11
192.720001
 21
101.736252
  0
LINE
  8
0
  6
CONTINUOUS
 10
191.720001
 20
102.736252
 11
187.720001
 21
102.736252
  0
LINE
  8
0
  6
CONTINUOUS
 10
191.720001
 20
55.736248
 11
187.720001
 21
55.736248
  0
ARC
  8
0
  6
CONTINUOUS
 10
191.720001
 20
101.736252
 40
1.000000
 50
0.000000
 51
90.000000
  0
ARC
  8
0
  6
CONTINUOUS
 10
191.720001
 20
56.736248
 40
1.000000
 50
-90.000000
 51
0.000000
  0
ARC
  8
0
  6
CONTINUOUS
 10
130.720016
 20
28.909700
 40
3.000000
 50
90.000000
 51
180.000000
  0
LINE
  8
0
  6
CONTINUOUS
 10
130.720001
 20
31.909679
 11
149.095001
 21
31.909679
  0
LINE
  8
0
  6
CONTINUOUS
 10
187.095001
 20
31.909679
 11
166.345001
 21
31.909679
  0
ARC
  8
0
  6
CONTINUOUS
 10
167.720001
 20
33.017670
 40
2.000000
 50
90.000000
 51
180.000000
  0
ARC
  8
0
  6
CONTINUOUS
 10
147.720001
 20
33.017651
 40
2.000000
 50
0.000000
 51
90.000000
  0
ARC
  8
0
  6
CONTINUOUS
 10
167.720001
 20
16.236250
 40
2.000000
 50
180.000000
 51
270.000000
  0
ARC
  8
0
  6
CONTINUOUS
 10
147.720001
 20
16.236250
 40
2.000000
 50
-90.000000
 51
0.000000
  0
LINE
  8
0
  6
CENTER
 10
320.220001
 20
1.091250
 11
320.220001
 21
142.690002
  0
LINE
  8
0
  6
CENTER
 10
261.945007
 20
64.236252
 11
377.945007
 21
64.236252
  0
LINE
  8
0
  6
CONTINUOUS
 10
360.220001
 20
4.236250
 11
385.220001
 21
4.236250
  0
LINE
  8
0
  6
CONTINUOUS
 10
385.220001
 20
12.236240
 11
385.220001
 21
4.236250
  0
LINE
  8
0
  6
CONTINUOUS
 10
359.220001
 20
5.236250
 11
320.220001
 21
5.236250
  0
LINE
  8
0
  6
CONTINUOUS
 10
367.220001
 20
14.236250
 11
383.220001
 21
14.236250
  0
LINE
  8
0
  6
CONTINUOUS
 10
351.720001
 20
114.721024
 11
351.720001
 21
106.859612
  0
LINE
  8
0
  6
CENTER
 10
375.220001
 20
18.736250
 11
375.220001
 21
-2.013750
  0
LINE
  8
0
  6
DASHED
 10
379.470001
 20
14.236250
 11
379.470001
 21
4.236250
  0
LINE
  8
0
  6
DASHED
 10
370.970001
 20
14.236250
 11
370.970001
 21
4.236250
  0
LINE
  8
0
  6
CONTINUOUS
 10
349.754913
 20
116.720718
 11
320.220001
 21
117.236252
  0
ARC
  8
0
  6
CONTINUOUS
 10
349.720001
 20
114.721008
 40
2.000000
 50
0.000000
 51
89.000076
  0
LINE
  8
0
  6
CENTER
 10
288.382507
 20
79.236252
 11
352.012512
 21
79.236252
  0
LINE
  8
0
  6
CONTINUOUS
 10
280.220001
 20
4.236250
 11
255.220001
 21
4.236250
  0
LINE
  8
0
  6
CONTINUOUS
 10
255.220001
 20
12.236230
 11
255.220001
 21
4.236250
  0
LINE
  8
0
  6
CONTINUOUS
 10
281.220001
 20
5.236250
 11
320.220001
 21
5.236250
  0
LINE
  8
0
  6
CONTINUOUS
 10
273.220001
 20
14.236250
 11
257.220001
 21
14.236250
  0
LINE
  8
0
  6
CONTINUOUS
 10
288.720001
 20
114.721024
 11
288.720001
 21
106.859612
  0
LINE
  8
0
  6
CENTER
 10
265.220001
 20
18.736250
 11
265.220001
 21
-2.013750
  0
LINE
  8
0
  6
DASHED
 10
260.970001
 20
14.236250
 11
260.970001
 21
4.236250
  0
LINE
  8
0
  6
DASHED
 10
269.470001
 20
14.236250
 11
269.470001
 21
4.236250
  0
LINE
  8
0
  6
CONTINUOUS
 10
290.685089
 20
116.720718
 11
320.220001
 21
117.236252
  0
ARC
  8
0
  6
CONTINUOUS
 10
290.720001
 20
114.721008
 40
2.000000
 50
90.999924
 51
180.000000
  0
ARC
  8
0
  6
CONTINUOUS
 10
320.220001
 20
64.236252
 40
53.000000
 50
126.465599
 51
217.584595
  0
ARC
  8
0
  6
CONTINUOUS
 10
320.220001
 20
64.236252
 40
53.000000
 50
53.534370
 51
53.534382
  0
ARC
  8
0
  6
CONTINUOUS
 10
320.220001
 20
64.236252
 40
53.000000
 50
-37.584629
 51
53.534382
  0
LINE
  8
0
  6
CONTINUOUS
 10
368.220001
 20
79.928612
 11
368.220001
 21
48.544209
  0
LINE
  8
0
  6
CONTINUOUS
 10
272.220001
 20
79.928436
 11
272.220001
 21
48.543732
  0
ARC
  8
0
  6
CONTINUOUS
 10
320.220001
 20
64.236252
 40
50.500000
 50
18.103800
 51
161.896194
  0
ARC
  8
0
  6
CONTINUOUS
 10
320.220001
 20
64.236252
 40
50.500000
 50
198.103806
 51
341.896210
  0
LINE
  8
0
  6
CONTINUOUS
 10
278.220001
 20
19.236250
 11
278.220001
 21
31.909790
  0
ARC
  8
0
  6
CONTINUOUS
 10
367.220001
 20
19.236250
 40
5.000000
 50
180.000000
 51
270.000000
  0
ARC
  8
0
  6
CONTINUOUS
 10
273.220001
 20
19.236240
 40
5.000000
 50
-90.000000
 51
0.000000
  0
LINE
  8
0
  6
CONTINUOUS
 10
362.220001
 20
19.236231
 11
362.220001
 21
31.909800
  0
CIRCLE
  8
0
  6
CONTINUOUS
 10
320.220001
 20
79.236252
 40
23.500000
  0
ARC
  8
0
  6
CONTINUOUS
 10
383.220001
 20
12.236240
 40
2.000000
 50
0.000000
 51
90.000000
  0
LINE
  8
0
  6
CONTINUOUS
 10
384.634186
 20
13.650460
 11
364.004395
 21
34.280071
  0
ARC
  8
0
  6
CONTINUOUS
 10
257.220001
 20
12.236240
 40
2.000000
 50
90.000000
 51
180.000000
  0
LINE
  8
0
  6
CONTINUOUS
 10
255.805801
 20
13.650460
 11
276.435608
 21
34.280071
  0
LINE
  8
0
  6
CONTINUOUS
 10
360.220001
 20
4.236250
 11
359.220001
 21
5.236250
  0
LINE
  8
0
  6
CONTINUOUS
 10
280.220001
 20
4.236250
 11
281.220001
 21
5.236250
  0
LINE
  8
0
  6
CONTINUOUS
 10
313.845001
 20
41.789471
 11
313.845001
 21
36.236252
  0
LINE
  8
0
  6
CONTINUOUS
 10
317.032501
 20
43.806561
 11
317.032501
 21
45.798752
  0
LINE
  8
0
  6
CONTINUOUS
 10
323.407501
 20
43.806561
 11
323.407501
 21
45.798752
  0
LINE
  8
0
  6
CONTINUOUS
 10
319.597412
 20
44.628342
 11
319.597412
 21
37.282150
  0
LINE
  8
0
  6
CONTINUOUS
 10
320.792786
 20
44.628342
 11
320.792786
 21
37.282150
  0
LINE
  8
0
  6
CONTINUOUS
 10
327.068115
 20
44.628342
 11
327.068115
 21
37.232342
  0
LINE
  8
0
  6
CONTINUOUS
 10
328.163788
 20
40.706219
 11
328.163788
 21
37.232342
  0
LINE
  8
0
  6
CONTINUOUS
 10
312.332489
 20
44.528728
 11
309.260590
 21
44.528728
  0
LINE
  8
0
  6
CONTINUOUS
 10
309.260590
 20
44.528728
 11
308.540802
 21
43.636230
  0
LINE
  8
0
  6
CONTINUOUS
 10
308.627411
 20
45.798752
 11
307.470001
 21
44.316750
  0
LINE
  8
0
  6
CONTINUOUS
 10
308.540802
 20
38.127171
 11
309.272095
 21
37.356861
  0
LINE
  8
0
  6
CONTINUOUS
 10
307.470001
 20
37.477100
 11
308.699799
 21
36.236252
  0
LINE
  8
0
  6
CONTINUOUS
 10
307.470001
 20
44.316750
 11
307.470001
 21
37.477100
  0
LINE
  8
0
  6
CONTINUOUS
 10
308.540802
 20
43.636230
 11
308.540802
 21
38.127171
  0
LINE
  8
0
  6
CONTINUOUS
 10
312.923615
 20
43.957291
 11
312.320404
 21
44.528728
  0
LINE
  8
0
  6
CONTINUOUS
 10
312.914001
 20
45.798752
 11
313.845001
 21
44.765610
  0
LINE
  8
0
  6
CONTINUOUS
 10
312.923615
 20
43.806561
 11
313.845001
 21
43.806561
  0
LINE
  8
0
  6
CONTINUOUS
 10
308.627411
 20
45.798752
 11
312.914001
 21
45.798752
  0
LINE
  8
0
  6
CONTINUOUS
 10
312.923615
 20
40.743568
 11
311.255188
 21
40.743568
  0
LINE
  8
0
  6
CONTINUOUS
 10
312.923615
 20
39.747478
 11
312.923615
 21
40.544361
  0
LINE
  8
0
  6
CONTINUOUS
 10
310.931396
 20
37.356861
 11
309.272095
 21
37.356861
  0
ARC
  8
0
  6
CONTINUOUS
 10
310.931396
 20
39.349041
 40
1.992187
 50
-89.999786
 51
0.000109
  0
LINE
  8
0
  6
CONTINUOUS
 10
312.923615
 20
36.998508
 11
312.923615
 21
36.236252
  0
LINE
  8
0
  6
CONTINUOUS
 10
313.845001
 20
44.765610
 11
313.845001
 21
43.806561
  0
LINE
  8
0
  6
CONTINUOUS
 10
312.923615
 20
40.743568
 11
312.923615
 21
39.349041
  0
LINE
  8
0
  6
CONTINUOUS
 10
311.255188
 20
41.789471
 11
311.255188
 21
40.743568
  0
LINE
  8
0
  6
CONTINUOUS
 10
312.923615
 20
36.236252
 11
313.845001
 21
36.236252
  0
LINE
  8
0
  6
CONTINUOUS
 10
312.923615
 20
36.998508
 11
312.015015
 21
36.236252
  0
LINE
  8
0
  6
CONTINUOUS
 10
320.792786
 20
37.282150
 11
321.191193
 21
37.282150
  0
LINE
  8
0
  6
CONTINUOUS
 10
319.124298
 20
37.282150
 11
319.124298
 21
36.236252
  0
LINE
  8
0
  6
CONTINUOUS
 10
321.191193
 20
37.282150
 11
321.191193
 21
36.236252
  0
LINE
  8
0
  6
CONTINUOUS
 10
322.742615
 20
43.806561
 11
323.407501
 21
43.806561
  0
LINE
  8
0
  6
CONTINUOUS
 10
317.032501
 20
43.806561
 11
317.740112
 21
43.806561
  0
LINE
  8
0
  6
CONTINUOUS
 10
317.032501
 20
45.798752
 11
323.407501
 21
45.798752
  0
LINE
  8
0
  6
CONTINUOUS
 10
319.124298
 20
36.236252
 11
321.191193
 21
36.236252
  0
LINE
  8
0
  6
CONTINUOUS
 10
319.124298
 20
37.282150
 11
319.597412
 21
37.282150
  0
ARC
  8
0
  6
CONTINUOUS
 10
330.417511
 20
43.246262
 40
2.552490
 50
-73.981873
 51
90.003510
  0
ARC
  8
0
  6
CONTINUOUS
 10
330.417511
 20
43.246262
 40
1.557193
 50
-82.585274
 51
62.411850
  0
LINE
  8
0
  6
CONTINUOUS
 10
326.595001
 20
45.798752
 11
330.417511
 21
45.798752
  0
LINE
  8
0
  6
CONTINUOUS
 10
326.595001
 20
45.798752
 11
326.595001
 21
44.628342
  0
LINE
  8
0
  6
CONTINUOUS
 10
328.163788
 20
44.628342
 11
328.163788
 21
41.702091
  0
LINE
  8
0
  6
CONTINUOUS
 10
331.121887
 20
40.792870
 11
332.701691
 21
37.232342
  0
LINE
  8
0
  6
CONTINUOUS
 10
330.204315
 20
40.706219
 11
331.699310
 21
37.232342
  0
LINE
  8
0
  6
CONTINUOUS
 10
326.595001
 20
37.232342
 11
327.068115
 21
37.232342
  0
LINE
  8
0
  6
CONTINUOUS
 10
328.163788
 20
37.232342
 11
328.599609
 21
37.232342
  0
LINE
  8
0
  6
CONTINUOUS
 10
328.599609
 20
36.236252
 11
326.595001
 21
36.236252
  0
LINE
  8
0
  6
CONTINUOUS
 10
331.500793
 20
37.232342
 11
331.699310
 21
37.232342
  0
LINE
  8
0
  6
CONTINUOUS
 10
332.701691
 20
37.232342
 11
332.970001
 21
37.232342
  0
LINE
  8
0
  6
CONTINUOUS
 10
331.500793
 20
36.236252
 11
332.970001
 21
36.236252
  0
LINE
  8
0
  6
CONTINUOUS
 10
332.970001
 20
37.232342
 11
332.970001
 21
36.236252
  0
LINE
  8
0
  6
CONTINUOUS
 10
331.500793
 20
37.232342
 11
331.500793
 21
36.236252
  0
LINE
  8
0
  6
CONTINUOUS
 10
328.599609
 20
37.232342
 11
328.599609
 21
36.236252
  0
LINE
  8
0
  6
CONTINUOUS
 10
326.595001
 20
37.232342
 11
326.595001
 21
36.236252
  0
LINE
  8
0
  6
CONTINUOUS
 10
318.082489
 20
44.628342
 11
317.740112
 21
43.806561
  0
LINE
  8
0
  6
CONTINUOUS
 10
322.453796
 20
44.628342
 11
322.742615
 21
43.806561
  0
LINE
  8
0
  6
CONTINUOUS
 10
320.792786
 20
44.628342
 11
322.453796
 21
44.628342
  0
LINE
  8
0
  6
CONTINUOUS
 10
319.597412
 20
44.628342
 11
318.082489
 21
44.628342
  0
LINE
  8
0
  6
CONTINUOUS
 10
326.595001
 20
44.628342
 11
327.068115
 21
44.628342
  0
LINE
  8
0
  6
CONTINUOUS
 10
328.163788
 20
44.628342
 11
331.138702
 21
44.626400
  0
LINE
  8
0
  6
CONTINUOUS
 10
312.923615
 20
43.957291
 11
312.923615
 21
43.806561
  0
LINE
  8
0
  6
CONTINUOUS
 10
308.699799
 20
36.236252
 11
312.015015
 21
36.236252
  0
LINE
  8
0
  6
CONTINUOUS
 10
328.163788
 20
41.702091
 11
330.618500
 21
41.702091
  0
LINE
  8
0
  6
CONTINUOUS
 10
328.163788
 20
40.706219
 11
330.204315
 21
40.706219
  0
LINE
  8
0
  6
CONTINUOUS
 10
311.255188
 20
41.789471
 11
313.845001
 21
41.789471
  0
LINE
  8
0
  6
CONTINUOUS
 10
224.720001
 20
70.236252
 11
224.720001
 21
88.236252
  0
LINE
  8
0
  6
CONTINUOUS
 10
194.720001
 20
88.236252
 11
224.720001
 21
88.236252
  0
LINE
  8
0
  6
CONTINUOUS
 10
194.720001
 20
70.236252
 11
224.720001
 21
70.236252
  0
LINE
  8
0
  6
CONTINUOUS
 10
194.720001
 20
89.236252
 11
194.720001
 21
69.236252
  0
LINE
  8
0
  6
CONTINUOUS
 10
192.720001
 20
89.236252
 11
194.720001
 21
89.236252
  0
LINE
  8
0
  6
CONTINUOUS
 10
192.720001
 20
69.236252
 11
194.720001
 21
69.236252
  0
ARC
  8
0
  6
CONTINUOUS
 10
200.720001
 20
79.236252
 40
3.000000
 50
90.000000
 51
270.000000
  0
LINE
  8
0
  6
CONTINUOUS
 10
200.720001
 20
82.236252
 11
224.720001
 21
82.236252
  0
LINE
  8
0
  6
CONTINUOUS
 10
200.720001
 20
76.236252
 11
224.720001
 21
76.236252
  0
LINE
  8
0
  6
CONTINUOUS
 10
314.720001
 20
82.236252
 11
314.720001
 21
76.236252
  0
LINE
  8
0
  6
CONTINUOUS
 10
308.720001
 20
82.236252
 11
308.720001
 21
76.236252
  0
LINE
  8
0
  6
CONTINUOUS
 10
308.720001
 20
82.236252
 11
314.720001
 21
82.236252
  0
LINE
  8
0
  6
CONTINUOUS
 10
308.720001
 20
76.236252
 11
314.720001
 21
76.236252
  0
ARC
  8
0
  6
CONTINUOUS
 10
320.220001
 20
79.236252
 40
9.000000
 50
-160.528793
 51
160.528793
  0
LINE
  8
0
  6
CONTINUOUS
 10
43.720001
 20
23.736250
 11
43.720001
 21
12.089880
  0
LINE
  8
0
  6
CONTINUOUS
 10
32.666985
 20
23.736250
 11
43.720001
 21
23.736250
  0
LINE
  8
0
  6
CONTINUOUS
 10
30.720015
 20
104.236732
 11
30.719999
 21
13.191260
  0
LINE
  8
0
  6
CENTER
 10
40.220001
 20
137.404999
 11
40.220001
 21
118.285934
  0
LINE
  8
0
  6
CONTINUOUS
 10
29.720011
 20
105.236732
 11
27.219851
 21
105.236717
  0
LINE
  8
0
  6
CONTINUOUS
 10
57.720001
 20
117.236221
 11
25.219830
 21
117.236107
  0
LINE
  8
0
  6
CONTINUOUS
 10
57.720001
 20
11.236250
 11
57.720001
 21
117.236252
  0
LINE
  8
0
  6
CONTINUOUS
 10
57.720001
 20
11.236250
 11
32.666985
 21
11.892181
  0
LINE
  8
0
  6
CONTINUOUS
 10
31.453733
 20
12.227370
 11
32.666985
 21
11.892181
  0
ARC
  8
0
  6
CONTINUOUS
 10
31.720015
 20
13.191270
 40
1.000000
 50
180.000000
 51
254.556396
  0
ARC
  8
0
  6
CONTINUOUS
 10
44.220001
 20
12.089880
 40
0.500000
 50
180.000000
 51
268.500702
  0
LINE
  8
0
  6
CONTINUOUS
 10
43.720001
 20
104.736252
 11
43.720001
 21
116.736389
  0
LINE
  8
0
  6
CONTINUOUS
 10
32.666985
 20
104.736252
 11
43.720001
 21
104.736252
  0
ARC
  8
0
  6
CONTINUOUS
 10
44.220001
 20
116.736389
 40
0.500000
 50
-268.500702
 51
-180.000000
  0
ARC
  8
0
  6
CONTINUOUS
 10
27.219851
 20
107.236710
 40
2.000000
 50
180.000000
 51
270.000000
  0
LINE
  8
0
  6
CONTINUOUS
 10
57.720001
 20
21.612890
 11
43.720001
 21
21.612890
  0
LINE
  8
0
  6
CONTINUOUS
 10
57.720001
 20
106.859596
 11
43.720001
 21
106.859596
  0
LINE
  8
0
  6
CONTINUOUS
 10
25.219999
 20
120.351181
 11
25.219999
 21
107.236710
  0
LINE
  8
0
  6
CONTINUOUS
 10
55.220001
 20
120.351181
 11
55.220001
 21
117.236076
  0
LINE
  8
0
  6
CONTINUOUS
 10
55.220001
 20
119.967583
 11
55.220001
 21
117.236183
  0
LINE
  8
0
  6
CONTINUOUS
 10
14.078400
 20
123.184883
 11
23.219999
 21
123.184883
  0
LINE
  8
0
  6
CONTINUOUS
 10
57.220001
 20
131.735077
 11
57.220001
 21
127.234879
  0
LINE
  8
0
  6
CONTINUOUS
 10
23.211500
 20
127.234879
 11
57.220001
 21
127.234879
  0
LINE
  8
0
  6
CONTINUOUS
 10
23.219999
 20
126.234879
 11
57.220001
 21
126.234879
  0
LINE
  8
0
  6
CONTINUOUS
 10
14.930200
 20
130.884872
 11
23.219999
 21
130.884872
  0
LINE
  8
0
  6
CONTINUOUS
 10
343.220001
 20
126.235031
 11
343.220001
 21
116.834785
  0
LINE
  8
0
  6
CONTINUOUS
 10
297.220001
 20
126.235031
 11
297.220001
 21
116.834785
  0
LINE
  8
0
  6
CONTINUOUS
 10
342.720001
 20
126.235031
 11
342.720001
 21
127.235031
  0
ARC
  8
0
  6
CONTINUOUS
 10
320.220001
 20
126.735031
 40
4.250000
 50
196.601593
 51
343.398499
  0
ARC
  8
0
  6
CONTINUOUS
 10
325.251099
 20
125.235031
 40
1.000000
 50
90.000000
 51
163.398102
  0
ARC
  8
0
  6
CONTINUOUS
 10
315.188690
 20
125.235031
 40
1.000000
 50
16.601080
 51
90.000000
  0
LINE
  8
0
  6
CONTINUOUS
 10
325.251099
 20
126.235031
 11
343.220001
 21
126.235031
  0
LINE
  8
0
  6
CONTINUOUS
 10
324.440491
 20
127.235031
 11
343.220001
 21
127.235031
  0
LINE
  8
0
  6
CONTINUOUS
 10
315.999512
 20
127.235031
 11
297.220001
 21
127.235031
  0
LINE
  8
0
  6
CONTINUOUS
 10
315.188904
 20
126.235031
 11
297.220001
 21
126.235031
  0
LINE
  8
0
  6
CONTINUOUS
 10
297.720001
 20
126.235031
 11
297.720001
 21
127.235031
  0
ARC
  8
0
  6
CONTINUOUS
 10
320.220001
 20
126.735031
 40
3.250000
 50
186.756302
 51
353.243713
  0
ARC
  8
0
  6
CONTINUOUS
 10
324.440491
 20
126.235031
 40
1.000000
 50
90.000000
 51
173.243896
  0
ARC
  8
0
  6
CONTINUOUS
 10
315.999512
 20
126.235031
 40
1.000000
 50
6.756103
 51
90.000000
  0
ARC
  8
0
  6
CONTINUOUS
 10
320.220001
 20
126.735031
 40
6.000000
 50
4.780182
 51
175.219803
  0
ARC
  8
0
  6
CONTINUOUS
 10
320.220001
 20
126.735031
 40
6.000000
 50
184.780197
 51
355.219788
  0
LINE
  8
0
  6
CONTINUOUS
 10
297.220001
 20
133.218430
 11
297.220001
 21
127.235031
  0
LINE
  8
0
  6
CONTINUOUS
 10
343.220001
 20
133.218430
 11
343.220001
 21
127.235031
  0
LINE
  8
0
  6
CONTINUOUS
 10
342.970001
 20
131.235031
 11
342.970001
 21
132.674225
  0
LINE
  8
0
  6
CONTINUOUS
 10
337.470001
 20
131.234833
 11
337.470001
 21
132.674225
  0
LINE
  8
0
  6
CONTINUOUS
 10
342.970001
 20
131.934937
 11
337.470001
 21
131.934937
  0
ARC
  8
0
  6
CONTINUOUS
 10
340.220001
 20
126.934929
 40
7.000000
 50
73.041977
 51
106.956497
  0
ARC
  8
0
  6
CONTINUOUS
 10
338.470001
 20
132.674225
 40
1.000000
 50
106.956902
 51
180.000000
  0
ARC
  8
0
  6
CONTINUOUS
 10
341.970001
 20
132.674225
 40
1.000000
 50
0.000000
 51
73.041847
  0
LINE
  8
0
  6
CONTINUOUS
 10
342.970001
 20
131.235031
 11
337.220001
 21
131.235031
  0
LINE
  8
0
  6
CONTINUOUS
 10
336.720001
 20
133.721481
 11
336.720001
 21
131.735031
  0
ARC
  8
0
  6
CONTINUOUS
 10
320.220001
 20
-115.264969
 40
250.000000
 50
84.826019
 51
95.173981
  0
LINE
  8
0
  6
CONTINUOUS
 10
55.220001
 20
119.967583
 11
55.220001
 21
126.234879
  0
LINE
  8
0
  6
CONTINUOUS
 10
25.219801
 20
119.967583
 11
25.219801
 21
126.234879
  0
LINE
  8
0
  6
CONTINUOUS
 10
23.219999
 20
131.735077
 11
23.219999
 21
127.234879
  0
ARC
  8
0
  6
CONTINUOUS
 10
40.220001
 20
-115.264923
 40
250.000000
 50
86.668304
 51
93.331696
  0
LINE
  8
0
  6
CONTINUOUS
 10
55.720001
 20
132.735077
 11
56.220001
 21
132.735077
  0
ARC
  8
0
  6
CONTINUOUS
 10
56.220001
 20
131.735077
 40
1.000000
 50
0.000000
 51
90.000000
  0
ARC
  8
0
  6
CONTINUOUS
 10
55.720001
 20
133.235077
 40
0.500000
 50
180.000000
 51
270.000000
  0
LINE
  8
0
  6
CONTINUOUS
 10
24.719999
 20
132.735077
 11
24.219999
 21
132.735077
  0
ARC
  8
0
  6
CONTINUOUS
 10
24.219999
 20
131.735077
 40
1.000000
 50
90.000000
 51
180.000000
  0
ARC
  8
0
  6
CONTINUOUS
 10
24.719999
 20
133.235077
 40
0.500000
 50
-90.000000
 51
0.000000
  0
LINE
  8
0
  6
CONTINUOUS
 10
24.719999
 20
120.734680
 11
24.219999
 21
120.734680
  0
ARC
  8
0
  6
CONTINUOUS
 10
24.219999
 20
121.734680
 40
1.000000
 50
-180.000000
 51
-90.000000
  0
ARC
  8
0
  6
CONTINUOUS
 10
24.719999
 20
120.234680
 40
0.500000
 50
0.000000
 51
90.000000
  0
LINE
  8
0
  6
CONTINUOUS
 10
55.720001
 20
120.734680
 11
56.220001
 21
120.734680
  0
ARC
  8
0
  6
CONTINUOUS
 10
56.220001
 20
121.734680
 40
1.000000
 50
-90.000000
 51
0.000000
  0
ARC
  8
0
  6
CONTINUOUS
 10
55.720001
 20
120.234680
 40
0.500000
 50
-270.000000
 51
-180.000000
  0
LINE
  8
0
  6
CONTINUOUS
 10
55.220001
 20
127.234879
 11
55.220001
 21
133.813385
  0
LINE
  8
0
  6
CONTINUOUS
 10
57.220001
 20
126.234879
 11
57.220001
 21
121.734680
  0
LINE
  8
0
  6
CONTINUOUS
 10
56.720001
 20
127.234879
 11
56.720001
 21
126.234879
  0
LINE
  8
0
  6
CONTINUOUS
 10
25.219801
 20
127.234879
 11
25.219801
 21
133.813385
  0
LINE
  8
0
  6
CONTINUOUS
 10
23.219999
 20
126.234879
 11
23.219999
 21
121.734680
  0
LINE
  8
0
  6
CONTINUOUS
 10
25.719801
 20
127.234879
 11
25.719801
 21
126.234879
  0
LINE
  8
0
  6
CONTINUOUS
 10
49.220001
 20
131.234879
 11
54.970001
 21
131.234879
  0
LINE
  8
0
  6
CONTINUOUS
 10
49.470001
 20
131.234879
 11
49.470001
 21
132.674088
  0
LINE
  8
0
  6
CONTINUOUS
 10
54.970001
 20
131.234680
 11
54.970001
 21
132.674088
  0
LINE
  8
0
  6
CONTINUOUS
 10
49.470001
 20
131.934784
 11
54.970001
 21
131.934784
  0
ARC
  8
0
  6
CONTINUOUS
 10
52.220001
 20
126.934776
 40
7.000000
 50
73.043503
 51
106.958000
  0
ARC
  8
0
  6
CONTINUOUS
 10
53.970001
 20
132.674088
 40
1.000000
 50
0.000000
 51
73.043098
  0
ARC
  8
0
  6
CONTINUOUS
 10
50.470001
 20
132.674088
 40
1.000000
 50
106.958199
 51
180.000000
  0
LINE
  8
0
  6
CONTINUOUS
 10
48.720001
 20
134.106796
 11
48.720001
 21
131.734879
  0
ARC
  8
0
  6
CONTINUOUS
 10
54.720001
 20
133.813385
 40
0.500000
 50
0.000000
 51
86.668304
  0
ARC
  8
0
  6
CONTINUOUS
 10
48.220001
 20
134.106796
 40
0.500000
 50
0.000000
 51
88.162544
  0
ARC
  8
0
  6
CONTINUOUS
 10
54.720001
 20
130.734879
 40
0.500000
 50
0.000000
 51
90.000000
  0
ARC
  8
0
  6
CONTINUOUS
 10
49.220001
 20
131.734879
 40
0.500000
 50
180.000000
 51
270.000000
  0
LINE
  8
0
  6
CONTINUOUS
 10
31.219999
 20
131.234879
 11
25.469999
 21
131.234879
  0
LINE
  8
0
  6
CONTINUOUS
 10
30.969999
 20
131.234879
 11
30.969999
 21
132.674088
  0
LINE
  8
0
  6
CONTINUOUS
 10
25.469999
 20
131.234680
 11
25.469999
 21
132.674088
  0
LINE
  8
0
  6
CONTINUOUS
 10
30.969999
 20
131.934784
 11
25.469999
 21
131.934784
  0
ARC
  8
0
  6
CONTINUOUS
 10
28.219999
 20
126.934776
 40
7.000000
 50
73.042000
 51
106.956497
  0
ARC
  8
0
  6
CONTINUOUS
 10
26.469999
 20
132.674088
 40
1.000000
 50
106.956902
 51
180.000000
  0
ARC
  8
0
  6
CONTINUOUS
 10
29.969999
 20
132.674088
 40
1.000000
 50
0.000000
 51
73.041801
  0
LINE
  8
0
  6
CONTINUOUS
 10
31.719999
 20
134.106796
 11
31.719999
 21
131.734879
  0
ARC
  8
0
  6
CONTINUOUS
 10
25.719999
 20
133.813385
 40
0.500000
 50
93.331696
 51
180.000000
  0
ARC
  8
0
  6
CONTINUOUS
 10
32.220001
 20
134.106796
 40
0.500000
 50
91.837456
 51
180.000000
  0
ARC
  8
0
  6
CONTINUOUS
 10
25.719999
 20
130.734879
 40
0.500000
 50
90.000000
 51
180.000000
  0
ARC
  8
0
  6
CONTINUOUS
 10
31.219999
 20
131.734879
 40
0.500000
 50
-90.000000
 51
0.000000
  0
ARC
  8
0
  6
CONTINUOUS
 10
342.720001
 20
133.218430
 40
0.500000
 50
0.000000
 51
84.826019
  0
ARC
  8
0
  6
CONTINUOUS
 10
336.220001
 20
133.721481
 40
0.500000
 50
0.000000
 51
86.323196
  0
ARC
  8
0
  6
CONTINUOUS
 10
342.720001
 20
130.735031
 40
0.500000
 50
0.000000
 51
90.000000
  0
ARC
  8
0
  6
CONTINUOUS
 10
337.220001
 20
131.735031
 40
0.500000
 50
180.000000
 51
270.000000
  0
LINE
  8
0
  6
CONTINUOUS
 10
297.470001
 20
131.235031
 11
297.470001
 21
132.674225
  0
LINE
  8
0
  6
CONTINUOUS
 10
302.970001
 20
131.234833
 11
302.970001
 21
132.674225
  0
LINE
  8
0
  6
CONTINUOUS
 10
297.470001
 20
131.934937
 11
302.970001
 21
131.934937
  0
ARC
  8
0
  6
CONTINUOUS
 10
300.220001
 20
126.934929
 40
7.000000
 50
73.043503
 51
106.958023
  0
ARC
  8
0
  6
CONTINUOUS
 10
301.970001
 20
132.674225
 40
1.000000
 50
0.000000
 51
73.043098
  0
ARC
  8
0
  6
CONTINUOUS
 10
298.470001
 20
132.674225
 40
1.000000
 50
106.958153
 51
180.000000
  0
LINE
  8
0
  6
CONTINUOUS
 10
297.470001
 20
131.235031
 11
303.220001
 21
131.235031
  0
LINE
  8
0
  6
CONTINUOUS
 10
303.720001
 20
133.721481
 11
303.720001
 21
131.735031
  0
ARC
  8
0
  6
CONTINUOUS
 10
297.720001
 20
133.218430
 40
0.500000
 50
95.173981
 51
180.000000
  0
ARC
  8
0
  6
CONTINUOUS
 10
304.220001
 20
133.721481
 40
0.500000
 50
93.676804
 51
180.000000
  0
ARC
  8
0
  6
CONTINUOUS
 10
297.720001
 20
130.735031
 40
0.500000
 50
90.000000
 51
180.000000
  0
ARC
  8
0
  6
CONTINUOUS
 10
303.220001
 20
131.735031
 40
0.500000
 50
-90.000000
 51
0.000000
  0
LINE
  8
0
  6
CONTINUOUS
 10
31.453733
 20
24.071440
 11
32.666985
 21
23.736250
  0
ARC
  8
0
  6
CONTINUOUS
 10
31.720015
 20
25.035339
 40
1.000000
 50
180.000000
 51
254.556396
  0
LINE
  8
0
  6
CONTINUOUS
 10
31.453733
 20
104.401062
 11
32.666985
 21
104.736252
  0
ARC
  8
0
  6
CONTINUOUS
 10
31.720015
 20
103.437164
 40
1.000000
 50
-254.556396
 51
-180.000000
  0
ARC
  8
0
  6
CONTINUOUS
 10
29.720011
 20
104.236732
 40
1.000000
 50
0.000000
 51
90.000000
  0
LINE
  8
0
  6
CONTINUOUS
 10
-0.279971
 20
100.268349
 11
-0.279992
 21
64.236252
  0
LINE
  8
0
  6
CONTINUOUS
 10
-0.279972
 20
28.495150
 11
-0.279992
 21
64.236252
  0
LINE
  8
0
  6
CONTINUOUS
 10
30.720001
 20
25.277250
 11
2.719002
 21
26.010483
  0
LINE
  8
0
  6
CONTINUOUS
 10
1.043201
 20
26.613155
 11
2.719002
 21
26.010483
  0
ARC
  8
0
  6
CONTINUOUS
 10
1.720030
 20
28.495150
 40
2.000000
 50
-180.000000
 51
-109.780319
  0
LINE
  8
0
  6
CONTINUOUS
 10
200.720001
 20
82.236252
 11
200.720001
 21
76.236252
  0
LINE
  8
0
  6
CONTINUOUS
 10
14.930200
 20
130.884872
 11
14.194400
 21
128.049774
  0
LINE
  8
0
  6
CONTINUOUS
 10
14.194400
 20
128.049774
 11
15.006500
 21
125.574783
  0
LINE
  8
0
  6
CONTINUOUS
 10
15.006500
 20
125.574783
 11
14.078400
 21
123.184883
  0
LINE
  8
0
  6
CONTINUOUS
 10
42.419998
 20
115.236252
 11
42.419998
 21
106.236252
  0
LINE
  8
0
  6
CONTINUOUS
 10
42.419998
 20
115.236252
 11
41.161270
 21
115.236252
  0
LINE
  8
0
  6
CONTINUOUS
 10
42.419998
 20
106.236252
 11
41.161270
 21
106.236252
  0
ARC
  8
0
  6
CONTINUOUS
 10
50.648609
 20
110.736252
 40
11.571430
 50
163.398483
 51
196.601013
  0
ARC
  8
0
  6
CONTINUOUS
 10
41.161270
 20
113.564796
 40
1.671429
 50
90.000000
 51
163.398422
  0
ARC
  8
0
  6
CONTINUOUS
 10
41.161270
 20
107.907661
 40
1.671429
 50
-163.399094
 51
-90.000000
  0
LINE
  8
0
  6
CONTINUOUS
 10
43.720001
 20
114.986252
 11
42.419998
 21
114.986252
  0
LINE
  8
0
  6
CONTINUOUS
 10
43.720001
 20
106.486252
 11
42.419998
 21
106.486252
  0
LINE
  8
0
  6
CONTINUOUS
 10
42.419998
 20
22.236250
 11
42.419998
 21
13.236250
  0
LINE
  8
0
  6
CONTINUOUS
 10
42.419998
 20
22.236250
 11
41.161270
 21
22.236250
  0
LINE
  8
0
  6
CONTINUOUS
 10
42.419998
 20
13.236250
 11
41.161270
 21
13.236250
  0
ARC
  8
0
  6
CONTINUOUS
 10
50.648609
 20
17.736250
 40
11.571430
 50
163.398483
 51
196.601013
  0
ARC
  8
0
  6
CONTINUOUS
 10
41.161270
 20
20.564798
 40
1.671429
 50
90.000000
 51
163.398422
  0
ARC
  8
0
  6
CONTINUOUS
 10
41.161270
 20
14.907663
 40
1.671429
 50
-163.399094
 51
-90.000000
  0
LINE
  8
0
  6
CONTINUOUS
 10
43.720001
 20
21.986250
 11
42.419998
 21
21.986250
  0
LINE
  8
0
  6
CONTINUOUS
 10
43.720001
 20
13.486250
 11
42.419998
 21
13.486250
  0
LINE
  8
0
  6
CONTINUOUS
 10
25.219942
 20
217.569427
 11
25.219942
 21
232.339020
  0
LINE
  8
0
  6
CONTINUOUS
 10
55.220043
 20
244.267227
 11
55.220043
 21
259.285522
  0
LINE
  8
0
  6
CENTER
 10
40.220043
 20
263.254730
 11
40.220043
 21
213.184769
  0
LINE
  8
0
  6
CONTINUOUS
 10
55.220043
 20
232.339020
 11
55.220043
 21
217.320618
  0
LINE
  8
0
  6
CONTINUOUS
 10
25.219942
 20
244.267227
 11
25.219942
 21
259.058716
  0
LINE
  8
0
  6
CONTINUOUS
 10
25.219942
 20
217.303131
 11
25.219942
 21
259.303131
  0
LINE
  8
0
  6
CONTINUOUS
 10
55.220043
 20
259.303131
 11
55.220043
 21
217.303131
  0
LINE
  8
0
  6
CONTINUOUS
 10
57.220043
 20
243.303131
 11
57.220043
 21
233.303131
  0
LINE
  8
0
  6
CONTINUOUS
 10
23.220041
 20
243.303131
 11
23.220041
 21
233.303131
  0
ARC
  8
0
  6
CONTINUOUS
 10
28.220041
 20
218.303131
 40
3.500000
 50
0.000000
 51
90.000000
  0
LINE
  8
0
  6
CONTINUOUS
 10
26.219942
 20
221.803131
 11
28.220041
 21
221.803131
  0
LINE
  8
0
  6
CONTINUOUS
 10
31.720041
 20
216.303131
 11
31.720041
 21
218.303131
  0
ARC
  8
0
  6
CONTINUOUS
 10
26.219942
 20
222.803131
 40
1.000000
 50
180.000000
 51
270.000000
  0
ARC
  8
0
  6
CONTINUOUS
 10
52.220043
 20
218.303131
 40
3.500000
 50
90.000000
 51
180.000000
  0
LINE
  8
0
  6
CONTINUOUS
 10
48.720043
 20
216.303131
 11
48.720043
 21
218.303131
  0
LINE
  8
0
  6
CONTINUOUS
 10
54.220142
 20
221.803131
 11
52.220043
 21
221.803131
  0
ARC
  8
0
  6
CONTINUOUS
 10
54.220142
 20
222.803131
 40
1.000000
 50
-90.000000
 51
0.000000
  0
LINE
  8
0
  6
CONTINUOUS
 10
53.220043
 20
215.303131
 11
27.219942
 21
215.303131
  0
ARC
  8
0
  6
CONTINUOUS
 10
47.720043
 20
216.303131
 40
1.000000
 50
-90.000000
 51
0.000000
  0
ARC
  8
0
  6
CONTINUOUS
 10
32.720043
 20
216.303131
 40
1.000000
 50
180.000000
 51
270.000000
  0
ARC
  8
0
  6
CONTINUOUS
 10
27.219942
 20
217.303131
 40
2.000000
 50
180.000000
 51
270.000000
  0
ARC
  8
0
  6
CONTINUOUS
 10
53.220043
 20
217.303131
 40
2.000000
 50
-90.000000
 51
0.000000
  0
ARC
  8
0
  6
CONTINUOUS
 10
28.220041
 20
258.303131
 40
3.500000
 50
-90.000000
 51
0.000000
  0
LINE
  8
0
  6
CONTINUOUS
 10
26.219942
 20
254.803131
 11
28.220041
 21
254.803131
  0
LINE
  8
0
  6
CONTINUOUS
 10
31.720041
 20
260.303131
 11
31.720041
 21
258.303131
  0
ARC
  8
0
  6
CONTINUOUS
 10
26.219942
 20
253.803131
 40
1.000000
 50
-270.000000
 51
-180.000000
  0
ARC
  8
0
  6
CONTINUOUS
 10
52.220043
 20
258.303131
 40
3.500000
 50
-180.000000
 51
-90.000000
  0
LINE
  8
0
  6
CONTINUOUS
 10
48.720043
 20
260.303131
 11
48.720043
 21
258.303131
  0
LINE
  8
0
  6
CONTINUOUS
 10
54.220142
 20
254.803131
 11
52.220043
 21
254.803131
  0
ARC
  8
0
  6
CONTINUOUS
 10
54.220142
 20
253.803131
 40
1.000000
 50
0.000000
 51
90.000000
  0
LINE
  8
0
  6
CONTINUOUS
 10
53.220043
 20
261.303131
 11
27.219942
 21
261.303131
  0
ARC
  8
0
  6
CONTINUOUS
 10
47.720043
 20
260.303131
 40
1.000000
 50
0.000000
 51
90.000000
  0
ARC
  8
0
  6
CONTINUOUS
 10
32.720043
 20
260.303131
 40
1.000000
 50
-270.000000
 51
-180.000000
  0
ARC
  8
0
  6
CONTINUOUS
 10
27.219942
 20
259.303131
 40
2.000000
 50
-270.000000
 51
-180.000000
  0
ARC
  8
0
  6
CONTINUOUS
 10
53.220043
 20
259.303131
 40
2.000000
 50
0.000000
 51
90.000000
  0
LINE
  8
0
  6
CONTINUOUS
 10
24.720041
 20
244.303131
 11
24.220041
 21
244.303131
  0
ARC
  8
0
  6
CONTINUOUS
 10
24.220041
 20
243.303131
 40
1.000000
 50
90.000000
 51
180.000000
  0
ARC
  8
0
  6
CONTINUOUS
 10
24.720041
 20
244.803131
 40
0.500000
 50
-90.000000
 51
0.000000
  0
LINE
  8
0
  6
CONTINUOUS
 10
24.720041
 20
232.303131
 11
24.220041
 21
232.303131
  0
ARC
  8
0
  6
CONTINUOUS
 10
24.220041
 20
233.303131
 40
1.000000
 50
-180.000000
 51
-90.000000
  0
ARC
  8
0
  6
CONTINUOUS
 10
24.720041
 20
231.803131
 40
0.500000
 50
0.000000
 51
90.000000
  0
LINE
  8
0
  6
CONTINUOUS
 10
55.720043
 20
244.303131
 11
56.220043
 21
244.303131
  0
ARC
  8
0
  6
CONTINUOUS
 10
56.220043
 20
243.303131
 40
1.000000
 50
0.000000
 51
90.000000
  0
ARC
  8
0
  6
CONTINUOUS
 10
55.720043
 20
244.803131
 40
0.500000
 50
180.000000
 51
270.000000
  0
LINE
  8
0
  6
CONTINUOUS
 10
55.720043
 20
232.303131
 11
56.220043
 21
232.303131
  0
ARC
  8
0
  6
CONTINUOUS
 10
56.220043
 20
233.303131
 40
1.000000
 50
-90.000000
 51
0.000000
  0
ARC
  8
0
  6
CONTINUOUS
 10
55.720043
 20
231.803131
 40
0.500000
 50
90.000000
 51
180.000000
  0
LINE
  8
0
  6
CONTINUOUS
 10
29.970041
 20
218.703125
 11
29.970041
 21
217.903107
  0
LINE
  8
0
  6
CONTINUOUS
 10
27.820019
 20
220.053131
 11
28.620035
 21
220.053131
  0
LINE
  8
0
  6
CONTINUOUS
 10
27.820019
 20
216.553131
 11
28.620035
 21
216.553131
  0
LINE
  8
0
  6
CONTINUOUS
 10
26.470041
 20
218.703125
 11
26.470041
 21
217.903107
  0
CIRCLE
  8
0
  6
CONTINUOUS
 10
28.220041
 20
218.303131
 40
2.750000
  0
ARC
  8
0
  6
CONTINUOUS
 10
26.470041
 20
220.053131
 40
1.350000
 50
-90.000000
 51
0.000000
  0
ARC
  8
0
  6
CONTINUOUS
 10
26.470041
 20
216.553131
 40
1.350000
 50
0.000000
 51
90.000000
  0
ARC
  8
0
  6
CONTINUOUS
 10
29.970041
 20
220.053131
 40
1.350000
 50
180.000000
 51
270.000000
  0
ARC
  8
0
  6
CONTINUOUS
 10
29.970041
 20
216.553131
 40
1.350000
 50
90.000000
 51
180.000000
  0
LINE
  8
0
  6
CONTINUOUS
 10
53.970043
 20
218.703125
 11
53.970043
 21
217.903107
  0
LINE
  8
0
  6
CONTINUOUS
 10
51.820019
 20
220.053131
 11
52.620037
 21
220.053131
  0
LINE
  8
0
  6
CONTINUOUS
 10
51.820019
 20
216.553131
 11
52.620037
 21
216.553131
  0
LINE
  8
0
  6
CONTINUOUS
 10
50.470043
 20
218.703125
 11
50.470043
 21
217.903107
  0
CIRCLE
  8
0
  6
CONTINUOUS
 10
52.220043
 20
218.303131
 40
2.750000
  0
ARC
  8
0
  6
CONTINUOUS
 10
50.470043
 20
220.053131
 40
1.350000
 50
-90.000000
 51
0.000000
  0
ARC
  8
0
  6
CONTINUOUS
 10
50.470043
 20
216.553131
 40
1.350000
 50
0.000000
 51
90.000000
  0
ARC
  8
0
  6
CONTINUOUS
 10
53.970043
 20
220.053131
 40
1.350000
 50
180.000000
 51
270.000000
  0
ARC
  8
0
  6
CONTINUOUS
 10
53.970043
 20
216.553131
 40
1.350000
 50
90.000000
 51
180.000000
  0
LINE
  8
0
  6
CONTINUOUS
 10
53.970043
 20
258.703125
 11
53.970043
 21
257.903107
  0
LINE
  8
0
  6
CONTINUOUS
 10
51.820019
 20
260.053131
 11
52.620037
 21
260.053131
  0
LINE
  8
0
  6
CONTINUOUS
 10
51.820019
 20
256.553131
 11
52.620037
 21
256.553131
  0
LINE
  8
0
  6
CONTINUOUS
 10
50.470043
 20
258.703125
 11
50.470043
 21
257.903107
  0
CIRCLE
  8
0
  6
CONTINUOUS
 10
52.220043
 20
258.303131
 40
2.750000
  0
ARC
  8
0
  6
CONTINUOUS
 10
50.470043
 20
260.053131
 40
1.350000
 50
-90.000000
 51
0.000000
  0
ARC
  8
0
  6
CONTINUOUS
 10
50.470043
 20
256.553131
 40
1.350000
 50
0.000000
 51
90.000000
  0
ARC
  8
0
  6
CONTINUOUS
 10
53.970043
 20
260.053131
 40
1.350000
 50
180.000000
 51
270.000000
  0
ARC
  8
0
  6
CONTINUOUS
 10
53.970043
 20
256.553131
 40
1.350000
 50
90.000000
 51
180.000000
  0
LINE
  8
0
  6
CONTINUOUS
 10
29.970041
 20
258.703125
 11
29.970041
 21
257.903107
  0
LINE
  8
0
  6
CONTINUOUS
 10
27.820019
 20
260.053131
 11
28.620035
 21
260.053131
  0
LINE
  8
0
  6
CONTINUOUS
 10
27.820019
 20
256.553131
 11
28.620035
 21
256.553131
  0
LINE
  8
0
  6
CONTINUOUS
 10
26.470041
 20
258.703125
 11
26.470041
 21
257.903107
  0
CIRCLE
  8
0
  6
CONTINUOUS
 10
28.220041
 20
258.303131
 40
2.750000
  0
ARC
  8
0
  6
CONTINUOUS
 10
26.470041
 20
260.053131
 40
1.350000
 50
-90.000000
 51
0.000000
  0
ARC
  8
0
  6
CONTINUOUS
 10
26.470041
 20
256.553131
 40
1.350000
 50
0.000000
 51
90.000000
  0
ARC
  8
0
  6
CONTINUOUS
 10
29.970041
 20
260.053131
 40
1.350000
 50
180.000000
 51
270.000000
  0
ARC
  8
0
  6
CONTINUOUS
 10
29.970041
 20
256.553131
 40
1.350000
 50
90.000000
 51
180.000000
  0
LINE
  8
0
  6
CONTINUOUS
 10
8.071362
 20
234.453125
 11
23.220161
 21
234.453125
  0
LINE
  8
0
  6
CONTINUOUS
 10
8.923162
 20
242.153122
 11
8.187362
 21
239.318024
  0
LINE
  8
0
  6
CONTINUOUS
 10
8.187362
 20
239.318024
 11
8.999462
 21
236.843018
  0
LINE
  8
0
  6
CONTINUOUS
 10
8.999462
 20
236.843018
 11
8.071362
 21
234.453125
  0
LINE
  8
0
  6
CONTINUOUS
 10
8.923162
 20
242.153122
 11
23.220161
 21
242.153122
  0
LINE
  8
0
  6
CENTER
 10
-13.565234
 20
238.303131
 11
231.906097
 21
238.303131
  0
LINE
  8
0
  6
CONTINUOUS
 10
57.715862
 20
291.303131
 11
187.720016
 21
291.303131
  0
LINE
  8
0
  6
CONTINUOUS
 10
57.715748
 20
185.303131
 11
187.720016
 21
185.303131
  0
LINE
  8
0
  6
CONTINUOUS
 10
187.720016
 20
176.303131
 11
187.720016
 21
300.303131
  0
LINE
  8
0
  6
CONTINUOUS
 10
184.720016
 20
303.303131
 11
130.720016
 21
303.303131
  0
LINE
  8
0
  6
CONTINUOUS
 10
130.720016
 20
173.303131
 11
184.720016
 21
173.303131
  0
LINE
  8
0
  6
CONTINUOUS
 10
127.720009
 20
300.303131
 11
127.720009
 21
291.303131
  0
LINE
  8
0
  6
CONTINUOUS
 10
127.720009
 20
176.303131
 11
127.720009
 21
185.303131
  0
ARC
  8
0
  6
CONTINUOUS
 10
130.720016
 20
300.303131
 40
3.000000
 50
90.000000
 51
180.000000
  0
ARC
  8
0
  6
CONTINUOUS
 10
184.720016
 20
300.303131
 40
3.000000
 50
0.000000
 51
90.000000
  0
ARC
  8
0
  6
CONTINUOUS
 10
184.720016
 20
176.303131
 40
3.000000
 50
-90.000000
 51
0.000000
  0
ARC
  8
0
  6
CONTINUOUS
 10
130.720016
 20
176.303131
 40
3.000000
 50
180.000000
 51
270.000000
  0
LINE
  8
0
  6
CONTINUOUS
 10
57.720043
 20
269.803131
 11
187.720016
 21
269.803131
  0
LINE
  8
0
  6
CONTINUOUS
 10
57.720043
 20
206.803131
 11
187.720016
 21
206.803131
  0
LINE
  8
0
  6
CONTINUOUS
 10
192.720001
 20
215.803131
 11
192.720001
 21
260.803131
  0
LINE
  8
0
  6
CONTINUOUS
 10
191.720001
 20
261.803131
 11
187.720016
 21
261.803131
  0
LINE
  8
0
  6
CONTINUOUS
 10
191.720001
 20
214.803131
 11
187.720016
 21
214.803131
  0
ARC
  8
0
  6
CONTINUOUS
 10
191.720001
 20
260.803131
 40
1.000000
 50
0.000000
 51
90.000000
  0
ARC
  8
0
  6
CONTINUOUS
 10
191.720001
 20
215.803131
 40
1.000000
 50
-90.000000
 51
0.000000
  0
LINE
  8
0
  6
CONTINUOUS
 10
224.720001
 20
226.803116
 11
224.720001
 21
247.303116
  0
LINE
  8
0
  6
CONTINUOUS
 10
194.720001
 20
247.303116
 11
224.720001
 21
247.303116
  0
LINE
  8
0
  6
CONTINUOUS
 10
194.720001
 20
229.303131
 11
200.720001
 21
229.303131
  0
LINE
  8
0
  6
CONTINUOUS
 10
194.720001
 20
248.303116
 11
194.720001
 21
228.303131
  0
LINE
  8
0
  6
CONTINUOUS
 10
192.720001
 20
248.303116
 11
194.720001
 21
248.303116
  0
LINE
  8
0
  6
CONTINUOUS
 10
192.720001
 20
228.303131
 11
194.720001
 21
228.303131
  0
LINE
  8
0
  6
CONTINUOUS
 10
165.720016
 20
185.303131
 11
165.720016
 21
175.165161
  0
LINE
  8
0
  6
CONTINUOUS
 10
149.720016
 20
185.303131
 11
149.720016
 21
175.165161
  0
LINE
  8
0
  6
CENTER
 10
177.720016
 20
191.541870
 11
177.720016
 21
174.552429
  0
LINE
  8
0
  6
CENTER
 10
137.720016
 20
192.321716
 11
137.720016
 21
174.830933
  0
LINE
  8
0
  6
CENTER
 10
129.664230
 20
183.303131
 11
146.486572
 21
183.303131
  0
LINE
  8
0
  6
CENTER
 10
169.770477
 20
183.303131
 11
186.091492
 21
183.303131
  0
ARC
  8
0
  6
CONTINUOUS
 10
177.720016
 20
183.303131
 40
4.250000
 50
-208.072495
 51
28.072487
  0
ARC
  8
0
  6
DASHED
 10
137.720016
 20
183.303131
 40
4.250000
 50
28.072487
 51
151.927505
  0
ARC
  8
0
  6
CONTINUOUS
 10
137.720016
 20
183.303131
 40
4.250000
 50
-208.072495
 51
28.072487
  0
ARC
  8
0
  6
DASHED
 10
177.720016
 20
183.303131
 40
4.250000
 50
28.072487
 51
151.927505
  0
LINE
  8
0
  6
CONTINUOUS
 10
200.720001
 20
229.818130
 11
200.720001
 21
226.803116
  0
LINE
  8
0
  6
CONTINUOUS
 10
200.720001
 20
226.803116
 11
224.720001
 21
226.803116
  0
LINE
  8
0
  6
CONTINUOUS
 10
200.720001
 20
229.818130
 11
224.720001
 21
229.818130
  0
LINE
  8
0
  6
CONTINUOUS
 10
165.720016
 20
291.303131
 11
165.720016
 21
301.441101
  0
LINE
  8
0
  6
CONTINUOUS
 10
149.720016
 20
291.303131
 11
149.720016
 21
301.441101
  0
LINE
  8
0
  6
CENTER
 10
177.720016
 20
285.064362
 11
177.720016
 21
302.053833
  0
LINE
  8
0
  6
CENTER
 10
137.720016
 20
284.284546
 11
137.720016
 21
301.775299
  0
LINE
  8
0
  6
CENTER
 10
129.664230
 20
293.303131
 11
146.486572
 21
293.303131
  0
LINE
  8
0
  6
CENTER
 10
169.770477
 20
293.303131
 11
186.091492
 21
293.303131
  0
ARC
  8
0
  6
CONTINUOUS
 10
177.720016
 20
293.303131
 40
4.250000
 50
-28.072487
 51
208.072495
  0
ARC
  8
0
  6
DASHED
 10
137.720016
 20
293.303131
 40
4.250000
 50
-151.927505
 51
-28.072487
  0
ARC
  8
0
  6
CONTINUOUS
 10
137.720016
 20
293.303131
 40
4.250000
 50
-28.072487
 51
208.072495
  0
ARC
  8
0
  6
DASHED
 10
177.720016
 20
293.303131
 40
4.250000
 50
-151.927505
 51
-28.072487
  0
LINE
  8
0
  6
CONTINUOUS
 10
57.720043
 20
291.303131
 11
57.720043
 21
185.303024
  0
LINE
  8
0
  6
CONTINUOUS
 10
30.720041
 20
187.258331
 11
30.720041
 21
215.303131
  0
LINE
  8
0
  6
CONTINUOUS
 10
30.720041
 20
289.347931
 11
30.720041
 21
261.303131
  0
LINE
  8
0
  6
CONTINUOUS
 10
57.720043
 20
185.303024
 11
32.719643
 21
185.957825
  0
LINE
  8
0
  6
CONTINUOUS
 10
31.453741
 20
186.294418
 11
32.719341
 21
185.944717
  0
ARC
  8
0
  6
CONTINUOUS
 10
31.720041
 20
187.258331
 40
1.000000
 50
180.000000
 51
254.554504
  0
LINE
  8
0
  6
CONTINUOUS
 10
44.206741
 20
207.157028
 11
57.720043
 21
206.803131
  0
LINE
  8
0
  6
CONTINUOUS
 10
57.720043
 20
291.303131
 11
32.719643
 21
290.648438
  0
LINE
  8
0
  6
CONTINUOUS
 10
31.453741
 20
290.311829
 11
32.719341
 21
290.661530
  0
ARC
  8
0
  6
CONTINUOUS
 10
31.720041
 20
289.347931
 40
1.000000
 50
-254.554504
 51
-180.000000
  0
LINE
  8
0
  6
CONTINUOUS
 10
57.720043
 20
269.803131
 11
44.206741
 21
269.449219
  0
LINE
  8
0
  6
CONTINUOUS
 10
43.719841
 20
205.790222
 11
43.719841
 21
215.303131
  0
ARC
  8
0
  6
CONTINUOUS
 10
44.219841
 20
207.656921
 40
0.500000
 50
180.000000
 51
268.499908
  0
LINE
  8
0
  6
CONTINUOUS
 10
43.719841
 20
270.816040
 11
43.719841
 21
261.202728
  0
ARC
  8
0
  6
CONTINUOUS
 10
44.219841
 20
268.949310
 40
0.500000
 50
-268.499908
 51
-180.000000
  0
LINE
  8
0
  6
CONTINUOUS
 10
44.206642
 20
271.315918
 11
30.720041
 21
270.962616
  0
ARC
  8
0
  6
CONTINUOUS
 10
44.219841
 20
270.816040
 40
0.500000
 50
91.504303
 51
180.000000
  0
LINE
  8
0
  6
CONTINUOUS
 10
44.206642
 20
205.290329
 11
30.720041
 21
205.643631
  0
ARC
  8
0
  6
CONTINUOUS
 10
44.219841
 20
205.790222
 40
0.500000
 50
-180.000000
 51
-91.504303
  0
LINE
  8
0
  6
CONTINUOUS
 10
42.419842
 20
215.303131
 11
42.419842
 21
207.803131
  0
LINE
  8
0
  6
CONTINUOUS
 10
42.419842
 20
207.803131
 11
41.161114
 21
207.803131
  0
ARC
  8
0
  6
CONTINUOUS
 10
50.648453
 20
212.303131
 40
11.571430
 50
164.973892
 51
196.601013
  0
ARC
  8
0
  6
CONTINUOUS
 10
41.161114
 20
209.474533
 40
1.671429
 50
-163.399094
 51
-90.000000
  0
LINE
  8
0
  6
CONTINUOUS
 10
43.719841
 20
208.053131
 11
42.419842
 21
208.053131
  0
LINE
  8
0
  6
CONTINUOUS
 10
42.419842
 20
261.303131
 11
42.419842
 21
268.803131
  0
LINE
  8
0
  6
CONTINUOUS
 10
42.419842
 20
268.803131
 11
41.161114
 21
268.803131
  0
ARC
  8
0
  6
CONTINUOUS
 10
50.648453
 20
264.303131
 40
11.571430
 50
-196.601013
 51
-164.973892
  0
ARC
  8
0
  6
CONTINUOUS
 10
41.161114
 20
267.131714
 40
1.671429
 50
90.000000
 51
163.399094
  0
LINE
  8
0
  6
CONTINUOUS
 10
43.719841
 20
268.553131
 11
42.419842
 21
268.553131
  0
LINE
  8
0
  6
CONTINUOUS
 10
3.464140
 20
276.839417
 11
30.720041
 21
277.553131
  0
LINE
  8
0
  6
CONTINUOUS
 10
2.013886
 20
276.584534
 11
1.087586
 21
276.275757
  0
ARC
  8
0
  6
CONTINUOUS
 10
1.720042
 20
274.378387
 40
2.000000
 50
108.434952
 51
180.000000
  0
ARC
  8
0
  6
CONTINUOUS
 10
3.595025
 20
271.841125
 40
5.000000
 50
91.500000
 51
108.434952
  0
LINE
  8
0
  6
CONTINUOUS
 10
27.206953
 20
277.455536
 11
30.720041
 21
277.547516
  0
LINE
  8
0
  6
CONTINUOUS
 10
26.720041
 20
276.955688
 11
26.720041
 21
267.832977
  0
LINE
  8
0
  6
CONTINUOUS
 10
26.720041
 20
276.343536
 11
25.280832
 21
276.343536
  0
LINE
  8
0
  6
CONTINUOUS
 10
26.720041
 20
270.843536
 11
25.280832
 21
270.843536
  0
LINE
  8
0
  6
CONTINUOUS
 10
26.020090
 20
276.343536
 11
26.020090
 21
270.843536
  0
ARC
  8
0
  6
CONTINUOUS
 10
31.020090
 20
273.593536
 40
7.000000
 50
-196.957993
 51
-163.043503
  0
ARC
  8
0
  6
CONTINUOUS
 10
25.280832
 20
271.843536
 40
1.000000
 50
-163.043106
 51
-90.000000
  0
ARC
  8
0
  6
CONTINUOUS
 10
25.280832
 20
275.343536
 40
1.000000
 50
-270.000000
 51
-196.958099
  0
LINE
  8
0
  6
CONTINUOUS
 10
26.720041
 20
267.832977
 11
30.720041
 21
267.832977
  0
ARC
  8
0
  6
CONTINUOUS
 10
27.220041
 20
276.955688
 40
0.500000
 50
-268.500000
 51
-180.000000
  0
LINE
  8
0
  6
CONTINUOUS
 10
-0.279958
 20
274.378387
 11
-0.279958
 21
202.227844
  0
LINE
  8
0
  6
CONTINUOUS
 10
2.013886
 20
200.021713
 11
1.087586
 21
200.330490
  0
LINE
  8
0
  6
CONTINUOUS
 10
3.464140
 20
199.766846
 11
30.720041
 21
199.053131
  0
ARC
  8
0
  6
CONTINUOUS
 10
3.595025
 20
204.765137
 40
5.000000
 50
-108.434952
 51
-91.500000
  0
ARC
  8
0
  6
CONTINUOUS
 10
1.720042
 20
202.227844
 40
2.000000
 50
-180.000000
 51
-108.434952
  0
LINE
  8
0
  6
CONTINUOUS
 10
27.206953
 20
199.150711
 11
30.720041
 21
199.058731
  0
ARC
  8
0
  6
CONTINUOUS
 10
27.220041
 20
199.650543
 40
0.500000
 50
180.000000
 51
268.500000
  0
LINE
  8
0
  6
CONTINUOUS
 10
26.720041
 20
199.650543
 11
26.720041
 21
208.773254
  0
LINE
  8
0
  6
CONTINUOUS
 10
26.720041
 20
200.262726
 11
25.280832
 21
200.262726
  0
ARC
  8
0
  6
CONTINUOUS
 10
25.280832
 20
201.262726
 40
1.000000
 50
196.958099
 51
270.000000
  0
LINE
  8
0
  6
CONTINUOUS
 10
26.020090
 20
200.262726
 11
26.020090
 21
205.762726
  0
LINE
  8
0
  6
CONTINUOUS
 10
26.720041
 20
205.762726
 11
25.280832
 21
205.762726
  0
ARC
  8
0
  6
CONTINUOUS
 10
25.280832
 20
204.762726
 40
1.000000
 50
90.000000
 51
163.043106
  0
ARC
  8
0
  6
CONTINUOUS
 10
31.020090
 20
203.012726
 40
7.000000
 50
163.043503
 51
196.957993
  0
LINE
  8
0
  6
CONTINUOUS
 10
26.720041
 20
208.773254
 11
30.720041
 21
208.773254
  0
LINE
  8
0
  6
CONTINUOUS
 10
1.962004
 20
102.480774
 11
1.043201
 21
102.150345
  0
ARC
  8
0
  6
CONTINUOUS
 10
1.720030
 20
100.268349
 40
2.000000
 50
109.780319
 51
180.000000
  0
ARC
  8
0
  6
CONTINUOUS
 10
3.654074
 20
97.775787
 40
5.000000
 50
91.500000
 51
109.780281
  0
LINE
  8
0
  6
CONTINUOUS
 10
3.523190
 20
102.774078
 11
30.721222
 21
103.486282
  0
LINE
  8
0
  6
CONTINUOUS
 10
26.720009
 20
20.578074
 11
26.720009
 21
25.355808
  0
LINE
  8
0
  6
CONTINUOUS
 10
26.720009
 20
20.736271
 11
25.280798
 21
20.736271
  0
LINE
  8
0
  6
CONTINUOUS
 10
26.020058
 20
20.736271
 11
26.020058
 21
25.374138
  0
ARC
  8
0
  6
CONTINUOUS
 10
31.020058
 20
23.486271
 40
7.000000
 50
163.968933
 51
196.957993
  0
ARC
  8
0
  6
CONTINUOUS
 10
25.280798
 20
21.736271
 40
1.000000
 50
196.958099
 51
270.000000
  0
LINE
  8
0
  6
CONTINUOUS
 10
27.206919
 20
20.078243
 11
30.720009
 21
19.986250
  0
ARC
  8
0
  6
CONTINUOUS
 10
27.220009
 20
20.578074
 40
0.500000
 50
180.000000
 51
268.500000
  0
LINE
  8
0
  6
CONTINUOUS
 10
26.720009
 20
76.499809
 11
30.720009
 21
76.499809
  0
LINE
  8
0
  6
CONTINUOUS
 10
26.720009
 20
76.499809
 11
26.720009
 21
88.611252
  0
LINE
  8
0
  6
CONTINUOUS
 10
26.720009
 20
88.611252
 11
30.720009
 21
88.611252
  0
LINE
  8
0
  6
CONTINUOUS
 10
26.020058
 20
81.861252
 11
26.020058
 21
87.361252
  0
LINE
  8
0
  6
CONTINUOUS
 10
26.720009
 20
87.361252
 11
25.280798
 21
87.361252
  0
LINE
  8
0
  6
CONTINUOUS
 10
26.720009
 20
81.861252
 11
25.280798
 21
81.861252
  0
ARC
  8
0
  6
CONTINUOUS
 10
25.280798
 20
82.861252
 40
1.000000
 50
196.958099
 51
270.000000
  0
ARC
  8
0
  6
CONTINUOUS
 10
31.020058
 20
84.611252
 40
7.000000
 50
163.043503
 51
196.957993
  0
ARC
  8
0
  6
CONTINUOUS
 10
25.280798
 20
86.361252
 40
1.000000
 50
90.000000
 51
163.043106
  0
LINE
  8
0
  6
CONTINUOUS
 10
26.720009
 20
81.637436
 11
-0.279977
 21
82.344452
  0
LINE
  8
0
  6
CONTINUOUS
 10
26.720009
 20
87.585068
 11
-0.279977
 21
86.878052
  0
LINE
  8
0
  6
CONTINUOUS
 10
24.026611
 20
273.895569
 11
-0.279958
 21
273.259094
  0
LINE
  8
0
  6
CONTINUOUS
 10
26.720041
 20
269.984955
 11
-0.279958
 21
270.691986
  0
LINE
  8
0
  6
CONTINUOUS
 10
26.720041
 20
206.621307
 11
-0.279958
 21
205.914276
  0
LINE
  8
0
  6
CONTINUOUS
 10
24.026611
 20
202.710663
 11
-0.279958
 21
203.347153
  0
TEXT
  8
0
 10
-13.000000
 20
-2.000000
 40
4.000000
 41
1.000000
  1
GLV-18-5~240-S60
 50
0.000000
  0
ENDSEC
  0
EOF
