  0
SECTION
  2
HEADER
  9
$CLAYER
  8
1
  9
$LTSCALE
 40
3.0
  0
ENDSEC
  0
SECTION
  2
TABLES
  0
TABLE
  2
LTYPE
 70
     4
  0
LTYPE
  2
CONTINUOUS
  3
solid line
 70
    64
 72
    65
 73
     0
 40
0.0
  0
LTYPE
  2
DASHED
  3
__ __ __ __ __ __ __ __ __ __ __ __ __ __ __
 70
    64
 72
    65
 73
     2
 40
0.75
 49
0.5
 49
-0.25
  0
LTYPE
  2
CENTER
  3
____ _ ____ _ ____ _ ____ _ ____ _ ____ _ ____
 70
    64
 72
    65
 73
     4
 40
2.0
 49
1.25
 49
-0.25
 49
0.25
 49
-0.25
  0
LTYPE
  2
PHANTOM
  3
_____ _ _ _____ _ _ _____ _ _ _____ _ _ ____
 70
    64
 72
    65
 73
     6
 40
2.5
 49
1.25
 49
-0.25
 49
0.25
 49
-0.25
 49
0.25
 49
-0.25
  0
ENDTAB
  0
TABLE
  2
LAYER
 70
     1
  0
LAYER
  2
0
 70
    64
 62
     7
  6
CONTINUOUS
  0
ENDTAB
  0
TABLE
  2
STYLE
 70
     1
  0
STYLE
  2
STANDARD
 70
     0
 40
0.000000
 41
1.000000
 50
0.000000
 71
     0
 42
3.000000
  3
txt
  4
BIGFONT
  0
ENDTAB
  0
ENDSEC
  0
SECTION
  2
BLOCKS
  0
ENDSEC
  0
SECTION
  2
ENTITIES
  0
LINE
  8
0
  6
CONTINUOUS
 10
1.494942
 20
233.847794
 11
1.494942
 21
248.617386
  0
LINE
  8
0
  6
CONTINUOUS
 10
31.495043
 20
260.545593
 11
31.495043
 21
275.563873
  0
LINE
  8
0
  6
CENTER
 10
16.495043
 20
279.533081
 11
16.495043
 21
229.463120
  0
LINE
  8
0
  6
CONTINUOUS
 10
31.495043
 20
248.617386
 11
31.495043
 21
233.598984
  0
LINE
  8
0
  6
CONTINUOUS
 10
1.494942
 20
260.545593
 11
1.494942
 21
275.337097
  0
LINE
  8
0
  6
CONTINUOUS
 10
1.494942
 20
233.581482
 11
1.494942
 21
275.581482
  0
LINE
  8
0
  6
CONTINUOUS
 10
31.495043
 20
275.581482
 11
31.495043
 21
233.581482
  0
LINE
  8
0
  6
CONTINUOUS
 10
33.495041
 20
259.581482
 11
33.495041
 21
249.581482
  0
LINE
  8
0
  6
CONTINUOUS
 10
-0.504958
 20
259.581482
 11
-0.504958
 21
249.581482
  0
ARC
  8
0
  6
CONTINUOUS
 10
4.495042
 20
234.581482
 40
3.500000
 50
0.000000
 51
90.000000
  0
LINE
  8
0
  6
CONTINUOUS
 10
2.494942
 20
238.081482
 11
4.495042
 21
238.081482
  0
LINE
  8
0
  6
CONTINUOUS
 10
7.995042
 20
232.581482
 11
7.995042
 21
234.581482
  0
ARC
  8
0
  6
CONTINUOUS
 10
2.494942
 20
239.081482
 40
1.000000
 50
180.000000
 51
270.000000
  0
ARC
  8
0
  6
CONTINUOUS
 10
28.495043
 20
234.581482
 40
3.500000
 50
90.000000
 51
180.000000
  0
LINE
  8
0
  6
CONTINUOUS
 10
24.995043
 20
232.581482
 11
24.995043
 21
234.581482
  0
LINE
  8
0
  6
CONTINUOUS
 10
30.495142
 20
238.081482
 11
28.495043
 21
238.081482
  0
ARC
  8
0
  6
CONTINUOUS
 10
30.495142
 20
239.081482
 40
1.000000
 50
-90.000000
 51
0.000000
  0
LINE
  8
0
  6
CONTINUOUS
 10
29.495043
 20
231.581482
 11
3.494942
 21
231.581482
  0
ARC
  8
0
  6
CONTINUOUS
 10
23.995043
 20
232.581482
 40
1.000000
 50
-90.000000
 51
0.000000
  0
ARC
  8
0
  6
CONTINUOUS
 10
8.995042
 20
232.581482
 40
1.000000
 50
180.000000
 51
270.000000
  0
ARC
  8
0
  6
CONTINUOUS
 10
3.494942
 20
233.581482
 40
2.000000
 50
180.000000
 51
270.000000
  0
ARC
  8
0
  6
CONTINUOUS
 10
29.495043
 20
233.581482
 40
2.000000
 50
-90.000000
 51
0.000000
  0
ARC
  8
0
  6
CONTINUOUS
 10
4.495042
 20
274.581482
 40
3.500000
 50
-90.000000
 51
0.000000
  0
LINE
  8
0
  6
CONTINUOUS
 10
2.494942
 20
271.081482
 11
4.495042
 21
271.081482
  0
LINE
  8
0
  6
CONTINUOUS
 10
7.995042
 20
276.581482
 11
7.995042
 21
274.581482
  0
ARC
  8
0
  6
CONTINUOUS
 10
2.494942
 20
270.081482
 40
1.000000
 50
-270.000000
 51
-180.000000
  0
ARC
  8
0
  6
CONTINUOUS
 10
28.495043
 20
274.581482
 40
3.500000
 50
-180.000000
 51
-90.000000
  0
LINE
  8
0
  6
CONTINUOUS
 10
24.995043
 20
276.581482
 11
24.995043
 21
274.581482
  0
LINE
  8
0
  6
CONTINUOUS
 10
30.495142
 20
271.081482
 11
28.495043
 21
271.081482
  0
ARC
  8
0
  6
CONTINUOUS
 10
30.495142
 20
270.081482
 40
1.000000
 50
0.000000
 51
90.000000
  0
LINE
  8
0
  6
CONTINUOUS
 10
29.495043
 20
277.581482
 11
3.494942
 21
277.581482
  0
ARC
  8
0
  6
CONTINUOUS
 10
23.995043
 20
276.581482
 40
1.000000
 50
0.000000
 51
90.000000
  0
ARC
  8
0
  6
CONTINUOUS
 10
8.995042
 20
276.581482
 40
1.000000
 50
-270.000000
 51
-180.000000
  0
ARC
  8
0
  6
CONTINUOUS
 10
3.494942
 20
275.581482
 40
2.000000
 50
-270.000000
 51
-180.000000
  0
ARC
  8
0
  6
CONTINUOUS
 10
29.495043
 20
275.581482
 40
2.000000
 50
0.000000
 51
90.000000
  0
LINE
  8
0
  6
CONTINUOUS
 10
0.995042
 20
260.581482
 11
0.495042
 21
260.581482
  0
ARC
  8
0
  6
CONTINUOUS
 10
0.495042
 20
259.581482
 40
1.000000
 50
90.000000
 51
180.000000
  0
ARC
  8
0
  6
CONTINUOUS
 10
0.995042
 20
261.081482
 40
0.500000
 50
-90.000000
 51
0.000000
  0
LINE
  8
0
  6
CONTINUOUS
 10
0.995042
 20
248.581482
 11
0.495042
 21
248.581482
  0
ARC
  8
0
  6
CONTINUOUS
 10
0.495042
 20
249.581482
 40
1.000000
 50
-180.000000
 51
-90.000000
  0
ARC
  8
0
  6
CONTINUOUS
 10
0.995042
 20
248.081482
 40
0.500000
 50
0.000000
 51
90.000000
  0
LINE
  8
0
  6
CONTINUOUS
 10
31.995043
 20
260.581482
 11
32.495041
 21
260.581482
  0
ARC
  8
0
  6
CONTINUOUS
 10
32.495041
 20
259.581482
 40
1.000000
 50
0.000000
 51
90.000000
  0
ARC
  8
0
  6
CONTINUOUS
 10
31.995043
 20
261.081482
 40
0.500000
 50
180.000000
 51
270.000000
  0
LINE
  8
0
  6
CONTINUOUS
 10
31.995043
 20
248.581482
 11
32.495041
 21
248.581482
  0
ARC
  8
0
  6
CONTINUOUS
 10
32.495041
 20
249.581482
 40
1.000000
 50
-90.000000
 51
0.000000
  0
ARC
  8
0
  6
CONTINUOUS
 10
31.995043
 20
248.081482
 40
0.500000
 50
90.000000
 51
180.000000
  0
LINE
  8
0
  6
CONTINUOUS
 10
6.245042
 20
234.981476
 11
6.245042
 21
234.181458
  0
LINE
  8
0
  6
CONTINUOUS
 10
4.095018
 20
236.331482
 11
4.895036
 21
236.331482
  0
LINE
  8
0
  6
CONTINUOUS
 10
4.095018
 20
232.831482
 11
4.895036
 21
232.831482
  0
LINE
  8
0
  6
CONTINUOUS
 10
2.745042
 20
234.981476
 11
2.745042
 21
234.181458
  0
CIRCLE
  8
0
  6
CONTINUOUS
 10
4.495042
 20
234.581482
 40
2.750000
  0
ARC
  8
0
  6
CONTINUOUS
 10
2.745042
 20
236.331482
 40
1.350000
 50
-90.000000
 51
0.000000
  0
ARC
  8
0
  6
CONTINUOUS
 10
2.745042
 20
232.831482
 40
1.350000
 50
0.000000
 51
90.000000
  0
ARC
  8
0
  6
CONTINUOUS
 10
6.245042
 20
236.331482
 40
1.350000
 50
180.000000
 51
270.000000
  0
ARC
  8
0
  6
CONTINUOUS
 10
6.245042
 20
232.831482
 40
1.350000
 50
90.000000
 51
180.000000
  0
LINE
  8
0
  6
CONTINUOUS
 10
30.245043
 20
234.981476
 11
30.245043
 21
234.181458
  0
LINE
  8
0
  6
CONTINUOUS
 10
28.095018
 20
236.331482
 11
28.895037
 21
236.331482
  0
LINE
  8
0
  6
CONTINUOUS
 10
28.095018
 20
232.831482
 11
28.895037
 21
232.831482
  0
LINE
  8
0
  6
CONTINUOUS
 10
26.745043
 20
234.981476
 11
26.745043
 21
234.181458
  0
CIRCLE
  8
0
  6
CONTINUOUS
 10
28.495043
 20
234.581482
 40
2.750000
  0
ARC
  8
0
  6
CONTINUOUS
 10
26.745043
 20
236.331482
 40
1.350000
 50
-90.000000
 51
0.000000
  0
ARC
  8
0
  6
CONTINUOUS
 10
26.745043
 20
232.831482
 40
1.350000
 50
0.000000
 51
90.000000
  0
ARC
  8
0
  6
CONTINUOUS
 10
30.245043
 20
236.331482
 40
1.350000
 50
180.000000
 51
270.000000
  0
ARC
  8
0
  6
CONTINUOUS
 10
30.245043
 20
232.831482
 40
1.350000
 50
90.000000
 51
180.000000
  0
LINE
  8
0
  6
CONTINUOUS
 10
30.245043
 20
274.981476
 11
30.245043
 21
274.181458
  0
LINE
  8
0
  6
CONTINUOUS
 10
28.095018
 20
276.331482
 11
28.895037
 21
276.331482
  0
LINE
  8
0
  6
CONTINUOUS
 10
28.095018
 20
272.831482
 11
28.895037
 21
272.831482
  0
LINE
  8
0
  6
CONTINUOUS
 10
26.745043
 20
274.981476
 11
26.745043
 21
274.181458
  0
CIRCLE
  8
0
  6
CONTINUOUS
 10
28.495043
 20
274.581482
 40
2.750000
  0
ARC
  8
0
  6
CONTINUOUS
 10
26.745043
 20
276.331482
 40
1.350000
 50
-90.000000
 51
0.000000
  0
ARC
  8
0
  6
CONTINUOUS
 10
26.745043
 20
272.831482
 40
1.350000
 50
0.000000
 51
90.000000
  0
ARC
  8
0
  6
CONTINUOUS
 10
30.245043
 20
276.331482
 40
1.350000
 50
180.000000
 51
270.000000
  0
ARC
  8
0
  6
CONTINUOUS
 10
30.245043
 20
272.831482
 40
1.350000
 50
90.000000
 51
180.000000
  0
LINE
  8
0
  6
CONTINUOUS
 10
6.245042
 20
274.981476
 11
6.245042
 21
274.181458
  0
LINE
  8
0
  6
CONTINUOUS
 10
4.095018
 20
276.331482
 11
4.895036
 21
276.331482
  0
LINE
  8
0
  6
CONTINUOUS
 10
4.095018
 20
272.831482
 11
4.895036
 21
272.831482
  0
LINE
  8
0
  6
CONTINUOUS
 10
2.745042
 20
274.981476
 11
2.745042
 21
274.181458
  0
CIRCLE
  8
0
  6
CONTINUOUS
 10
4.495042
 20
274.581482
 40
2.750000
  0
ARC
  8
0
  6
CONTINUOUS
 10
2.745042
 20
276.331482
 40
1.350000
 50
-90.000000
 51
0.000000
  0
ARC
  8
0
  6
CONTINUOUS
 10
2.745042
 20
272.831482
 40
1.350000
 50
0.000000
 51
90.000000
  0
ARC
  8
0
  6
CONTINUOUS
 10
6.245042
 20
276.331482
 40
1.350000
 50
180.000000
 51
270.000000
  0
ARC
  8
0
  6
CONTINUOUS
 10
6.245042
 20
272.831482
 40
1.350000
 50
90.000000
 51
180.000000
  0
LINE
  8
0
  6
CONTINUOUS
 10
-15.653638
 20
250.731491
 11
-0.504838
 21
250.731491
  0
LINE
  8
0
  6
CONTINUOUS
 10
-14.801838
 20
258.431488
 11
-15.537638
 21
255.596390
  0
LINE
  8
0
  6
CONTINUOUS
 10
-15.537638
 20
255.596390
 11
-14.725538
 21
253.121384
  0
LINE
  8
0
  6
CONTINUOUS
 10
-14.725538
 20
253.121384
 11
-15.653638
 21
250.731491
  0
LINE
  8
0
  6
CONTINUOUS
 10
-14.801838
 20
258.431488
 11
-0.504838
 21
258.431488
  0
LINE
  8
0
  6
CONTINUOUS
 10
19.995001
 20
24.135000
 11
19.995001
 21
12.488630
  0
LINE
  8
0
  6
CONTINUOUS
 10
8.941985
 20
24.135000
 11
19.995001
 21
24.135000
  0
LINE
  8
0
  6
CONTINUOUS
 10
6.995015
 20
104.635483
 11
6.995000
 21
13.590010
  0
LINE
  8
0
  6
CENTER
 10
16.495001
 20
137.803757
 11
16.495001
 21
118.684685
  0
LINE
  8
0
  6
CONTINUOUS
 10
5.995011
 20
105.635483
 11
3.494850
 21
105.635468
  0
LINE
  8
0
  6
CONTINUOUS
 10
33.994999
 20
117.634972
 11
1.494830
 21
117.634857
  0
LINE
  8
0
  6
CONTINUOUS
 10
33.994999
 20
11.635000
 11
33.994999
 21
117.635002
  0
LINE
  8
0
  6
CENTER
 10
-8.688672
 20
64.635002
 11
176.744995
 21
64.635002
  0
LINE
  8
0
  6
CONTINUOUS
 10
163.994995
 20
12.635000
 11
163.994995
 21
4.635000
  0
LINE
  8
0
  6
CONTINUOUS
 10
103.995003
 20
12.635000
 11
103.995003
 21
4.635000
  0
LINE
  8
0
  6
CENTER
 10
113.995003
 20
18.510000
 11
113.995003
 21
-0.615000
  0
LINE
  8
0
  6
CENTER
 10
153.994995
 20
18.885000
 11
153.994995
 21
0.135000
  0
LINE
  8
0
  6
CENTER
 10
139.931793
 20
79.635002
 11
207.957336
 21
79.635002
  0
LINE
  8
0
  6
CONTINUOUS
 10
103.995003
 20
4.635000
 11
163.994995
 21
4.635000
  0
LINE
  8
0
  6
CONTINUOUS
 10
33.994999
 20
117.635002
 11
163.994995
 21
117.635002
  0
LINE
  8
0
  6
CONTINUOUS
 10
33.994999
 20
11.635000
 11
103.995003
 21
11.635000
  0
LINE
  8
0
  6
CONTINUOUS
 10
141.994995
 20
33.416409
 11
141.994995
 21
16.634991
  0
LINE
  8
0
  6
CONTINUOUS
 10
125.995003
 20
33.416401
 11
125.995003
 21
16.635000
  0
LINE
  8
0
  6
CONTINUOUS
 10
105.995003
 20
14.635000
 11
161.994995
 21
14.635000
  0
LINE
  8
0
  6
CONTINUOUS
 10
163.994995
 20
12.635000
 11
163.994995
 21
117.635002
  0
ARC
  8
0
  6
CONTINUOUS
 10
161.994995
 20
12.634990
 40
2.000000
 50
0.000000
 51
90.000000
  0
LINE
  8
0
  6
CONTINUOUS
 10
103.995010
 20
29.308430
 11
103.995003
 21
12.635000
  0
ARC
  8
0
  6
CONTINUOUS
 10
105.995010
 20
12.635010
 40
2.000000
 50
90.000000
 51
180.000000
  0
LINE
  8
0
  6
DASHED
 10
158.244995
 20
14.635000
 11
158.244995
 21
4.635000
  0
LINE
  8
0
  6
DASHED
 10
149.744995
 20
14.635000
 11
149.744995
 21
4.635000
  0
LINE
  8
0
  6
DASHED
 10
118.245003
 20
14.635000
 11
118.245003
 21
4.635000
  0
LINE
  8
0
  6
DASHED
 10
109.745003
 20
14.635000
 11
109.745003
 21
4.635000
  0
LINE
  8
0
  6
CONTINUOUS
 10
33.994999
 20
107.258347
 11
163.994995
 21
107.258347
  0
LINE
  8
0
  6
CONTINUOUS
 10
33.994999
 20
22.011641
 11
103.995003
 21
22.011641
  0
LINE
  8
0
  6
CONTINUOUS
 10
168.994995
 20
57.134998
 11
168.994995
 21
102.135002
  0
LINE
  8
0
  6
CONTINUOUS
 10
167.994995
 20
103.135002
 11
163.994995
 21
103.135002
  0
LINE
  8
0
  6
CONTINUOUS
 10
167.994995
 20
56.134998
 11
163.994995
 21
56.134998
  0
ARC
  8
0
  6
CONTINUOUS
 10
167.994995
 20
102.135002
 40
1.000000
 50
0.000000
 51
90.000000
  0
ARC
  8
0
  6
CONTINUOUS
 10
167.994995
 20
57.134998
 40
1.000000
 50
-90.000000
 51
0.000000
  0
ARC
  8
0
  6
CONTINUOUS
 10
106.995018
 20
29.308451
 40
3.000000
 50
90.000000
 51
180.000000
  0
LINE
  8
0
  6
CONTINUOUS
 10
106.995003
 20
32.308430
 11
125.370003
 21
32.308430
  0
LINE
  8
0
  6
CONTINUOUS
 10
163.369995
 20
32.308430
 11
142.619995
 21
32.308430
  0
ARC
  8
0
  6
CONTINUOUS
 10
143.994995
 20
33.416420
 40
2.000000
 50
90.000000
 51
180.000000
  0
ARC
  8
0
  6
CONTINUOUS
 10
123.995003
 20
33.416401
 40
2.000000
 50
0.000000
 51
90.000000
  0
ARC
  8
0
  6
CONTINUOUS
 10
143.994995
 20
16.635000
 40
2.000000
 50
180.000000
 51
270.000000
  0
ARC
  8
0
  6
CONTINUOUS
 10
123.995003
 20
16.635000
 40
2.000000
 50
-90.000000
 51
0.000000
  0
LINE
  8
0
  6
CENTER
 10
309.557495
 20
0.672500
 11
309.557495
 21
140.645630
  0
LINE
  8
0
  6
CENTER
 10
243.557495
 20
64.635002
 11
373.057495
 21
64.635002
  0
LINE
  8
0
  6
CONTINUOUS
 10
349.557495
 20
4.635000
 11
374.557495
 21
4.635000
  0
LINE
  8
0
  6
CONTINUOUS
 10
374.557495
 20
12.634990
 11
374.557495
 21
4.635000
  0
LINE
  8
0
  6
CONTINUOUS
 10
348.557495
 20
5.635000
 11
309.557495
 21
5.635000
  0
LINE
  8
0
  6
CONTINUOUS
 10
356.557495
 20
14.635000
 11
372.557495
 21
14.635000
  0
LINE
  8
0
  6
CONTINUOUS
 10
341.057495
 20
115.119766
 11
341.057495
 21
107.258362
  0
LINE
  8
0
  6
CENTER
 10
364.557495
 20
19.135000
 11
364.557495
 21
-1.615000
  0
LINE
  8
0
  6
DASHED
 10
368.807495
 20
14.635000
 11
368.807495
 21
4.635000
  0
LINE
  8
0
  6
DASHED
 10
360.307495
 20
14.635000
 11
360.307495
 21
4.635000
  0
LINE
  8
0
  6
CONTINUOUS
 10
339.092407
 20
117.119469
 11
309.557495
 21
117.635002
  0
ARC
  8
0
  6
CONTINUOUS
 10
339.057495
 20
115.119759
 40
2.000000
 50
0.000000
 51
89.000076
  0
LINE
  8
0
  6
CENTER
 10
273.570007
 20
79.635002
 11
343.500000
 21
79.635002
  0
LINE
  8
0
  6
CONTINUOUS
 10
269.557495
 20
4.635000
 11
244.557495
 21
4.635000
  0
LINE
  8
0
  6
CONTINUOUS
 10
244.557495
 20
12.634980
 11
244.557495
 21
4.635000
  0
LINE
  8
0
  6
CONTINUOUS
 10
270.557495
 20
5.635000
 11
309.557495
 21
5.635000
  0
LINE
  8
0
  6
CONTINUOUS
 10
262.557495
 20
14.635000
 11
246.557495
 21
14.635000
  0
LINE
  8
0
  6
CONTINUOUS
 10
278.057495
 20
115.119766
 11
278.057495
 21
107.258362
  0
LINE
  8
0
  6
CENTER
 10
254.557495
 20
19.135000
 11
254.557495
 21
-1.615000
  0
LINE
  8
0
  6
DASHED
 10
250.307495
 20
14.635000
 11
250.307495
 21
4.635000
  0
LINE
  8
0
  6
DASHED
 10
258.807495
 20
14.635000
 11
258.807495
 21
4.635000
  0
LINE
  8
0
  6
CONTINUOUS
 10
280.022614
 20
117.119469
 11
309.557495
 21
117.635002
  0
ARC
  8
0
  6
CONTINUOUS
 10
280.057495
 20
115.119759
 40
2.000000
 50
90.999924
 51
180.000000
  0
ARC
  8
0
  6
CONTINUOUS
 10
309.557495
 20
64.635002
 40
53.000000
 50
126.465599
 51
217.584595
  0
ARC
  8
0
  6
CONTINUOUS
 10
309.557495
 20
64.635002
 40
53.000000
 50
53.534370
 51
53.534382
  0
ARC
  8
0
  6
CONTINUOUS
 10
309.557495
 20
64.635002
 40
53.000000
 50
-37.584629
 51
53.534382
  0
LINE
  8
0
  6
CONTINUOUS
 10
357.557495
 20
80.327362
 11
357.557495
 21
48.942959
  0
LINE
  8
0
  6
CONTINUOUS
 10
261.557495
 20
80.327187
 11
261.557495
 21
48.942478
  0
ARC
  8
0
  6
CONTINUOUS
 10
309.557495
 20
64.635002
 40
50.500000
 50
18.103800
 51
161.896194
  0
ARC
  8
0
  6
CONTINUOUS
 10
309.557495
 20
64.635002
 40
50.500000
 50
198.103806
 51
341.896210
  0
LINE
  8
0
  6
CONTINUOUS
 10
267.557495
 20
19.635000
 11
267.557495
 21
32.308540
  0
ARC
  8
0
  6
CONTINUOUS
 10
356.557495
 20
19.635000
 40
5.000000
 50
180.000000
 51
270.000000
  0
ARC
  8
0
  6
CONTINUOUS
 10
262.557495
 20
19.634991
 40
5.000000
 50
-90.000000
 51
0.000000
  0
LINE
  8
0
  6
CONTINUOUS
 10
351.557495
 20
19.634979
 11
351.557495
 21
32.308552
  0
CIRCLE
  8
0
  6
CONTINUOUS
 10
309.557495
 20
79.635002
 40
23.500000
  0
ARC
  8
0
  6
CONTINUOUS
 10
372.557495
 20
12.634990
 40
2.000000
 50
0.000000
 51
90.000000
  0
LINE
  8
0
  6
CONTINUOUS
 10
373.971710
 20
14.049210
 11
353.341888
 21
34.678822
  0
ARC
  8
0
  6
CONTINUOUS
 10
246.557495
 20
12.634990
 40
2.000000
 50
90.000000
 51
180.000000
  0
LINE
  8
0
  6
CONTINUOUS
 10
245.143295
 20
14.049210
 11
265.773102
 21
34.678822
  0
LINE
  8
0
  6
CONTINUOUS
 10
349.557495
 20
4.635000
 11
348.557495
 21
5.635000
  0
LINE
  8
0
  6
CONTINUOUS
 10
269.557495
 20
4.635000
 11
270.557495
 21
5.635000
  0
LINE
  8
0
  6
CONTINUOUS
 10
303.182495
 20
42.188221
 11
303.182495
 21
36.634998
  0
LINE
  8
0
  6
CONTINUOUS
 10
306.369995
 20
44.205311
 11
306.369995
 21
46.197498
  0
LINE
  8
0
  6
CONTINUOUS
 10
312.744995
 20
44.205311
 11
312.744995
 21
46.197498
  0
LINE
  8
0
  6
CONTINUOUS
 10
308.934906
 20
45.027088
 11
308.934906
 21
37.680901
  0
LINE
  8
0
  6
CONTINUOUS
 10
310.130310
 20
45.027088
 11
310.130310
 21
37.680901
  0
LINE
  8
0
  6
CONTINUOUS
 10
316.405609
 20
45.027088
 11
316.405609
 21
37.631088
  0
LINE
  8
0
  6
CONTINUOUS
 10
317.501312
 20
41.104969
 11
317.501312
 21
37.631088
  0
LINE
  8
0
  6
CONTINUOUS
 10
301.670013
 20
44.927479
 11
298.598114
 21
44.927479
  0
LINE
  8
0
  6
CONTINUOUS
 10
298.598114
 20
44.927479
 11
297.878296
 21
44.034981
  0
LINE
  8
0
  6
CONTINUOUS
 10
297.964905
 20
46.197498
 11
296.807495
 21
44.715500
  0
LINE
  8
0
  6
CONTINUOUS
 10
297.878296
 20
38.525921
 11
298.609589
 21
37.755611
  0
LINE
  8
0
  6
CONTINUOUS
 10
296.807495
 20
37.875851
 11
298.037292
 21
36.634998
  0
LINE
  8
0
  6
CONTINUOUS
 10
296.807495
 20
44.715500
 11
296.807495
 21
37.875851
  0
LINE
  8
0
  6
CONTINUOUS
 10
297.878296
 20
44.034981
 11
297.878296
 21
38.525921
  0
LINE
  8
0
  6
CONTINUOUS
 10
302.261108
 20
44.356041
 11
301.657898
 21
44.927479
  0
LINE
  8
0
  6
CONTINUOUS
 10
302.251495
 20
46.197498
 11
303.182495
 21
45.164360
  0
LINE
  8
0
  6
CONTINUOUS
 10
302.261108
 20
44.205311
 11
303.182495
 21
44.205311
  0
LINE
  8
0
  6
CONTINUOUS
 10
297.964905
 20
46.197498
 11
302.251495
 21
46.197498
  0
LINE
  8
0
  6
CONTINUOUS
 10
302.261108
 20
41.142319
 11
300.592712
 21
41.142319
  0
LINE
  8
0
  6
CONTINUOUS
 10
302.261108
 20
40.146229
 11
302.261108
 21
40.943111
  0
LINE
  8
0
  6
CONTINUOUS
 10
300.268890
 20
37.755611
 11
298.609589
 21
37.755611
  0
ARC
  8
0
  6
CONTINUOUS
 10
300.268890
 20
39.747791
 40
1.992187
 50
-89.999786
 51
0.000109
  0
LINE
  8
0
  6
CONTINUOUS
 10
302.261108
 20
37.397259
 11
302.261108
 21
36.634998
  0
LINE
  8
0
  6
CONTINUOUS
 10
303.182495
 20
45.164360
 11
303.182495
 21
44.205311
  0
LINE
  8
0
  6
CONTINUOUS
 10
302.261108
 20
41.142319
 11
302.261108
 21
39.747791
  0
LINE
  8
0
  6
CONTINUOUS
 10
300.592712
 20
42.188221
 11
300.592712
 21
41.142319
  0
LINE
  8
0
  6
CONTINUOUS
 10
302.261108
 20
36.634998
 11
303.182495
 21
36.634998
  0
LINE
  8
0
  6
CONTINUOUS
 10
302.261108
 20
37.397259
 11
301.352509
 21
36.634998
  0
LINE
  8
0
  6
CONTINUOUS
 10
310.130310
 20
37.680901
 11
310.528687
 21
37.680901
  0
LINE
  8
0
  6
CONTINUOUS
 10
308.461792
 20
37.680901
 11
308.461792
 21
36.634998
  0
LINE
  8
0
  6
CONTINUOUS
 10
310.528687
 20
37.680901
 11
310.528687
 21
36.634998
  0
LINE
  8
0
  6
CONTINUOUS
 10
312.080109
 20
44.205311
 11
312.744995
 21
44.205311
  0
LINE
  8
0
  6
CONTINUOUS
 10
306.369995
 20
44.205311
 11
307.077606
 21
44.205311
  0
LINE
  8
0
  6
CONTINUOUS
 10
306.369995
 20
46.197498
 11
312.744995
 21
46.197498
  0
LINE
  8
0
  6
CONTINUOUS
 10
308.461792
 20
36.634998
 11
310.528687
 21
36.634998
  0
LINE
  8
0
  6
CONTINUOUS
 10
308.461792
 20
37.680901
 11
308.934906
 21
37.680901
  0
ARC
  8
0
  6
CONTINUOUS
 10
319.755005
 20
43.645012
 40
2.552490
 50
-73.981873
 51
90.003510
  0
ARC
  8
0
  6
CONTINUOUS
 10
319.755005
 20
43.645012
 40
1.557193
 50
-82.585274
 51
62.411850
  0
LINE
  8
0
  6
CONTINUOUS
 10
315.932495
 20
46.197498
 11
319.755005
 21
46.197498
  0
LINE
  8
0
  6
CONTINUOUS
 10
315.932495
 20
46.197498
 11
315.932495
 21
45.027088
  0
LINE
  8
0
  6
CONTINUOUS
 10
317.501312
 20
45.027088
 11
317.501312
 21
42.100842
  0
LINE
  8
0
  6
CONTINUOUS
 10
320.459412
 20
41.191620
 11
322.039215
 21
37.631088
  0
LINE
  8
0
  6
CONTINUOUS
 10
319.541809
 20
41.104969
 11
321.036804
 21
37.631088
  0
LINE
  8
0
  6
CONTINUOUS
 10
315.932495
 20
37.631088
 11
316.405609
 21
37.631088
  0
LINE
  8
0
  6
CONTINUOUS
 10
317.501312
 20
37.631088
 11
317.937103
 21
37.631088
  0
LINE
  8
0
  6
CONTINUOUS
 10
317.937103
 20
36.634998
 11
315.932495
 21
36.634998
  0
LINE
  8
0
  6
CONTINUOUS
 10
320.838287
 20
37.631088
 11
321.036804
 21
37.631088
  0
LINE
  8
0
  6
CONTINUOUS
 10
322.039215
 20
37.631088
 11
322.307495
 21
37.631088
  0
LINE
  8
0
  6
CONTINUOUS
 10
320.838287
 20
36.634998
 11
322.307495
 21
36.634998
  0
LINE
  8
0
  6
CONTINUOUS
 10
322.307495
 20
37.631088
 11
322.307495
 21
36.634998
  0
LINE
  8
0
  6
CONTINUOUS
 10
320.838287
 20
37.631088
 11
320.838287
 21
36.634998
  0
LINE
  8
0
  6
CONTINUOUS
 10
317.937103
 20
37.631088
 11
317.937103
 21
36.634998
  0
LINE
  8
0
  6
CONTINUOUS
 10
315.932495
 20
37.631088
 11
315.932495
 21
36.634998
  0
LINE
  8
0
  6
CONTINUOUS
 10
307.420013
 20
45.027088
 11
307.077606
 21
44.205311
  0
LINE
  8
0
  6
CONTINUOUS
 10
311.791290
 20
45.027088
 11
312.080109
 21
44.205311
  0
LINE
  8
0
  6
CONTINUOUS
 10
310.130310
 20
45.027088
 11
311.791290
 21
45.027088
  0
LINE
  8
0
  6
CONTINUOUS
 10
308.934906
 20
45.027088
 11
307.420013
 21
45.027088
  0
LINE
  8
0
  6
CONTINUOUS
 10
315.932495
 20
45.027088
 11
316.405609
 21
45.027088
  0
LINE
  8
0
  6
CONTINUOUS
 10
317.501312
 20
45.027088
 11
320.476196
 21
45.025150
  0
LINE
  8
0
  6
CONTINUOUS
 10
302.261108
 20
44.356041
 11
302.261108
 21
44.205311
  0
LINE
  8
0
  6
CONTINUOUS
 10
298.037292
 20
36.634998
 11
301.352509
 21
36.634998
  0
LINE
  8
0
  6
CONTINUOUS
 10
317.501312
 20
42.100842
 11
319.955994
 21
42.100842
  0
LINE
  8
0
  6
CONTINUOUS
 10
317.501312
 20
41.104969
 11
319.541809
 21
41.104969
  0
LINE
  8
0
  6
CONTINUOUS
 10
300.592712
 20
42.188221
 11
303.182495
 21
42.188221
  0
LINE
  8
0
  6
CONTINUOUS
 10
200.994995
 20
70.635002
 11
200.994995
 21
88.635002
  0
LINE
  8
0
  6
CONTINUOUS
 10
170.994995
 20
88.635002
 11
200.994995
 21
88.635002
  0
LINE
  8
0
  6
CONTINUOUS
 10
170.994995
 20
70.635002
 11
200.994995
 21
70.635002
  0
LINE
  8
0
  6
CONTINUOUS
 10
170.994995
 20
89.635002
 11
170.994995
 21
69.635002
  0
LINE
  8
0
  6
CONTINUOUS
 10
168.994995
 20
89.635002
 11
170.994995
 21
89.635002
  0
LINE
  8
0
  6
CONTINUOUS
 10
168.994995
 20
69.635002
 11
170.994995
 21
69.635002
  0
ARC
  8
0
  6
CONTINUOUS
 10
176.994995
 20
79.635002
 40
3.000000
 50
90.000000
 51
270.000000
  0
LINE
  8
0
  6
CONTINUOUS
 10
176.994995
 20
82.635002
 11
200.994995
 21
82.635002
  0
LINE
  8
0
  6
CONTINUOUS
 10
176.994995
 20
76.635002
 11
200.994995
 21
76.635002
  0
LINE
  8
0
  6
CONTINUOUS
 10
304.057495
 20
82.635002
 11
304.057495
 21
76.635002
  0
LINE
  8
0
  6
CONTINUOUS
 10
298.057495
 20
82.635002
 11
298.057495
 21
76.635002
  0
LINE
  8
0
  6
CONTINUOUS
 10
298.057495
 20
82.635002
 11
304.057495
 21
82.635002
  0
LINE
  8
0
  6
CONTINUOUS
 10
298.057495
 20
76.635002
 11
304.057495
 21
76.635002
  0
ARC
  8
0
  6
CONTINUOUS
 10
309.557495
 20
79.635002
 40
9.000000
 50
-160.528793
 51
160.528793
  0
LINE
  8
0
  6
CONTINUOUS
 10
33.994999
 20
11.635000
 11
8.941985
 21
12.290931
  0
LINE
  8
0
  6
CONTINUOUS
 10
7.728734
 20
12.626120
 11
8.941985
 21
12.290931
  0
ARC
  8
0
  6
CONTINUOUS
 10
7.995015
 20
13.590020
 40
1.000000
 50
180.000000
 51
254.556396
  0
ARC
  8
0
  6
CONTINUOUS
 10
20.495001
 20
12.488630
 40
0.500000
 50
180.000000
 51
268.500702
  0
LINE
  8
0
  6
CONTINUOUS
 10
19.995001
 20
105.135002
 11
19.995001
 21
117.135139
  0
LINE
  8
0
  6
CONTINUOUS
 10
8.941985
 20
105.135002
 11
19.995001
 21
105.135002
  0
ARC
  8
0
  6
CONTINUOUS
 10
20.495001
 20
117.135139
 40
0.500000
 50
-268.500702
 51
-180.000000
  0
ARC
  8
0
  6
CONTINUOUS
 10
3.494850
 20
107.635460
 40
2.000000
 50
180.000000
 51
270.000000
  0
LINE
  8
0
  6
CONTINUOUS
 10
33.994999
 20
22.011641
 11
19.995001
 21
22.011641
  0
LINE
  8
0
  6
CONTINUOUS
 10
33.994999
 20
107.258347
 11
19.995001
 21
107.258347
  0
LINE
  8
0
  6
CONTINUOUS
 10
1.495000
 20
120.749931
 11
1.495000
 21
107.635460
  0
LINE
  8
0
  6
CONTINUOUS
 10
31.495001
 20
120.749931
 11
31.495001
 21
117.634827
  0
LINE
  8
0
  6
CONTINUOUS
 10
31.495001
 20
120.366333
 11
31.495001
 21
117.634933
  0
LINE
  8
0
  6
CONTINUOUS
 10
-14.698597
 20
123.583633
 11
-0.505000
 21
123.583633
  0
LINE
  8
0
  6
CONTINUOUS
 10
33.494999
 20
132.133835
 11
33.494999
 21
127.633629
  0
LINE
  8
0
  6
CONTINUOUS
 10
-0.513500
 20
127.633629
 11
33.494999
 21
127.633629
  0
LINE
  8
0
  6
CONTINUOUS
 10
-0.505000
 20
126.633629
 11
33.494999
 21
126.633629
  0
LINE
  8
0
  6
CONTINUOUS
 10
-13.846797
 20
131.283630
 11
-0.505000
 21
131.283630
  0
LINE
  8
0
  6
CONTINUOUS
 10
332.557495
 20
126.633781
 11
332.557495
 21
117.233536
  0
LINE
  8
0
  6
CONTINUOUS
 10
286.557495
 20
126.633781
 11
286.557495
 21
117.233536
  0
LINE
  8
0
  6
CONTINUOUS
 10
332.057495
 20
126.633781
 11
332.057495
 21
127.633781
  0
ARC
  8
0
  6
CONTINUOUS
 10
309.557495
 20
127.133781
 40
4.250000
 50
196.601593
 51
343.398499
  0
ARC
  8
0
  6
CONTINUOUS
 10
314.588593
 20
125.633781
 40
1.000000
 50
90.000000
 51
163.398102
  0
ARC
  8
0
  6
CONTINUOUS
 10
304.526215
 20
125.633781
 40
1.000000
 50
16.601080
 51
90.000000
  0
LINE
  8
0
  6
CONTINUOUS
 10
314.588593
 20
126.633781
 11
332.557495
 21
126.633781
  0
LINE
  8
0
  6
CONTINUOUS
 10
313.778015
 20
127.633781
 11
332.557495
 21
127.633781
  0
LINE
  8
0
  6
CONTINUOUS
 10
305.337006
 20
127.633781
 11
286.557495
 21
127.633781
  0
LINE
  8
0
  6
CONTINUOUS
 10
304.526398
 20
126.633781
 11
286.557495
 21
126.633781
  0
LINE
  8
0
  6
CONTINUOUS
 10
287.057495
 20
126.633781
 11
287.057495
 21
127.633781
  0
ARC
  8
0
  6
CONTINUOUS
 10
309.557495
 20
127.133781
 40
3.250000
 50
186.756302
 51
353.243713
  0
ARC
  8
0
  6
CONTINUOUS
 10
313.778015
 20
126.633781
 40
1.000000
 50
90.000000
 51
173.243896
  0
ARC
  8
0
  6
CONTINUOUS
 10
305.337006
 20
126.633781
 40
1.000000
 50
6.756103
 51
90.000000
  0
ARC
  8
0
  6
CONTINUOUS
 10
309.557495
 20
127.133781
 40
6.000000
 50
4.780182
 51
175.219803
  0
ARC
  8
0
  6
CONTINUOUS
 10
309.557495
 20
127.133781
 40
6.000000
 50
184.780197
 51
355.219788
  0
LINE
  8
0
  6
CONTINUOUS
 10
286.557495
 20
133.617188
 11
286.557495
 21
127.633781
  0
LINE
  8
0
  6
CONTINUOUS
 10
332.557495
 20
133.617188
 11
332.557495
 21
127.633781
  0
LINE
  8
0
  6
CONTINUOUS
 10
332.307495
 20
131.633774
 11
332.307495
 21
133.072983
  0
LINE
  8
0
  6
CONTINUOUS
 10
326.807495
 20
131.633575
 11
326.807495
 21
133.072983
  0
LINE
  8
0
  6
CONTINUOUS
 10
332.307495
 20
132.333679
 11
326.807495
 21
132.333679
  0
ARC
  8
0
  6
CONTINUOUS
 10
329.557495
 20
127.333679
 40
7.000000
 50
73.041977
 51
106.956497
  0
ARC
  8
0
  6
CONTINUOUS
 10
327.807495
 20
133.072983
 40
1.000000
 50
106.956902
 51
180.000000
  0
ARC
  8
0
  6
CONTINUOUS
 10
331.307495
 20
133.072983
 40
1.000000
 50
0.000000
 51
73.041847
  0
LINE
  8
0
  6
CONTINUOUS
 10
332.307495
 20
131.633774
 11
326.557495
 21
131.633774
  0
LINE
  8
0
  6
CONTINUOUS
 10
326.057495
 20
134.120224
 11
326.057495
 21
132.133774
  0
ARC
  8
0
  6
CONTINUOUS
 10
309.557495
 20
-114.866219
 40
250.000000
 50
84.826019
 51
95.173981
  0
LINE
  8
0
  6
CONTINUOUS
 10
31.495001
 20
120.366333
 11
31.495001
 21
126.633629
  0
LINE
  8
0
  6
CONTINUOUS
 10
1.494800
 20
120.366333
 11
1.494800
 21
126.633629
  0
LINE
  8
0
  6
CONTINUOUS
 10
-0.505000
 20
132.133835
 11
-0.505000
 21
127.633629
  0
ARC
  8
0
  6
CONTINUOUS
 10
16.495001
 20
-114.866173
 40
250.000000
 50
86.668304
 51
93.331696
  0
LINE
  8
0
  6
CONTINUOUS
 10
31.995001
 20
133.133835
 11
32.494999
 21
133.133835
  0
ARC
  8
0
  6
CONTINUOUS
 10
32.494999
 20
132.133835
 40
1.000000
 50
0.000000
 51
90.000000
  0
ARC
  8
0
  6
CONTINUOUS
 10
31.995001
 20
133.633835
 40
0.500000
 50
180.000000
 51
270.000000
  0
LINE
  8
0
  6
CONTINUOUS
 10
0.995000
 20
133.133835
 11
0.495000
 21
133.133835
  0
ARC
  8
0
  6
CONTINUOUS
 10
0.495000
 20
132.133835
 40
1.000000
 50
90.000000
 51
180.000000
  0
ARC
  8
0
  6
CONTINUOUS
 10
0.995000
 20
133.633835
 40
0.500000
 50
-90.000000
 51
0.000000
  0
LINE
  8
0
  6
CONTINUOUS
 10
0.995000
 20
121.133430
 11
0.495000
 21
121.133430
  0
ARC
  8
0
  6
CONTINUOUS
 10
0.495000
 20
122.133430
 40
1.000000
 50
-180.000000
 51
-90.000000
  0
ARC
  8
0
  6
CONTINUOUS
 10
0.995000
 20
120.633430
 40
0.500000
 50
0.000000
 51
90.000000
  0
LINE
  8
0
  6
CONTINUOUS
 10
31.995001
 20
121.133430
 11
32.494999
 21
121.133430
  0
ARC
  8
0
  6
CONTINUOUS
 10
32.494999
 20
122.133430
 40
1.000000
 50
-90.000000
 51
0.000000
  0
ARC
  8
0
  6
CONTINUOUS
 10
31.995001
 20
120.633430
 40
0.500000
 50
-270.000000
 51
-180.000000
  0
LINE
  8
0
  6
CONTINUOUS
 10
31.495001
 20
127.633629
 11
31.495001
 21
134.212128
  0
LINE
  8
0
  6
CONTINUOUS
 10
33.494999
 20
126.633629
 11
33.494999
 21
122.133430
  0
LINE
  8
0
  6
CONTINUOUS
 10
32.994999
 20
127.633629
 11
32.994999
 21
126.633629
  0
LINE
  8
0
  6
CONTINUOUS
 10
1.494800
 20
127.633629
 11
1.494800
 21
134.212128
  0
LINE
  8
0
  6
CONTINUOUS
 10
-0.505000
 20
126.633629
 11
-0.505000
 21
122.133430
  0
LINE
  8
0
  6
CONTINUOUS
 10
1.994800
 20
127.633629
 11
1.994800
 21
126.633629
  0
LINE
  8
0
  6
CONTINUOUS
 10
25.495001
 20
131.633636
 11
31.245001
 21
131.633636
  0
LINE
  8
0
  6
CONTINUOUS
 10
25.745001
 20
131.633636
 11
25.745001
 21
133.072830
  0
LINE
  8
0
  6
CONTINUOUS
 10
31.245001
 20
131.633423
 11
31.245001
 21
133.072830
  0
LINE
  8
0
  6
CONTINUOUS
 10
25.745001
 20
132.333527
 11
31.245001
 21
132.333527
  0
ARC
  8
0
  6
CONTINUOUS
 10
28.495001
 20
127.333527
 40
7.000000
 50
73.043503
 51
106.958000
  0
ARC
  8
0
  6
CONTINUOUS
 10
30.245001
 20
133.072830
 40
1.000000
 50
0.000000
 51
73.043098
  0
ARC
  8
0
  6
CONTINUOUS
 10
26.745001
 20
133.072830
 40
1.000000
 50
106.958199
 51
180.000000
  0
LINE
  8
0
  6
CONTINUOUS
 10
24.995001
 20
134.505539
 11
24.995001
 21
132.133636
  0
ARC
  8
0
  6
CONTINUOUS
 10
30.995001
 20
134.212128
 40
0.500000
 50
0.000000
 51
86.668304
  0
ARC
  8
0
  6
CONTINUOUS
 10
24.495001
 20
134.505539
 40
0.500000
 50
0.000000
 51
88.162544
  0
ARC
  8
0
  6
CONTINUOUS
 10
30.995001
 20
131.133636
 40
0.500000
 50
0.000000
 51
90.000000
  0
ARC
  8
0
  6
CONTINUOUS
 10
25.495001
 20
132.133636
 40
0.500000
 50
180.000000
 51
270.000000
  0
LINE
  8
0
  6
CONTINUOUS
 10
7.495000
 20
131.633636
 11
1.745000
 21
131.633636
  0
LINE
  8
0
  6
CONTINUOUS
 10
7.245000
 20
131.633636
 11
7.245000
 21
133.072830
  0
LINE
  8
0
  6
CONTINUOUS
 10
1.745000
 20
131.633423
 11
1.745000
 21
133.072830
  0
LINE
  8
0
  6
CONTINUOUS
 10
7.245000
 20
132.333527
 11
1.745000
 21
132.333527
  0
ARC
  8
0
  6
CONTINUOUS
 10
4.495000
 20
127.333527
 40
7.000000
 50
73.042000
 51
106.956497
  0
ARC
  8
0
  6
CONTINUOUS
 10
2.745000
 20
133.072830
 40
1.000000
 50
106.956902
 51
180.000000
  0
ARC
  8
0
  6
CONTINUOUS
 10
6.245000
 20
133.072830
 40
1.000000
 50
0.000000
 51
73.041801
  0
LINE
  8
0
  6
CONTINUOUS
 10
7.995000
 20
134.505539
 11
7.995000
 21
132.133636
  0
ARC
  8
0
  6
CONTINUOUS
 10
1.995000
 20
134.212128
 40
0.500000
 50
93.331696
 51
180.000000
  0
ARC
  8
0
  6
CONTINUOUS
 10
8.495000
 20
134.505539
 40
0.500000
 50
91.837456
 51
180.000000
  0
ARC
  8
0
  6
CONTINUOUS
 10
1.995000
 20
131.133636
 40
0.500000
 50
90.000000
 51
180.000000
  0
ARC
  8
0
  6
CONTINUOUS
 10
7.495000
 20
132.133636
 40
0.500000
 50
-90.000000
 51
0.000000
  0
ARC
  8
0
  6
CONTINUOUS
 10
332.057495
 20
133.617188
 40
0.500000
 50
0.000000
 51
84.826019
  0
ARC
  8
0
  6
CONTINUOUS
 10
325.557495
 20
134.120224
 40
0.500000
 50
0.000000
 51
86.323196
  0
ARC
  8
0
  6
CONTINUOUS
 10
332.057495
 20
131.133774
 40
0.500000
 50
0.000000
 51
90.000000
  0
ARC
  8
0
  6
CONTINUOUS
 10
326.557495
 20
132.133774
 40
0.500000
 50
180.000000
 51
270.000000
  0
LINE
  8
0
  6
CONTINUOUS
 10
286.807495
 20
131.633774
 11
286.807495
 21
133.072983
  0
LINE
  8
0
  6
CONTINUOUS
 10
292.307495
 20
131.633575
 11
292.307495
 21
133.072983
  0
LINE
  8
0
  6
CONTINUOUS
 10
286.807495
 20
132.333679
 11
292.307495
 21
132.333679
  0
ARC
  8
0
  6
CONTINUOUS
 10
289.557495
 20
127.333679
 40
7.000000
 50
73.043503
 51
106.958023
  0
ARC
  8
0
  6
CONTINUOUS
 10
291.307495
 20
133.072983
 40
1.000000
 50
0.000000
 51
73.043098
  0
ARC
  8
0
  6
CONTINUOUS
 10
287.807495
 20
133.072983
 40
1.000000
 50
106.958153
 51
180.000000
  0
LINE
  8
0
  6
CONTINUOUS
 10
286.807495
 20
131.633774
 11
292.557495
 21
131.633774
  0
LINE
  8
0
  6
CONTINUOUS
 10
293.057495
 20
134.120224
 11
293.057495
 21
132.133774
  0
ARC
  8
0
  6
CONTINUOUS
 10
287.057495
 20
133.617188
 40
0.500000
 50
95.173981
 51
180.000000
  0
ARC
  8
0
  6
CONTINUOUS
 10
293.557495
 20
134.120224
 40
0.500000
 50
93.676804
 51
180.000000
  0
ARC
  8
0
  6
CONTINUOUS
 10
287.057495
 20
131.133774
 40
0.500000
 50
90.000000
 51
180.000000
  0
ARC
  8
0
  6
CONTINUOUS
 10
292.557495
 20
132.133774
 40
0.500000
 50
-90.000000
 51
0.000000
  0
LINE
  8
0
  6
CONTINUOUS
 10
7.728734
 20
24.470188
 11
8.941985
 21
24.135000
  0
ARC
  8
0
  6
CONTINUOUS
 10
7.995015
 20
25.434090
 40
1.000000
 50
180.000000
 51
254.556396
  0
LINE
  8
0
  6
CONTINUOUS
 10
7.728734
 20
104.799812
 11
8.941985
 21
105.135002
  0
ARC
  8
0
  6
CONTINUOUS
 10
7.995015
 20
103.835915
 40
1.000000
 50
-254.556396
 51
-180.000000
  0
ARC
  8
0
  6
CONTINUOUS
 10
5.995011
 20
104.635483
 40
1.000000
 50
0.000000
 51
90.000000
  0
LINE
  8
0
  6
CONTINUOUS
 10
176.994995
 20
82.635002
 11
176.994995
 21
76.635002
  0
LINE
  8
0
  6
CONTINUOUS
 10
-13.846797
 20
131.283630
 11
-14.582597
 21
128.448532
  0
LINE
  8
0
  6
CONTINUOUS
 10
-14.582597
 20
128.448532
 11
-13.770497
 21
125.973534
  0
LINE
  8
0
  6
CONTINUOUS
 10
-13.770497
 20
125.973534
 11
-14.698597
 21
123.583633
  0
LINE
  8
0
  6
CENTER
 10
-20.481251
 20
254.581482
 11
208.181091
 21
254.581482
  0
LINE
  8
0
  6
CONTINUOUS
 10
33.990864
 20
307.581482
 11
163.995010
 21
307.581482
  0
LINE
  8
0
  6
CONTINUOUS
 10
33.990746
 20
201.581497
 11
163.995010
 21
201.581482
  0
LINE
  8
0
  6
CONTINUOUS
 10
163.995010
 20
192.581482
 11
163.995010
 21
316.581482
  0
LINE
  8
0
  6
CONTINUOUS
 10
160.995010
 20
319.581482
 11
106.995010
 21
319.581482
  0
LINE
  8
0
  6
CONTINUOUS
 10
106.995010
 20
189.581482
 11
160.995010
 21
189.581482
  0
LINE
  8
0
  6
CONTINUOUS
 10
103.995010
 20
316.581482
 11
103.995010
 21
307.581482
  0
LINE
  8
0
  6
CONTINUOUS
 10
103.995010
 20
192.581482
 11
103.995010
 21
201.581482
  0
ARC
  8
0
  6
CONTINUOUS
 10
106.995010
 20
316.581482
 40
3.000000
 50
90.000000
 51
180.000000
  0
ARC
  8
0
  6
CONTINUOUS
 10
160.995010
 20
316.581482
 40
3.000000
 50
0.000000
 51
90.000000
  0
ARC
  8
0
  6
CONTINUOUS
 10
160.995010
 20
192.581482
 40
3.000000
 50
-90.000000
 51
0.000000
  0
ARC
  8
0
  6
CONTINUOUS
 10
106.995010
 20
192.581482
 40
3.000000
 50
180.000000
 51
270.000000
  0
LINE
  8
0
  6
CONTINUOUS
 10
33.995041
 20
286.081482
 11
163.995010
 21
286.081482
  0
LINE
  8
0
  6
CONTINUOUS
 10
33.995041
 20
223.081482
 11
163.995010
 21
223.081482
  0
LINE
  8
0
  6
CONTINUOUS
 10
168.995010
 20
232.081497
 11
168.995010
 21
277.081482
  0
LINE
  8
0
  6
CONTINUOUS
 10
167.995010
 20
278.081482
 11
163.995010
 21
278.081482
  0
LINE
  8
0
  6
CONTINUOUS
 10
167.995010
 20
231.081497
 11
163.995010
 21
231.081497
  0
ARC
  8
0
  6
CONTINUOUS
 10
167.995010
 20
277.081482
 40
1.000000
 50
0.000000
 51
90.000000
  0
ARC
  8
0
  6
CONTINUOUS
 10
167.995010
 20
232.081497
 40
1.000000
 50
-90.000000
 51
0.000000
  0
LINE
  8
0
  6
CONTINUOUS
 10
200.994995
 20
243.081482
 11
200.994995
 21
263.581482
  0
LINE
  8
0
  6
CONTINUOUS
 10
170.995010
 20
263.581482
 11
200.994995
 21
263.581482
  0
LINE
  8
0
  6
CONTINUOUS
 10
170.995010
 20
245.581482
 11
176.995010
 21
245.581482
  0
LINE
  8
0
  6
CONTINUOUS
 10
170.995010
 20
264.581482
 11
170.995010
 21
244.581482
  0
LINE
  8
0
  6
CONTINUOUS
 10
168.995010
 20
264.581482
 11
170.995010
 21
264.581482
  0
LINE
  8
0
  6
CONTINUOUS
 10
168.995010
 20
244.581482
 11
170.995010
 21
244.581482
  0
LINE
  8
0
  6
CONTINUOUS
 10
141.995010
 20
201.581482
 11
141.995010
 21
191.443512
  0
LINE
  8
0
  6
CONTINUOUS
 10
125.995018
 20
201.581482
 11
125.995018
 21
191.443512
  0
LINE
  8
0
  6
CENTER
 10
153.995010
 20
207.820236
 11
153.995010
 21
190.830780
  0
LINE
  8
0
  6
CENTER
 10
113.995010
 20
208.600082
 11
113.995010
 21
191.109299
  0
LINE
  8
0
  6
CENTER
 10
105.939224
 20
199.581482
 11
122.761566
 21
199.581482
  0
LINE
  8
0
  6
CENTER
 10
146.045471
 20
199.581482
 11
162.366486
 21
199.581482
  0
ARC
  8
0
  6
CONTINUOUS
 10
153.995010
 20
199.581482
 40
4.250000
 50
-208.072495
 51
28.072487
  0
ARC
  8
0
  6
DASHED
 10
113.995010
 20
199.581482
 40
4.250000
 50
28.072487
 51
151.927505
  0
ARC
  8
0
  6
CONTINUOUS
 10
113.995010
 20
199.581482
 40
4.250000
 50
-208.072495
 51
28.072487
  0
ARC
  8
0
  6
DASHED
 10
153.995010
 20
199.581482
 40
4.250000
 50
28.072487
 51
151.927505
  0
LINE
  8
0
  6
CONTINUOUS
 10
176.995010
 20
246.096481
 11
176.995010
 21
243.081482
  0
LINE
  8
0
  6
CONTINUOUS
 10
176.995010
 20
243.081482
 11
200.994995
 21
243.081482
  0
LINE
  8
0
  6
CONTINUOUS
 10
176.995010
 20
246.096481
 11
200.994995
 21
246.096481
  0
LINE
  8
0
  6
CONTINUOUS
 10
141.995010
 20
307.581482
 11
141.995010
 21
317.719452
  0
LINE
  8
0
  6
CONTINUOUS
 10
125.995018
 20
307.581482
 11
125.995018
 21
317.719452
  0
LINE
  8
0
  6
CENTER
 10
153.995010
 20
301.342743
 11
153.995010
 21
318.332184
  0
LINE
  8
0
  6
CENTER
 10
113.995010
 20
300.562897
 11
113.995010
 21
318.053680
  0
LINE
  8
0
  6
CENTER
 10
105.939224
 20
309.581482
 11
122.761566
 21
309.581482
  0
LINE
  8
0
  6
CENTER
 10
146.045471
 20
309.581482
 11
162.366486
 21
309.581482
  0
ARC
  8
0
  6
CONTINUOUS
 10
153.995010
 20
309.581482
 40
4.250000
 50
-28.072487
 51
208.072495
  0
ARC
  8
0
  6
DASHED
 10
113.995010
 20
309.581482
 40
4.250000
 50
-151.927505
 51
-28.072487
  0
ARC
  8
0
  6
CONTINUOUS
 10
113.995010
 20
309.581482
 40
4.250000
 50
-28.072487
 51
208.072495
  0
ARC
  8
0
  6
DASHED
 10
153.995010
 20
309.581482
 40
4.250000
 50
-151.927505
 51
-28.072487
  0
LINE
  8
0
  6
CONTINUOUS
 10
33.995041
 20
307.581482
 11
33.995041
 21
201.581390
  0
LINE
  8
0
  6
CONTINUOUS
 10
6.995042
 20
203.536682
 11
6.995042
 21
231.581482
  0
LINE
  8
0
  6
CONTINUOUS
 10
6.995042
 20
305.626282
 11
6.995042
 21
277.581482
  0
LINE
  8
0
  6
CONTINUOUS
 10
33.995041
 20
201.581390
 11
8.994642
 21
202.236191
  0
LINE
  8
0
  6
CONTINUOUS
 10
7.728742
 20
202.572784
 11
8.994342
 21
202.223083
  0
ARC
  8
0
  6
CONTINUOUS
 10
7.995042
 20
203.536682
 40
1.000000
 50
180.000000
 51
254.554504
  0
LINE
  8
0
  6
CONTINUOUS
 10
20.481743
 20
223.435379
 11
33.995041
 21
223.081482
  0
LINE
  8
0
  6
CONTINUOUS
 10
33.995041
 20
307.581482
 11
8.994642
 21
306.926788
  0
LINE
  8
0
  6
CONTINUOUS
 10
7.728742
 20
306.590179
 11
8.994342
 21
306.939880
  0
ARC
  8
0
  6
CONTINUOUS
 10
7.995042
 20
305.626282
 40
1.000000
 50
-254.554504
 51
-180.000000
  0
LINE
  8
0
  6
CONTINUOUS
 10
33.995041
 20
286.081482
 11
20.481743
 21
285.727600
  0
LINE
  8
0
  6
CONTINUOUS
 10
19.994843
 20
222.068588
 11
19.994843
 21
231.581482
  0
ARC
  8
0
  6
CONTINUOUS
 10
20.494843
 20
223.935287
 40
0.500000
 50
180.000000
 51
268.499908
  0
LINE
  8
0
  6
CONTINUOUS
 10
19.994843
 20
287.094391
 11
19.994843
 21
277.481079
  0
ARC
  8
0
  6
CONTINUOUS
 10
20.494843
 20
285.227692
 40
0.500000
 50
-268.499908
 51
-180.000000
  0
LINE
  8
0
  6
CONTINUOUS
 10
20.481642
 20
287.594299
 11
6.995042
 21
287.240997
  0
ARC
  8
0
  6
CONTINUOUS
 10
20.494843
 20
287.094391
 40
0.500000
 50
91.504303
 51
180.000000
  0
LINE
  8
0
  6
CONTINUOUS
 10
20.481642
 20
221.568680
 11
6.995042
 21
221.921982
  0
ARC
  8
0
  6
CONTINUOUS
 10
20.494843
 20
222.068588
 40
0.500000
 50
-180.000000
 51
-91.504303
  0
LINE
  8
0
  6
CONTINUOUS
 10
6.195042
 20
292.232788
 11
6.195042
 21
277.581482
  0
LINE
  8
0
  6
CONTINUOUS
 10
6.646522
 20
292.742004
 11
6.543562
 21
292.709290
  0
ARC
  8
0
  6
CONTINUOUS
 10
6.495042
 20
293.218506
 40
0.500000
 50
-72.364487
 51
0.000000
  0
ARC
  8
0
  6
CONTINUOUS
 10
6.695042
 20
292.232788
 40
0.500000
 50
107.635513
 51
180.000000
  0
LINE
  8
0
  6
CONTINUOUS
 10
6.646522
 20
216.420959
 11
6.543562
 21
216.453690
  0
ARC
  8
0
  6
CONTINUOUS
 10
6.495042
 20
215.944458
 40
0.500000
 50
0.000000
 51
72.364487
  0
ARC
  8
0
  6
CONTINUOUS
 10
6.695042
 20
216.930191
 40
0.500000
 50
-180.000000
 51
-107.635513
  0
LINE
  8
0
  6
CONTINUOUS
 10
6.195042
 20
231.581482
 11
6.195042
 21
216.930191
  0
LINE
  8
0
  6
CONTINUOUS
 10
18.694841
 20
231.581482
 11
18.694841
 21
224.081482
  0
LINE
  8
0
  6
CONTINUOUS
 10
18.694841
 20
224.081482
 11
17.436111
 21
224.081482
  0
ARC
  8
0
  6
CONTINUOUS
 10
26.923452
 20
228.581482
 40
11.571430
 50
164.973892
 51
196.601013
  0
ARC
  8
0
  6
CONTINUOUS
 10
17.436111
 20
225.752899
 40
1.671429
 50
-163.399094
 51
-90.000000
  0
LINE
  8
0
  6
CONTINUOUS
 10
19.994843
 20
224.331482
 11
18.694841
 21
224.331482
  0
LINE
  8
0
  6
CONTINUOUS
 10
18.695000
 20
22.635000
 11
18.695000
 21
13.635000
  0
LINE
  8
0
  6
CONTINUOUS
 10
18.695000
 20
22.635000
 11
17.436270
 21
22.635000
  0
LINE
  8
0
  6
CONTINUOUS
 10
18.695000
 20
13.635000
 11
17.436270
 21
13.635000
  0
ARC
  8
0
  6
CONTINUOUS
 10
26.923611
 20
18.135000
 40
11.571430
 50
163.398483
 51
196.601013
  0
ARC
  8
0
  6
CONTINUOUS
 10
17.436270
 20
20.963549
 40
1.671429
 50
90.000000
 51
163.398422
  0
ARC
  8
0
  6
CONTINUOUS
 10
17.436270
 20
15.306413
 40
1.671429
 50
-163.399094
 51
-90.000000
  0
LINE
  8
0
  6
CONTINUOUS
 10
19.995001
 20
22.385000
 11
18.695000
 21
22.385000
  0
LINE
  8
0
  6
CONTINUOUS
 10
19.995001
 20
13.885000
 11
18.695000
 21
13.885000
  0
LINE
  8
0
  6
CONTINUOUS
 10
18.695000
 20
115.635002
 11
18.695000
 21
106.635002
  0
LINE
  8
0
  6
CONTINUOUS
 10
18.695000
 20
115.635002
 11
17.436270
 21
115.635002
  0
LINE
  8
0
  6
CONTINUOUS
 10
18.695000
 20
106.635002
 11
17.436270
 21
106.635002
  0
ARC
  8
0
  6
CONTINUOUS
 10
26.923611
 20
111.135002
 40
11.571430
 50
163.398483
 51
196.601013
  0
ARC
  8
0
  6
CONTINUOUS
 10
17.436270
 20
113.963547
 40
1.671429
 50
90.000000
 51
163.398422
  0
ARC
  8
0
  6
CONTINUOUS
 10
17.436270
 20
108.306412
 40
1.671429
 50
-163.399094
 51
-90.000000
  0
LINE
  8
0
  6
CONTINUOUS
 10
19.995001
 20
115.385002
 11
18.695000
 21
115.385002
  0
LINE
  8
0
  6
CONTINUOUS
 10
19.995001
 20
106.885002
 11
18.695000
 21
106.885002
  0
LINE
  8
0
  6
CONTINUOUS
 10
18.694841
 20
277.581482
 11
18.694841
 21
285.081482
  0
LINE
  8
0
  6
CONTINUOUS
 10
18.694841
 20
285.081482
 11
17.436111
 21
285.081482
  0
ARC
  8
0
  6
CONTINUOUS
 10
26.923452
 20
280.581482
 40
11.571430
 50
-196.601013
 51
-164.973892
  0
ARC
  8
0
  6
CONTINUOUS
 10
17.436111
 20
283.410065
 40
1.671429
 50
90.000000
 51
163.399094
  0
LINE
  8
0
  6
CONTINUOUS
 10
19.994843
 20
284.831482
 11
18.694841
 21
284.831482
  0
LINE
  8
0
  6
CONTINUOUS
 10
6.524005
 20
21.015257
 11
6.666011
 21
20.963572
  0
LINE
  8
0
  6
CONTINUOUS
 10
6.195015
 20
21.485104
 11
6.195015
 21
103.235001
  0
ARC
  8
0
  6
CONTINUOUS
 10
6.695015
 20
21.485104
 40
0.500000
 50
180.000000
 51
250.000000
  0
ARC
  8
0
  6
CONTINUOUS
 10
6.495001
 20
20.493725
 40
0.500000
 50
0.000000
 51
70.000000
  0
LINE
  8
0
  6
CONTINUOUS
 10
6.195015
 20
103.235001
 11
6.666025
 21
103.406433
  0
ARC
  8
0
  6
CONTINUOUS
 10
6.495015
 20
103.876282
 40
0.500000
 50
-69.999992
 51
0.000000
  0
TEXT
  8
0
 10
-20.000000
 20
-1.000000
 40
4.000000
 41
1.000000
  1
GLW-18-5~240-T90
 50
0.000000
  0
ENDSEC
  0
EOF
