  0
SECTION
  2
HEADER
  9
$ACADVER
  1
AC1015
  9
$ACADMAINTVER
 70
    20
  9
$DWGCODEPAGE
  3
ANSI_932
  9
$INSBASE
 10
0.0
 20
0.0
 30
0.0
  9
$EXTMIN
 10
27.1685302993
 20
20.1183446421
 30
0.0
  9
$EXTMAX
 10
753.8497119461
 20
417.051682776
 30
0.0
  9
$LIMMIN
 10
-29.6081459351
 20
-30.0482738134
  9
$LIMMAX
 10
625.7653034018
 20
435.9714686974
  9
$ORTHOMODE
 70
     1
  9
$REGENMODE
 70
     1
  9
$FILLMODE
 70
     1
  9
$QTEXTMODE
 70
     0
  9
$MIRRTEXT
 70
     0
  9
$LTSCALE
 40
2.0
  9
$ATTMODE
 70
     1
  9
$TEXTSIZE
 40
2.0
  9
$TRACEWID
 40
1.0
  9
$TEXTSTYLE
  7
STANDARD
  9
$CLAYER
  8
0
  9
$CELTYPE
  6
BYLAYER
  9
$CECOLOR
 62
   256
  9
$CELTSCALE
 40
1.0
  9
$DISPSILH
 70
     0
  9
$DIMSCALE
 40
2.0
  9
$DIMASZ
 40
1.8
  9
$DIMEXO
 40
0.625
  9
$DIMDLI
 40
3.75
  9
$DIMRND
 40
0.0
  9
$DIMDLE
 40
0.0
  9
$DIMEXE
 40
0.8
  9
$DIMTP
 40
0.0
  9
$DIMTM
 40
0.0
  9
$DIMTXT
 40
1.8
  9
$DIMCEN
 40
2.5
  9
$DIMTSZ
 40
0.0
  9
$DIMTOL
 70
     0
  9
$DIMLIM
 70
     0
  9
$DIMTIH
 70
     0
  9
$DIMTOH
 70
     0
  9
$DIMSE1
 70
     0
  9
$DIMSE2
 70
     0
  9
$DIMTAD
 70
     1
  9
$DIMZIN
 70
     8
  9
$DIMBLK
  1

  9
$DIMASO
 70
     1
  9
$DIMSHO
 70
     1
  9
$DIMPOST
  1

  9
$DIMAPOST
  1

  9
$DIMALT
 70
     0
  9
$DIMALTD
 70
     4
  9
$DIMALTF
 40
0.0394
  9
$DIMLFAC
 40
1.0
  9
$DIMTOFL
 70
     1
  9
$DIMTVP
 40
0.0
  9
$DIMTIX
 70
     0
  9
$DIMSOXD
 70
     0
  9
$DIMSAH
 70
     0
  9
$DIMBLK1
  1

  9
$DIMBLK2
  1

  9
$DIMSTYLE
  2
STANDARD
  9
$DIMCLRD
 70
     0
  9
$DIMCLRE
 70
     0
  9
$DIMCLRT
 70
     0
  9
$DIMTFAC
 40
1.0
  9
$DIMGAP
 40
0.75
  9
$DIMJUST
 70
     0
  9
$DIMSD1
 70
     0
  9
$DIMSD2
 70
     0
  9
$DIMTOLJ
 70
     1
  9
$DIMTZIN
 70
     0
  9
$DIMALTZ
 70
     0
  9
$DIMALTTZ
 70
     0
  9
$DIMUPT
 70
     0
  9
$DIMDEC
 70
     2
  9
$DIMTDEC
 70
     2
  9
$DIMALTU
 70
     8
  9
$DIMALTTD
 70
     4
  9
$DIMTXSTY
  7
STANDARD
  9
$DIMAUNIT
 70
     0
  9
$DIMADEC
 70
     2
  9
$DIMALTRND
 40
0.0
  9
$DIMAZIN
 70
     0
  9
$DIMDSEP
 70
    46
  9
$DIMATFIT
 70
     3
  9
$DIMFRAC
 70
     0
  9
$DIMLDRBLK
  1

  9
$DIMLUNIT
 70
     6
  9
$DIMLWD
 70
    -2
  9
$DIMLWE
 70
    -2
  9
$DIMTMOVE
 70
     0
  9
$LUNITS
 70
     2
  9
$LUPREC
 70
     3
  9
$SKETCHINC
 40
1.0
  9
$FILLETRAD
 40
10.0
  9
$AUNITS
 70
     0
  9
$AUPREC
 70
     2
  9
$MENU
  1
.
  9
$ELEVATION
 40
0.0
  9
$PELEVATION
 40
0.0
  9
$THICKNESS
 40
0.0
  9
$LIMCHECK
 70
     0
  9
$CHAMFERA
 40
0.0
  9
$CHAMFERB
 40
0.0
  9
$CHAMFERC
 40
20.0
  9
$CHAMFERD
 40
0.0
  9
$SKPOLY
 70
     0
  9
$TDCREATE
 40
2453754.487106482
  9
$TDUCREATE
 40
2453754.112113715
  9
$TDUPDATE
 40
2460249.327546296
  9
$TDUUPDATE
 40
2460248.952546296
  9
$TDINDWG
 40
0.5391379282
  9
$TDUSRTIMER
 40
0.5391376389
  9
$USRTIMER
 70
     1
  9
$ANGBASE
 50
0.0
  9
$ANGDIR
 70
     0
  9
$PDMODE
 70
     0
  9
$PDSIZE
 40
-10.0
  9
$PLINEWID
 40
0.0
  9
$SPLFRAME
 70
     0
  9
$SPLINETYPE
 70
     6
  9
$SPLINESEGS
 70
     8
  9
$HANDSEED
  5
4CD5
  9
$SURFTAB1
 70
     6
  9
$SURFTAB2
 70
     6
  9
$SURFTYPE
 70
     6
  9
$SURFU
 70
     6
  9
$SURFV
 70
     6
  9
$UCSBASE
  2

  9
$UCSNAME
  2

  9
$UCSORG
 10
0.0
 20
0.0
 30
0.0
  9
$UCSXDIR
 10
1.0
 20
0.0
 30
0.0
  9
$UCSYDIR
 10
0.0
 20
1.0
 30
0.0
  9
$UCSORTHOREF
  2

  9
$UCSORTHOVIEW
 70
     0
  9
$UCSORGTOP
 10
0.0
 20
0.0
 30
0.0
  9
$UCSORGBOTTOM
 10
0.0
 20
0.0
 30
0.0
  9
$UCSORGLEFT
 10
0.0
 20
0.0
 30
0.0
  9
$UCSORGRIGHT
 10
0.0
 20
0.0
 30
0.0
  9
$UCSORGFRONT
 10
0.0
 20
0.0
 30
0.0
  9
$UCSORGBACK
 10
0.0
 20
0.0
 30
0.0
  9
$PUCSBASE
  2

  9
$PUCSNAME
  2

  9
$PUCSORG
 10
0.0
 20
0.0
 30
0.0
  9
$PUCSXDIR
 10
1.0
 20
0.0
 30
0.0
  9
$PUCSYDIR
 10
0.0
 20
1.0
 30
0.0
  9
$PUCSORTHOREF
  2

  9
$PUCSORTHOVIEW
 70
     0
  9
$PUCSORGTOP
 10
0.0
 20
0.0
 30
0.0
  9
$PUCSORGBOTTOM
 10
0.0
 20
0.0
 30
0.0
  9
$PUCSORGLEFT
 10
0.0
 20
0.0
 30
0.0
  9
$PUCSORGRIGHT
 10
0.0
 20
0.0
 30
0.0
  9
$PUCSORGFRONT
 10
0.0
 20
0.0
 30
0.0
  9
$PUCSORGBACK
 10
0.0
 20
0.0
 30
0.0
  9
$USERI1
 70
     0
  9
$USERI2
 70
     0
  9
$USERI3
 70
     0
  9
$USERI4
 70
     0
  9
$USERI5
 70
     0
  9
$USERR1
 40
0.0
  9
$USERR2
 40
0.0
  9
$USERR3
 40
0.0
  9
$USERR4
 40
0.0
  9
$USERR5
 40
0.0
  9
$WORLDVIEW
 70
     1
  9
$SHADEDGE
 70
     3
  9
$SHADEDIF
 70
    70
  9
$TILEMODE
 70
     1
  9
$MAXACTVP
 70
    48
  9
$PINSBASE
 10
0.0
 20
0.0
 30
0.0
  9
$PLIMCHECK
 70
     0
  9
$PEXTMIN
 10
0.0
 20
0.0
 30
0.0
  9
$PEXTMAX
 10
0.0
 20
0.0
 30
0.0
  9
$PLIMMIN
 10
0.0
 20
0.0
  9
$PLIMMAX
 10
12.0
 20
9.0
  9
$UNITMODE
 70
     0
  9
$VISRETAIN
 70
     1
  9
$PLINEGEN
 70
     0
  9
$PSLTSCALE
 70
     1
  9
$TREEDEPTH
 70
  3020
  9
$CMLSTYLE
  2
STANDARD
  9
$CMLJUST
 70
     0
  9
$CMLSCALE
 40
1.0
  9
$PROXYGRAPHICS
 70
     1
  9
$MEASUREMENT
 70
     0
  9
$CELWEIGHT
370
    -1
  9
$ENDCAPS
280
     0
  9
$JOINSTYLE
280
     0
  9
$LWDISPLAY
290
     0
  9
$INSUNITS
 70
     0
  9
$HYPERLINKBASE
  1

  9
$STYLESHEET
  1
SEKKEI.CTB
  9
$XEDIT
290
     1
  9
$CEPSNTYPE
380
     0
  9
$PSTYLEMODE
290
     1
  9
$FINGERPRINTGUID
  2
{6385560B-F4B1-4644-A7C2-A3E32AC3D232}
  9
$VERSIONGUID
  2
{20233750-E372-A04C-AC82-C3ACA0453C8F}
  9
$EXTNAMES
290
     1
  9
$PSVPSCALE
 40
0.0
  9
$OLESTARTUP
290
     0
  0
ENDSEC
  0
SECTION
  2
CLASSES
  0
CLASS
  1
DICTIONARYVAR
  2
AcDbDictionaryVar
  3
ObjectDBX Classes
 90
        0
280
     0
281
     0
  0
CLASS
  1
ACDBDICTIONARYWDFLT
  2
AcDbDictionaryWithDefault
  3
ObjectDBX Classes
 90
        0
280
     0
281
     0
  0
CLASS
  1
MATERIAL
  2
AcDbMaterial
  3
ObjectDBX Classes
 90
     1153
280
     0
281
     0
  0
CLASS
  1
VISUALSTYLE
  2
AcDbVisualStyle
  3
ObjectDBX Classes
 90
     4095
280
     0
281
     0
  0
CLASS
  1
TABLESTYLE
  2
AcDbTableStyle
  3
ObjectDBX Classes
 90
     4095
280
     0
281
     0
  0
CLASS
  1
SCALE
  2
AcDbScale
  3
ObjectDBX Classes
 90
     1153
280
     0
281
     0
  0
CLASS
  1
MLEADERSTYLE
  2
AcDbMLeaderStyle
  3
ACDB_MLEADERSTYLE_CLASS
 90
     4095
280
     0
281
     0
  0
CLASS
  1
CELLSTYLEMAP
  2
AcDbCellStyleMap
  3
ObjectDBX Classes
 90
     1152
280
     0
281
     0
  0
CLASS
  1
ACAD_EVALUATION_GRAPH
  2
AcDbEvalGraph
  3
ObjectDBX Classes
 90
    33921
280
     0
281
     0
  0
CLASS
  1
ACAECUSTOBJ
  2
AcAeEditorObj
  3
AcAeEditorObj
 90
    33792
280
     0
281
     0
  0
CLASS
  1
ACDB_DYNAMICBLOCKPURGEPREVENTER_VERSION
  2
AcDbDynamicBlockPurgePreventer
  3
ObjectDBX Classes
 90
    33921
280
     0
281
     0
  0
CLASS
  1
ACDBSECTIONVIEWSTYLE
  2
AcDbSectionViewStyle
  3
ObjectDBX Classes
 90
     1025
280
     0
281
     0
  0
CLASS
  1
ACDBDETAILVIEWSTYLE
  2
AcDbDetailViewStyle
  3
ObjectDBX Classes
 90
     1025
280
     0
281
     0
  0
CLASS
  1
SORTENTSTABLE
  2
AcDbSortentsTable
  3
ObjectDBX Classes
 90
    32768
280
     0
281
     0
  0
CLASS
  1
ACDBPLACEHOLDER
  2
AcDbPlaceHolder
  3
ObjectDBX Classes
 90
        0
280
     0
281
     0
  0
CLASS
  1
LAYOUT
  2
AcDbLayout
  3
ObjectDBX Classes
 90
        0
280
     0
281
     0
  0
ENDSEC
  0
SECTION
  2
TABLES
  0
TABLE
  2
VPORT
  5
6E
102
{ACAD_XDICTIONARY
360
250A
102
}
330
0
100
AcDbSymbolTable
 70
     1
  0
VPORT
  5
1F48
330
6E
100
AcDbSymbolTableRecord
100
AcDbViewportTableRecord
  2
*Active
 70
     0
 10
0.0
 20
0.0
 11
1.0
 21
1.0
 12
424.4822156511
 22
225.1035628913
 13
0.0
 23
0.0
 14
10.0
 24
10.0
 15
12.0
 25
12.0
 16
0.0
 26
0.0
 36
1.0
 17
0.0
 27
0.0
 37
0.0
 40
397.512946708
 41
1.9986338798
 42
50.0
 43
0.0
 44
0.0
 50
0.0
 51
0.0
 71
     0
 72
   100
 73
     1
 74
     3
 75
     0
 76
     0
 77
     0
 78
     0
281
     0
 65
     1
110
0.0
120
0.0
130
0.0
111
1.0
121
0.0
131
0.0
112
0.0
122
1.0
132
0.0
 79
     0
146
0.0
1001
ACAD_NAV_VCDISPLAY
1070
     3
  0
ENDTAB
  0
TABLE
  2
LTYPE
  5
69
330
0
100
AcDbSymbolTable
 70
     3
  0
LTYPE
  5
6A
330
69
100
AcDbSymbolTableRecord
100
AcDbLinetypeTableRecord
  2
BYBLOCK
 70
     0
  3

 72
    65
 73
     0
 40
0.0
  0
LTYPE
  5
6B
330
69
100
AcDbSymbolTableRecord
100
AcDbLinetypeTableRecord
  2
BYLAYER
 70
     0
  3

 72
    65
 73
     0
 40
0.0
  0
LTYPE
  5
8
330
69
100
AcDbSymbolTableRecord
100
AcDbLinetypeTableRecord
  2
CONTINUOUS
 70
     0
  3
Solid line
 72
    65
 73
     0
 40
0.0
  0
LTYPE
  5
27C
330
69
100
AcDbSymbolTableRecord
100
AcDbLinetypeTableRecord
  2
sekkei(A2)
 70
     0
  3
center(A2)  ____ _ ____ _ ____ _ ____ _ ____ _ 
 72
    65
 73
     4
 40
14.2875
 49
9.525
 74
     0
 49
-1.5875
 74
     0
 49
1.5875
 74
     0
 49
-1.5875
 74
     0
  0
LTYPE
  5
2B4
330
69
100
AcDbSymbolTableRecord
100
AcDbLinetypeTableRecord
  2
HIDDEN2
 70
     0
  3
Hidden (.5x) _ _ _ _ _ _ _ _ _ _ _ _ _ _ _ _ _
 72
    65
 73
     2
 40
4.7625
 49
3.175
 74
     0
 49
-1.5875
 74
     0
  0
ENDTAB
  0
TABLE
  2
LAYER
  5
66
102
{ACAD_XDICTIONARY
360
1FA3
102
}
330
0
100
AcDbSymbolTable
 70
    10
  0
LAYER
  5
5E
102
{ACAD_XDICTIONARY
360
24F3
102
}
330
66
100
AcDbSymbolTableRecord
100
AcDbLayerTableRecord
  2
0
 70
     0
 62
     7
  6
CONTINUOUS
370
    -3
390
5
  0
LAYER
  5
3E
102
{ACAD_XDICTIONARY
360
24F5
102
}
330
66
100
AcDbSymbolTableRecord
100
AcDbLayerTableRecord
  2
CENTER
 70
     0
 62
     3
  6
sekkei(A2)
370
    -3
390
5
  0
LAYER
  5
135
330
66
100
AcDbSymbolTableRecord
100
AcDbLayerTableRecord
  2
DEFPOINTS
 70
     0
 62
     7
  6
CONTINUOUS
290
     0
370
    -3
390
5
  0
LAYER
  5
2B5
102
{ACAD_XDICTIONARY
360
24FB
102
}
330
66
100
AcDbSymbolTableRecord
100
AcDbLayerTableRecord
  2
HIDS
 70
     0
 62
     1
  6
HIDDEN2
370
    -3
390
5
  0
LAYER
  5
2BA
102
{ACAD_XDICTIONARY
360
24FD
102
}
330
66
100
AcDbSymbolTableRecord
100
AcDbLayerTableRecord
  2
HOJO
 70
     0
 62
     4
  6
CONTINUOUS
370
    -3
390
5
  0
LAYER
  5
3FA
102
{ACAD_XDICTIONARY
360
2501
102
}
330
66
100
AcDbSymbolTableRecord
100
AcDbLayerTableRecord
  2
TITLE
 70
     0
 62
     4
  6
CONTINUOUS
290
     0
370
    -3
390
5
  0
LAYER
  5
1FA0
102
{ACAD_XDICTIONARY
360
1FA1
102
}
330
66
100
AcDbSymbolTableRecord
100
AcDbLayerTableRecord
  2
TITLE_C
 70
     0
 62
     4
  6
CONTINUOUS
370
    -3
390
5
1001
AcAecLayerStandard
1000

1000

  0
ENDTAB
  0
TABLE
  2
STYLE
  5
67
330
0
100
AcDbSymbolTable
 70
     1
  0
STYLE
  5
16
330
67
100
AcDbSymbolTableRecord
100
AcDbTextStyleTableRecord
  2
STANDARD
 70
     0
 40
0.0
 41
1.0
 50
0.0
 71
     0
 42
2.0
  3
simplex.shx
  4
extfont.shx
  0
ENDTAB
  0
TABLE
  2
VIEW
  5
6C
330
0
100
AcDbSymbolTable
 70
     0
  0
ENDTAB
  0
TABLE
  2
UCS
  5
6D
330
0
100
AcDbSymbolTable
 70
     0
  0
ENDTAB
  0
TABLE
  2
APPID
  5
70
330
0
100
AcDbSymbolTable
 70
    10
  0
APPID
  5
71
330
70
100
AcDbSymbolTableRecord
100
AcDbRegAppTableRecord
  2
ACAD
 70
     0
  0
APPID
  5
1FA2
330
70
100
AcDbSymbolTableRecord
100
AcDbRegAppTableRecord
  2
AcAecLayerStandard
 70
     0
  0
APPID
  5
1FC7
330
70
100
AcDbSymbolTableRecord
100
AcDbRegAppTableRecord
  2
ACAD_EXEMPT_FROM_CAD_STANDARDS
 70
     0
  0
APPID
  5
2571
330
70
100
AcDbSymbolTableRecord
100
AcDbRegAppTableRecord
  2
ACAD_MLEADERVER
 70
     0
  0
APPID
  5
3429
330
70
100
AcDbSymbolTableRecord
100
AcDbRegAppTableRecord
  2
AcadAnnoAV
 70
     0
  0
APPID
  5
344F
330
70
100
AcDbSymbolTableRecord
100
AcDbRegAppTableRecord
  2
ACAUTHENVIRON
 70
     0
  0
APPID
  5
3453
330
70
100
AcDbSymbolTableRecord
100
AcDbRegAppTableRecord
  2
AcDbDynamicBlockTrueName
 70
     0
  0
APPID
  5
3454
330
70
100
AcDbSymbolTableRecord
100
AcDbRegAppTableRecord
  2
AcDbDynamicBlockGUID
 70
     0
  0
APPID
  5
3456
330
70
100
AcDbSymbolTableRecord
100
AcDbRegAppTableRecord
  2
AcDbBlockRepETag
 70
     0
  0
APPID
  5
3BC9
330
70
100
AcDbSymbolTableRecord
100
AcDbRegAppTableRecord
  2
ACAD_NAV_VCDISPLAY
 70
     0
  0
ENDTAB
  0
TABLE
  2
DIMSTYLE
  5
72
330
0
100
AcDbSymbolTable
 70
     2
100
AcDbDimStyleTable
 71
     1
340
73
  0
DIMSTYLE
105
73
330
72
100
AcDbSymbolTableRecord
100
AcDbDimStyleTableRecord
  2
STANDARD
 70
     0
 40
2.0
 41
1.8
 42
0.625
 43
3.75
 44
0.8
 73
     0
 74
     0
 77
     1
 78
     8
140
1.8
141
2.5
143
0.0394
147
0.75
171
     4
172
     1
179
     2
271
     2
272
     2
273
     8
274
     4
277
     6
340
16
  0
ENDTAB
  0
TABLE
  2
BLOCK_RECORD
  5
1
330
0
100
AcDbSymbolTable
 70
    82
  0
BLOCK_RECORD
  5
2
330
1
100
AcDbSymbolTableRecord
100
AcDbBlockTableRecord
  2
*MODEL_SPACE
340
60
  0
BLOCK_RECORD
  5
4C5D
330
1
100
AcDbSymbolTableRecord
100
AcDbBlockTableRecord
  2
*Paper_Space
340
4C5E
  0
BLOCK_RECORD
  5
B8D
330
1
100
AcDbSymbolTableRecord
100
AcDbBlockTableRecord
  2
*D1
340
0
  0
BLOCK_RECORD
  5
B99
330
1
100
AcDbSymbolTableRecord
100
AcDbBlockTableRecord
  2
*D2
340
0
  0
BLOCK_RECORD
  5
BA5
330
1
100
AcDbSymbolTableRecord
100
AcDbBlockTableRecord
  2
*D3
340
0
  0
BLOCK_RECORD
  5
BB1
330
1
100
AcDbSymbolTableRecord
100
AcDbBlockTableRecord
  2
*D4
340
0
  0
BLOCK_RECORD
  5
BBD
330
1
100
AcDbSymbolTableRecord
100
AcDbBlockTableRecord
  2
*D5
340
0
  0
BLOCK_RECORD
  5
BC9
330
1
100
AcDbSymbolTableRecord
100
AcDbBlockTableRecord
  2
*D6
340
0
  0
BLOCK_RECORD
  5
BD5
330
1
100
AcDbSymbolTableRecord
100
AcDbBlockTableRecord
  2
*D7
340
0
  0
BLOCK_RECORD
  5
BED
330
1
100
AcDbSymbolTableRecord
100
AcDbBlockTableRecord
  2
*D8
340
0
  0
BLOCK_RECORD
  5
BFB
330
1
100
AcDbSymbolTableRecord
100
AcDbBlockTableRecord
  2
*D9
340
0
  0
BLOCK_RECORD
  5
C07
330
1
100
AcDbSymbolTableRecord
100
AcDbBlockTableRecord
  2
*D10
340
0
  0
BLOCK_RECORD
  5
C13
330
1
100
AcDbSymbolTableRecord
100
AcDbBlockTableRecord
  2
*D11
340
0
  0
BLOCK_RECORD
  5
C1F
330
1
100
AcDbSymbolTableRecord
100
AcDbBlockTableRecord
  2
*D12
340
0
  0
BLOCK_RECORD
  5
C2C
330
1
100
AcDbSymbolTableRecord
100
AcDbBlockTableRecord
  2
*D13
340
0
  0
BLOCK_RECORD
  5
C38
330
1
100
AcDbSymbolTableRecord
100
AcDbBlockTableRecord
  2
*D14
340
0
  0
BLOCK_RECORD
  5
C44
330
1
100
AcDbSymbolTableRecord
100
AcDbBlockTableRecord
  2
*D15
340
0
  0
BLOCK_RECORD
  5
C50
330
1
100
AcDbSymbolTableRecord
100
AcDbBlockTableRecord
  2
*D16
340
0
  0
BLOCK_RECORD
  5
C5C
330
1
100
AcDbSymbolTableRecord
100
AcDbBlockTableRecord
  2
*D17
340
0
  0
BLOCK_RECORD
  5
1A59
330
1
100
AcDbSymbolTableRecord
100
AcDbBlockTableRecord
  2
*D23
340
0
  0
BLOCK_RECORD
  5
1A65
330
1
100
AcDbSymbolTableRecord
100
AcDbBlockTableRecord
  2
*D24
340
0
  0
BLOCK_RECORD
  5
1A71
330
1
100
AcDbSymbolTableRecord
100
AcDbBlockTableRecord
  2
*D25
340
0
  0
BLOCK_RECORD
  5
1A7D
330
1
100
AcDbSymbolTableRecord
100
AcDbBlockTableRecord
  2
*D26
340
0
  0
ENDTAB
  0
ENDSEC
  0
SECTION
  2
BLOCKS
  0
BLOCK
  5
5D
330
2
100
AcDbEntity
  8
0
100
AcDbBlockBegin
  2
*MODEL_SPACE
 70
     0
 10
0.0
 20
0.0
 30
0.0
  3
*MODEL_SPACE
  1

  0
ENDBLK
  5
5F
330
2
100
AcDbEntity
  8
0
100
AcDbBlockEnd
  0
BLOCK
  5
4C5F
330
4C5D
100
AcDbEntity
 67
     1
  8
0
100
AcDbBlockBegin
  2
*Paper_Space
 70
     0
 10
0.0
 20
0.0
 30
0.0
  3
*Paper_Space
  1

  0
ENDBLK
  5
4C60
330
4C5D
100
AcDbEntity
 67
     1
  8
0
100
AcDbBlockEnd
  0
BLOCK
  5
B97
330
B8D
100
AcDbEntity
  8
0
100
AcDbBlockBegin
  2
*D1
 70
     1
 10
0.0
 20
0.0
 30
0.0
  3
*D1
  1

  0
POINT
  5
1AB3
330
B8D
100
AcDbEntity
  8
DEFPOINTS
 62
     0
100
AcDbPoint
 10
49.0865556342
 20
141.228601085
 30
0.0
  0
POINT
  5
1AB4
330
B8D
100
AcDbEntity
  8
DEFPOINTS
 62
     0
100
AcDbPoint
 10
279.5865416342
 20
139.428590085
 30
0.0
  0
POINT
  5
1AB5
330
B8D
100
AcDbEntity
  8
DEFPOINTS
 62
     0
100
AcDbPoint
 10
279.5865416342
 20
230.6537651157
 30
0.0
  0
ENDBLK
  5
B98
330
B8D
100
AcDbEntity
  8
0
100
AcDbBlockEnd
  0
BLOCK
  5
BA3
330
B99
100
AcDbEntity
  8
0
100
AcDbBlockBegin
  2
*D2
 70
     1
 10
0.0
 20
0.0
 30
0.0
  3
*D2
  1

  0
POINT
  5
1ABC
330
B99
100
AcDbEntity
  8
DEFPOINTS
 62
     0
100
AcDbPoint
 10
229.0865416342
 20
178.928590085
 30
0.0
  0
POINT
  5
1ABD
330
B99
100
AcDbEntity
  8
DEFPOINTS
 62
     0
100
AcDbPoint
 10
49.0865556342
 20
141.228601085
 30
0.0
  0
POINT
  5
1ABE
330
B99
100
AcDbEntity
  8
DEFPOINTS
 62
     0
100
AcDbPoint
 10
49.0865556342
 20
218.6650245094
 30
0.0
  0
ENDBLK
  5
BA4
330
B99
100
AcDbEntity
  8
0
100
AcDbBlockEnd
  0
BLOCK
  5
BAF
330
BA5
100
AcDbEntity
  8
0
100
AcDbBlockBegin
  2
*D3
 70
     1
 10
0.0
 20
0.0
 30
0.0
  3
*D3
  1

  0
POINT
  5
FAE
330
BA5
100
AcDbEntity
  8
DEFPOINTS
 62
     0
100
AcDbPoint
 10
54.0865306342
 20
146.228593085
 30
0.0
  0
POINT
  5
FAF
330
BA5
100
AcDbEntity
  8
DEFPOINTS
 62
     0
100
AcDbPoint
 10
54.0865306342
 20
52.228590085
 30
0.0
  0
POINT
  5
FB0
330
BA5
100
AcDbEntity
  8
DEFPOINTS
 62
     0
100
AcDbPoint
 10
32.2685302993
 20
52.228590085
 30
0.0
  0
ENDBLK
  5
BB0
330
BA5
100
AcDbEntity
  8
0
100
AcDbBlockEnd
  0
BLOCK
  5
BBB
330
BB1
100
AcDbEntity
  8
0
100
AcDbBlockBegin
  2
*D4
 70
     1
 10
0.0
 20
0.0
 30
0.0
  3
*D4
  1

  0
POINT
  5
FC9
330
BB1
100
AcDbEntity
  8
DEFPOINTS
 62
     0
100
AcDbPoint
 10
178.5865416342
 20
80.428579085
 30
0.0
  0
POINT
  5
FCA
330
BB1
100
AcDbEntity
  8
DEFPOINTS
 62
     0
100
AcDbPoint
 10
279.5865416342
 20
80.428590085
 30
0.0
  0
POINT
  5
FCB
330
BB1
100
AcDbEntity
  8
DEFPOINTS
 62
     0
100
AcDbPoint
 10
279.5865416342
 20
21.7183446421
 30
0.0
  0
ENDBLK
  5
BBC
330
BB1
100
AcDbEntity
  8
0
100
AcDbBlockEnd
  0
BLOCK
  5
BC7
330
BBD
100
AcDbEntity
  8
0
100
AcDbBlockBegin
  2
*D5
 70
     1
 10
0.0
 20
0.0
 30
0.0
  3
*D5
  1

  0
POINT
  5
FB7
330
BBD
100
AcDbEntity
  8
DEFPOINTS
 62
     0
100
AcDbPoint
 10
269.0865416342
 20
50.928590085
 30
0.0
  0
POINT
  5
FB8
330
BBD
100
AcDbEntity
  8
DEFPOINTS
 62
     0
100
AcDbPoint
 10
269.0865416342
 20
168.928590085
 30
0.0
  0
POINT
  5
FB9
330
BBD
100
AcDbEntity
  8
DEFPOINTS
 62
     0
100
AcDbPoint
 10
308.6743742545
 20
168.928590085
 30
0.0
  0
ENDBLK
  5
BC8
330
BBD
100
AcDbEntity
  8
0
100
AcDbBlockEnd
  0
BLOCK
  5
BD3
330
BC9
100
AcDbEntity
  8
0
100
AcDbBlockBegin
  2
*D6
 70
     1
 10
0.0
 20
0.0
 30
0.0
  3
*D6
  1

  0
POINT
  5
FC0
330
BC9
100
AcDbEntity
  8
DEFPOINTS
 62
     0
100
AcDbPoint
 10
262.5865416342
 20
124.928590085
 30
0.0
  0
POINT
  5
FC1
330
BC9
100
AcDbEntity
  8
DEFPOINTS
 62
     0
100
AcDbPoint
 10
275.8865446342
 20
59.928590085
 30
0.0
  0
POINT
  5
FC2
330
BC9
100
AcDbEntity
  8
DEFPOINTS
 62
     0
100
AcDbPoint
 10
296.786857926
 20
59.928590085
 30
0.0
  0
ENDBLK
  5
BD4
330
BC9
100
AcDbEntity
  8
0
100
AcDbBlockEnd
  0
BLOCK
  5
BDF
330
BD5
100
AcDbEntity
  8
0
100
AcDbBlockBegin
  2
*D7
 70
     1
 10
0.0
 20
0.0
 30
0.0
  3
*D7
  1

  0
POINT
  5
108F
330
BD5
100
AcDbEntity
  8
DEFPOINTS
 62
     0
100
AcDbPoint
 10
189.0865416342
 20
53.128587085
 30
0.0
  0
POINT
  5
1090
330
BD5
100
AcDbEntity
  8
DEFPOINTS
 62
     0
100
AcDbPoint
 10
269.0865416342
 20
53.128587085
 30
0.0
  0
POINT
  5
1091
330
BD5
100
AcDbEntity
  8
DEFPOINTS
 62
     0
100
AcDbPoint
 10
269.0865416342
 20
33.7258777234
 30
0.0
  0
ENDBLK
  5
BE0
330
BD5
100
AcDbEntity
  8
0
100
AcDbBlockEnd
  0
BLOCK
  5
BF9
330
BED
100
AcDbEntity
  8
0
100
AcDbBlockBegin
  2
*D8
 70
     1
 10
0.0
 20
0.0
 30
0.0
  3
*D8
  1

  0
POINT
  5
1001
330
BED
100
AcDbEntity
  8
DEFPOINTS
 62
     0
100
AcDbPoint
 10
354.2364041176
 20
52.428586085
 30
0.0
  0
POINT
  5
1002
330
BED
100
AcDbEntity
  8
DEFPOINTS
 62
     0
100
AcDbPoint
 10
344.2364041176
 20
50.928586085
 30
0.0
  0
POINT
  5
1003
330
BED
100
AcDbEntity
  8
DEFPOINTS
 62
     0
100
AcDbPoint
 10
344.2364041176
 20
33.7258667234
 30
0.0
  0
ENDBLK
  5
BFA
330
BED
100
AcDbEntity
  8
0
100
AcDbBlockEnd
  0
BLOCK
  5
C05
330
BFB
100
AcDbEntity
  8
0
100
AcDbBlockBegin
  2
*D9
 70
     1
 10
0.0
 20
0.0
 30
0.0
  3
*D9
  1

  0
POINT
  5
FE4
330
BFB
100
AcDbEntity
  8
DEFPOINTS
 62
     0
100
AcDbPoint
 10
195.5865416342
 20
124.928590085
 30
0.0
  0
POINT
  5
FE5
330
BFB
100
AcDbEntity
  8
DEFPOINTS
 62
     0
100
AcDbPoint
 10
206.4160706342
 20
99.228589085
 30
0.0
  0
POINT
  5
FE6
330
BFB
100
AcDbEntity
  8
DEFPOINTS
 62
     0
100
AcDbPoint
 10
198.1789931655
 20
99.228589085
 30
0.0
  0
ENDBLK
  5
C06
330
BFB
100
AcDbEntity
  8
0
100
AcDbBlockEnd
  0
BLOCK
  5
C11
330
C07
100
AcDbEntity
  8
0
100
AcDbBlockBegin
  2
*D10
 70
     1
 10
0.0
 20
0.0
 30
0.0
  3
*D10
  1

  0
POINT
  5
FED
330
C07
100
AcDbEntity
  8
DEFPOINTS
 62
     0
100
AcDbPoint
 10
262.5865416342
 20
124.928590085
 30
0.0
  0
POINT
  5
FEE
330
C07
100
AcDbEntity
  8
DEFPOINTS
 62
     0
100
AcDbPoint
 10
275.8865446342
 20
159.928590085
 30
0.0
  0
POINT
  5
FEF
330
C07
100
AcDbEntity
  8
DEFPOINTS
 62
     0
100
AcDbPoint
 10
296.786857926
 20
159.928590085
 30
0.0
  0
ENDBLK
  5
C12
330
C07
100
AcDbEntity
  8
0
100
AcDbBlockEnd
  0
BLOCK
  5
C1D
330
C13
100
AcDbEntity
  8
0
100
AcDbBlockBegin
  2
*D11
 70
     1
 10
0.0
 20
0.0
 30
0.0
  3
*D11
  1

  0
POINT
  5
1AC5
330
C13
100
AcDbEntity
  8
DEFPOINTS
 62
     0
100
AcDbPoint
 10
229.0865416342
 20
178.928590085
 30
0.0
  0
POINT
  5
1AC6
330
C13
100
AcDbEntity
  8
DEFPOINTS
 62
     0
100
AcDbPoint
 10
279.5865416342
 20
139.428590085
 30
0.0
  0
POINT
  5
1AC7
330
C13
100
AcDbEntity
  8
DEFPOINTS
 62
     0
100
AcDbPoint
 10
279.5865416342
 20
218.6650245094
 30
0.0
  0
ENDBLK
  5
C1E
330
C13
100
AcDbEntity
  8
0
100
AcDbBlockEnd
  0
BLOCK
  5
C2A
330
C1F
100
AcDbEntity
  8
0
100
AcDbBlockBegin
  2
*D12
 70
     1
 10
0.0
 20
0.0
 30
0.0
  3
*D12
  1

  0
POINT
  5
1037
330
C1F
100
AcDbEntity
  8
DEFPOINTS
 62
     0
100
AcDbPoint
 10
466.2364091176
 20
115.928590085
 30
0.0
  0
POINT
  5
1038
330
C1F
100
AcDbEntity
  8
DEFPOINTS
 62
     0
100
AcDbPoint
 10
466.2364091176
 20
133.928590085
 30
0.0
  0
POINT
  5
1039
330
C1F
100
AcDbEntity
  8
DEFPOINTS
 62
     0
100
AcDbPoint
 10
483.7867041485
 20
133.928590085
 30
0.0
  0
ENDBLK
  5
C2B
330
C1F
100
AcDbEntity
  8
0
100
AcDbBlockEnd
  0
BLOCK
  5
C36
330
C2C
100
AcDbEntity
  8
0
100
AcDbBlockBegin
  2
*D13
 70
     1
 10
0.0
 20
0.0
 30
0.0
  3
*D13
  1

  0
POINT
  5
1F38
330
C2C
100
AcDbEntity
  8
DEFPOINTS
 62
     0
100
AcDbPoint
 10
439.2364021176
 20
124.928590085
 30
0.0
  0
POINT
  5
1F39
330
C2C
100
AcDbEntity
  8
DEFPOINTS
 62
     0
100
AcDbPoint
 10
466.2364091176
 20
133.928590085
 30
0.0
  0
POINT
  5
1F3A
330
C2C
100
AcDbEntity
  8
DEFPOINTS
 62
     0
100
AcDbPoint
 10
466.2364091176
 20
194.8181850718
 30
0.0
  0
ENDBLK
  5
C37
330
C2C
100
AcDbEntity
  8
0
100
AcDbBlockEnd
  0
BLOCK
  5
C42
330
C38
100
AcDbEntity
  8
0
100
AcDbBlockBegin
  2
*D14
 70
     1
 10
0.0
 20
0.0
 30
0.0
  3
*D14
  1

  0
POINT
  5
1F41
330
C38
100
AcDbEntity
  8
DEFPOINTS
 62
     0
100
AcDbPoint
 10
436.2364021176
 20
134.928590085
 30
0.0
  0
POINT
  5
1F42
330
C38
100
AcDbEntity
  8
DEFPOINTS
 62
     0
100
AcDbPoint
 10
466.2364091176
 20
133.928590085
 30
0.0
  0
POINT
  5
1F43
330
C38
100
AcDbEntity
  8
DEFPOINTS
 62
     0
100
AcDbPoint
 10
466.2364091176
 20
206.7283361736
 30
0.0
  0
ENDBLK
  5
C43
330
C38
100
AcDbEntity
  8
0
100
AcDbBlockEnd
  0
BLOCK
  5
C4E
330
C44
100
AcDbEntity
  8
0
100
AcDbBlockBegin
  2
*D15
 70
     1
 10
0.0
 20
0.0
 30
0.0
  3
*D15
  1

  0
POINT
  5
1B09
330
C44
100
AcDbEntity
  8
DEFPOINTS
 62
     0
100
AcDbPoint
 10
392.2364061176
 20
196.116108085
 30
0.0
  0
POINT
  5
1B0A
330
C44
100
AcDbEntity
  8
DEFPOINTS
 62
     0
100
AcDbPoint
 10
466.2364091176
 20
133.928590085
 30
0.0
  0
POINT
  5
1B0B
330
C44
100
AcDbEntity
  8
DEFPOINTS
 62
     0
100
AcDbPoint
 10
466.2364091176
 20
218.6650245094
 30
0.0
  0
ENDBLK
  5
C4F
330
C44
100
AcDbEntity
  8
0
100
AcDbBlockEnd
  0
BLOCK
  5
C5A
330
C50
100
AcDbEntity
  8
0
100
AcDbBlockBegin
  2
*D16
 70
     1
 10
0.0
 20
0.0
 30
0.0
  3
*D16
  1

  0
POINT
  5
1B12
330
C50
100
AcDbEntity
  8
DEFPOINTS
 62
     0
100
AcDbPoint
 10
392.2364061176
 20
196.116108085
 30
0.0
  0
POINT
  5
1B13
330
C50
100
AcDbEntity
  8
DEFPOINTS
 62
     0
100
AcDbPoint
 10
344.2364041176
 20
168.928590085
 30
0.0
  0
POINT
  5
1B14
330
C50
100
AcDbEntity
  8
DEFPOINTS
 62
     0
100
AcDbPoint
 10
344.2364041176
 20
218.6650245094
 30
0.0
  0
ENDBLK
  5
C5B
330
C50
100
AcDbEntity
  8
0
100
AcDbBlockEnd
  0
BLOCK
  5
C66
330
C5C
100
AcDbEntity
  8
0
100
AcDbBlockBegin
  2
*D17
 70
     1
 10
0.0
 20
0.0
 30
0.0
  3
*D17
  1

  0
POINT
  5
1AEE
330
C5C
100
AcDbEntity
  8
DEFPOINTS
 62
     0
100
AcDbPoint
 10
344.2364041176
 20
168.928590085
 30
0.0
  0
POINT
  5
1AEF
330
C5C
100
AcDbEntity
  8
DEFPOINTS
 62
     0
100
AcDbPoint
 10
466.2364091176
 20
133.928590085
 30
0.0
  0
POINT
  5
1AF0
330
C5C
100
AcDbEntity
  8
DEFPOINTS
 62
     0
100
AcDbPoint
 10
466.2364091176
 20
230.6537651157
 30
0.0
  0
ENDBLK
  5
C67
330
C5C
100
AcDbEntity
  8
0
100
AcDbBlockEnd
  0
BLOCK
  5
1A63
330
1A59
100
AcDbEntity
  8
0
100
AcDbBlockBegin
  2
*D23
 70
     1
 10
0.0
 20
0.0
 30
0.0
  3
*D23
  1

  0
POINT
  5
1A8F
330
1A59
100
AcDbEntity
  8
DEFPOINTS
 62
     0
100
AcDbPoint
 10
146.0865346342
 20
190.728608085
 30
0.0
  0
POINT
  5
1A90
330
1A59
100
AcDbEntity
  8
DEFPOINTS
 62
     0
100
AcDbPoint
 10
144.5865346342
 20
144.228593085
 30
0.0
  0
POINT
  5
1A91
330
1A59
100
AcDbEntity
  8
DEFPOINTS
 62
     0
100
AcDbPoint
 10
162.8879601313
 20
144.228593085
 30
0.0
  0
ENDBLK
  5
1A64
330
1A59
100
AcDbEntity
  8
0
100
AcDbBlockEnd
  0
BLOCK
  5
1A6F
330
1A65
100
AcDbEntity
  8
0
100
AcDbBlockBegin
  2
*D24
 70
     1
 10
0.0
 20
0.0
 30
0.0
  3
*D24
  1

  0
POINT
  5
1ACE
330
1A65
100
AcDbEntity
  8
DEFPOINTS
 62
     0
100
AcDbPoint
 10
97.0865276342
 20
189.728608085
 30
0.0
  0
POINT
  5
1ACF
330
1A65
100
AcDbEntity
  8
DEFPOINTS
 62
     0
100
AcDbPoint
 10
49.0865556342
 20
141.228601085
 30
0.0
  0
POINT
  5
1AD0
330
1A65
100
AcDbEntity
  8
DEFPOINTS
 62
     0
100
AcDbPoint
 10
49.0865556342
 20
206.7283361736
 30
0.0
  0
ENDBLK
  5
1A70
330
1A65
100
AcDbEntity
  8
0
100
AcDbBlockEnd
  0
BLOCK
  5
1A7B
330
1A71
100
AcDbEntity
  8
0
100
AcDbBlockBegin
  2
*D25
 70
     1
 10
0.0
 20
0.0
 30
0.0
  3
*D25
  1

  0
POINT
  5
1AA1
330
1A71
100
AcDbEntity
  8
DEFPOINTS
 62
     0
100
AcDbPoint
 10
97.0865276342
 20
189.728608085
 30
0.0
  0
POINT
  5
1AA2
330
1A71
100
AcDbEntity
  8
DEFPOINTS
 62
     0
100
AcDbPoint
 10
147.0865346342
 20
189.728608085
 30
0.0
  0
POINT
  5
1AA3
330
1A71
100
AcDbEntity
  8
DEFPOINTS
 62
     0
100
AcDbPoint
 10
147.0865346342
 20
206.7283361736
 30
0.0
  0
ENDBLK
  5
1A7C
330
1A71
100
AcDbEntity
  8
0
100
AcDbBlockEnd
  0
BLOCK
  5
1A87
330
1A7D
100
AcDbEntity
  8
0
100
AcDbBlockBegin
  2
*D26
 70
     1
 10
0.0
 20
0.0
 30
0.0
  3
*D26
  1

  0
POINT
  5
1AAA
330
1A7D
100
AcDbEntity
  8
DEFPOINTS
 62
     0
100
AcDbPoint
 10
96.2115276342
 20
163.228593085
 30
0.0
  0
POINT
  5
1AAB
330
1A7D
100
AcDbEntity
  8
DEFPOINTS
 62
     0
100
AcDbPoint
 10
96.2115276342
 20
184.228593085
 30
0.0
  0
POINT
  5
1AAC
330
1A7D
100
AcDbEntity
  8
DEFPOINTS
 62
     0
100
AcDbPoint
 10
72.3920823068
 20
184.228593085
 30
0.0
  0
ENDBLK
  5
1A88
330
1A7D
100
AcDbEntity
  8
0
100
AcDbBlockEnd
  0
ENDSEC
  0
SECTION
  2
ENTITIES
  0
LINE
  5
61C
330
2
100
AcDbEntity
  8
CENTER
100
AcDbLine
 10
39.0865261342
 20
321.5348007276
 30
0.0
 11
288.3296095664
 21
321.5348007276
 31
0.0
  0
LINE
  5
61D
330
2
100
AcDbEntity
  8
0
100
AcDbLine
 10
366.1358851176
 20
52.228586085
 30
0.0
 11
418.3369121176
 21
52.228586085
 31
0.0
  0
LINE
  5
61E
330
2
100
AcDbEntity
  8
CENTER
100
AcDbLine
 10
334.2364041176
 20
99.228581085
 30
0.0
 11
449.2364021176
 21
99.228581085
 31
0.0
  0
LINE
  5
61F
330
2
100
AcDbEntity
  8
0
100
AcDbLine
 10
366.2364251176
 20
54.228585085
 30
0.0
 11
418.2363941176
 21
54.228585085
 31
0.0
  0
LINE
  5
620
330
2
100
AcDbEntity
  8
0
100
AcDbLine
 10
427.4698771176
 20
80.428586085
 30
0.0
 11
357.2364251176
 21
80.428586085
 31
0.0
  0
LINE
  5
621
330
2
100
AcDbEntity
  8
0
100
AcDbLine
 10
427.4698771176
 20
139.428590085
 30
0.0
 11
357.2364251176
 21
139.428590085
 31
0.0
  0
LINE
  5
622
330
2
100
AcDbEntity
  8
0
100
AcDbLine
 10
426.2887621176
 20
56.877126085
 30
0.0
 11
356.2014841176
 21
55.653506085
 31
0.0
  0
LINE
  5
623
330
2
100
AcDbEntity
  8
0
100
AcDbLine
 10
426.2887471176
 20
162.980019085
 30
0.0
 11
356.2015151176
 21
164.203118085
 31
0.0
  0
LINE
  5
624
330
2
100
AcDbEntity
  8
CENTER
100
AcDbLine
 10
334.2364041176
 20
124.928590085
 30
0.0
 11
476.2364091176
 21
124.928590085
 31
0.0
  0
LINE
  5
625
330
2
100
AcDbEntity
  8
0
100
AcDbLine
 10
344.2364041176
 20
168.928590085
 30
0.0
 11
344.2364041176
 21
50.928586085
 31
0.0
  0
LINE
  5
626
330
2
100
AcDbEntity
  8
CENTER
100
AcDbLine
 10
339.2364041176
 20
59.928586085
 30
0.0
 11
359.2364041176
 21
59.928586085
 31
0.0
  0
LINE
  5
627
330
2
100
AcDbEntity
  8
0
100
AcDbLine
 10
354.2364041176
 20
77.428597085
 30
0.0
 11
354.2364041176
 21
52.428586085
 31
0.0
  0
LINE
  5
628
330
2
100
AcDbEntity
  8
0
100
AcDbLine
 10
361.1861551176
 20
54.278827085
 30
0.0
 11
359.7495241176
 21
55.715436085
 31
0.0
  0
LINE
  5
629
330
2
100
AcDbEntity
  8
HIDS
100
AcDbLine
 10
344.2364041176
 20
55.678586085
 30
0.0
 11
354.2364041176
 21
55.678586085
 31
0.0
  0
LINE
  5
62A
330
2
100
AcDbEntity
  8
0
100
AcDbLine
 10
352.7017551176
 20
50.928586085
 30
0.0
 11
344.2364041176
 21
50.928586085
 31
0.0
  0
ARC
  5
62B
330
2
100
AcDbEntity
  8
0
100
AcDbCircle
 10
356.2364251176
 20
53.653827085
 30
0.0
 40
2.0
100
AcDbArc
 50
91.000641
 51
180.0
  0
ARC
  5
62C
330
2
100
AcDbEntity
  8
0
100
AcDbCircle
 10
357.8118431176
 20
52.681166085
 30
0.0
 40
3.0
100
AcDbArc
 50
91.000458
 51
165.000198
  0
ARC
  5
62D
330
2
100
AcDbEntity
  8
0
100
AcDbCircle
 10
352.7017551176
 20
52.928586085
 30
0.0
 40
2.0
100
AcDbArc
 50
270.0
 51
345.0
  0
ARC
  5
62E
330
2
100
AcDbEntity
  8
0
100
AcDbCircle
 10
352.7364041176
 20
52.428586085
 30
0.0
 40
1.5
100
AcDbArc
 50
270.0
 51
0.0
  0
LINE
  5
62F
330
2
100
AcDbEntity
  8
0
100
AcDbLine
 10
354.6336031176
 20
52.410946085
 30
0.0
 11
354.9140541176
 21
53.457616085
 31
0.0
  0
LINE
  5
630
330
2
100
AcDbEntity
  8
HIDS
100
AcDbLine
 10
344.2364041176
 20
64.178586085
 30
0.0
 11
354.2364041176
 21
64.178586085
 31
0.0
  0
ARC
  5
631
330
2
100
AcDbEntity
  8
0
100
AcDbCircle
 10
366.2364061176
 20
57.228585085
 30
0.0
 40
3.0
100
AcDbArc
 50
208.811905
 51
270.0
  0
ARC
  5
632
330
2
100
AcDbEntity
  8
0
100
AcDbCircle
 10
366.1358851176
 20
59.228585085
 30
0.0
 40
7.0
100
AcDbArc
 50
225.000107
 51
270.0
  0
ARC
  5
633
330
2
100
AcDbEntity
  8
0
100
AcDbCircle
 10
357.2364251176
 20
77.428605085
 30
0.0
 40
3.0
100
AcDbArc
 50
90.0
 51
180.0
  0
LINE
  5
634
330
2
100
AcDbEntity
  8
0
100
AcDbLine
 10
354.2364041176
 20
166.928574085
 30
0.0
 11
354.2364041176
 21
142.428574085
 31
0.0
  0
ARC
  5
635
330
2
100
AcDbEntity
  8
0
100
AcDbCircle
 10
357.2364041176
 20
142.428590085
 30
0.0
 40
3.0
100
AcDbArc
 50
180.0
 51
270.0
  0
ARC
  5
636
330
2
100
AcDbEntity
  8
0
100
AcDbCircle
 10
357.8119751176
 20
167.175492085
 30
0.0
 40
3.0
100
AcDbArc
 50
195.000504
 51
269.000488
  0
ARC
  5
637
330
2
100
AcDbEntity
  8
0
100
AcDbCircle
 10
356.2363851176
 20
166.202821085
 30
0.0
 40
2.0
100
AcDbArc
 50
180.0
 51
269.00061
  0
LINE
  5
638
330
2
100
AcDbEntity
  8
HIDS
100
AcDbLine
 10
344.2364041176
 20
164.178590085
 30
0.0
 11
354.2364041176
 21
164.178590085
 31
0.0
  0
LINE
  5
639
330
2
100
AcDbEntity
  8
HIDS
100
AcDbLine
 10
344.2364041176
 20
155.678590085
 30
0.0
 11
354.2364041176
 21
155.678590085
 31
0.0
  0
LINE
  5
63A
330
2
100
AcDbEntity
  8
CENTER
100
AcDbLine
 10
339.2364041176
 20
159.928590085
 30
0.0
 11
359.2364041176
 21
159.928590085
 31
0.0
  0
LINE
  5
63B
330
2
100
AcDbEntity
  8
0
100
AcDbLine
 10
352.7017551176
 20
168.928590085
 30
0.0
 11
344.2364041176
 21
168.928590085
 31
0.0
  0
ARC
  5
63C
330
2
100
AcDbEntity
  8
0
100
AcDbCircle
 10
352.7017631176
 20
166.928574085
 30
0.0
 40
2.0
100
AcDbArc
 50
15.00047
 51
90.0
  0
LINE
  5
63D
330
2
100
AcDbEntity
  8
0
100
AcDbLine
 10
354.6336151176
 20
167.446229085
 30
0.0
 11
354.9142141176
 21
166.398988085
 31
0.0
  0
ARC
  5
63E
330
2
100
AcDbEntity
  8
0
100
AcDbCircle
 10
352.2364151176
 20
166.928574085
 30
0.0
 40
2.0
100
AcDbArc
 50
0.0
 51
90.0
  0
LINE
  5
63F
330
2
100
AcDbEntity
  8
0
100
AcDbLine
 10
439.2364021176
 20
73.128075085
 30
0.0
 11
439.2364021176
 21
115.928590085
 31
0.0
  0
ARC
  5
640
330
2
100
AcDbEntity
  8
0
100
AcDbCircle
 10
392.2364061176
 20
99.228581085
 30
0.0
 40
45.0
100
AcDbArc
 50
325.307892
 51
20.459709
  0
ARC
  5
641
330
2
100
AcDbEntity
  8
0
100
AcDbCircle
 10
431.2364251176
 20
99.428590085
 30
0.0
 40
2.0
100
AcDbArc
 50
90.0
 51
180.0
  0
LINE
  5
642
330
2
100
AcDbEntity
  8
0
100
AcDbLine
 10
429.2364021176
 20
159.980470085
 30
0.0
 11
429.2364021176
 21
59.876666085
 31
0.0
  0
LINE
  5
643
330
2
100
AcDbEntity
  8
CENTER
100
AcDbLine
 10
392.2364061176
 20
42.228586085
 30
0.0
 11
392.2364061176
 21
196.116108085
 31
0.0
  0
ARC
  5
644
330
2
100
AcDbEntity
  8
0
100
AcDbCircle
 10
418.3369121176
 20
59.228585085
 30
0.0
 40
7.0
100
AcDbArc
 50
270.0
 51
315.0
  0
ARC
  5
645
330
2
100
AcDbEntity
  8
0
100
AcDbCircle
 10
418.2364021176
 20
57.228585085
 30
0.0
 40
3.0
100
AcDbArc
 50
270.0
 51
351.56189
  0
ARC
  5
646
330
2
100
AcDbEntity
  8
0
100
AcDbCircle
 10
432.2364021176
 20
73.128068085
 30
0.0
 40
7.0
100
AcDbArc
 50
315.000118
 51
0.0
  0
LINE
  5
647
330
2
100
AcDbEntity
  8
0
100
AcDbLine
 10
437.1861551176
 20
68.178336085
 30
0.0
 11
429.2364021176
 21
60.228585085
 31
0.0
  0
ARC
  5
648
330
2
100
AcDbEntity
  8
0
100
AcDbCircle
 10
426.2364021176
 20
59.876666085
 30
0.0
 40
3.0
100
AcDbArc
 50
271.000313
 51
0.0
  0
LINE
  5
649
330
2
100
AcDbEntity
  8
0
100
AcDbLine
 10
423.2866571176
 20
54.278836085
 30
0.0
 11
425.8777751176
 21
56.869965085
 31
0.0
  0
LINE
  5
64A
330
2
100
AcDbEntity
  8
0
100
AcDbLine
 10
442.2364251176
 20
121.928590085
 30
0.0
 11
466.2364091176
 21
121.928590085
 31
0.0
  0
LINE
  5
64B
330
2
100
AcDbEntity
  8
0
100
AcDbLine
 10
442.2364021176
 20
127.928590085
 30
0.0
 11
466.2364091176
 21
127.928590085
 31
0.0
  0
LINE
  5
64C
330
2
100
AcDbEntity
  8
0
100
AcDbLine
 10
436.2364021176
 20
115.928590085
 30
0.0
 11
466.2364091176
 21
115.928590085
 31
0.0
  0
LINE
  5
64D
330
2
100
AcDbEntity
  8
0
100
AcDbLine
 10
436.2364021176
 20
133.928590085
 30
0.0
 11
466.2364091176
 21
133.928590085
 31
0.0
  0
ARC
  5
64E
330
2
100
AcDbEntity
  8
0
100
AcDbCircle
 10
442.2364021176
 20
124.928590085
 30
0.0
 40
3.0
100
AcDbArc
 50
90.0
 51
270.0
  0
LINE
  5
64F
330
2
100
AcDbEntity
  8
0
100
AcDbLine
 10
436.2364021176
 20
134.928590085
 30
0.0
 11
436.2364021176
 21
114.928590085
 31
0.0
  0
LINE
  5
650
330
2
100
AcDbEntity
  8
0
100
AcDbLine
 10
434.2364021176
 20
147.428574085
 30
0.0
 11
434.2364021176
 21
102.428574085
 31
0.0
  0
LINE
  5
651
330
2
100
AcDbEntity
  8
0
100
AcDbLine
 10
431.2364251176
 20
101.428582085
 30
0.0
 11
433.2364021176
 21
101.428582085
 31
0.0
  0
ARC
  5
652
330
2
100
AcDbEntity
  8
0
100
AcDbCircle
 10
433.2364021176
 20
102.428574085
 30
0.0
 40
1.0
100
AcDbArc
 50
270.0
 51
0.0
  0
LINE
  5
653
330
2
100
AcDbEntity
  8
0
100
AcDbLine
 10
434.2364021176
 20
114.928590085
 30
0.0
 11
436.2364021176
 21
114.928590085
 31
0.0
  0
LINE
  5
654
330
2
100
AcDbEntity
  8
0
100
AcDbLine
 10
434.2364021176
 20
134.928590085
 30
0.0
 11
436.2364021176
 21
134.928590085
 31
0.0
  0
LINE
  5
655
330
2
100
AcDbEntity
  8
0
100
AcDbLine
 10
431.2364251176
 20
148.428590085
 30
0.0
 11
433.2364021176
 21
148.428590085
 31
0.0
  0
ARC
  5
656
330
2
100
AcDbEntity
  8
0
100
AcDbCircle
 10
431.2364021176
 20
150.428590085
 30
0.0
 40
2.0
100
AcDbArc
 50
180.0
 51
270.0
  0
ARC
  5
657
330
2
100
AcDbEntity
  8
0
100
AcDbCircle
 10
433.2364021176
 20
147.428574085
 30
0.0
 40
1.0
100
AcDbArc
 50
0.0
 51
90.0
  0
ARC
  5
658
330
2
100
AcDbEntity
  8
0
100
AcDbCircle
 10
426.2364251176
 20
159.980470085
 30
0.0
 40
3.0
100
AcDbArc
 50
0.0
 51
89.000359
  0
LINE
  5
659
330
2
100
AcDbEntity
  8
0
100
AcDbLine
 10
466.2364091176
 20
115.928590085
 30
0.0
 11
466.2364091176
 21
133.928590085
 31
0.0
  0
LINE
  5
65B
330
2
100
AcDbEntity
  8
0
100
AcDbLine
 10
686.8497119461
 20
64.819276085
 30
0.0
 11
615.8497119461
 21
64.819276085
 31
0.0
  0
LINE
  5
65C
330
2
100
AcDbEntity
  8
0
100
AcDbLine
 10
686.8497119461
 20
133.637887085
 30
0.0
 11
616.3497119461
 21
133.637887085
 31
0.0
  0
LINE
  5
65D
330
2
100
AcDbEntity
  8
0
100
AcDbLine
 10
616.3497119461
 20
54.228585085
 30
0.0
 11
686.8497119461
 21
54.228585085
 31
0.0
  0
LINE
  5
65E
330
2
100
AcDbEntity
  8
0
100
AcDbLine
 10
686.8497119461
 20
144.228585085
 30
0.0
 11
607.5071219461
 21
144.228585085
 31
0.0
  0
LINE
  5
65F
330
2
100
AcDbEntity
  8
CENTER
100
AcDbLine
 10
753.8497119461
 20
99.228581085
 30
0.0
 11
584.8447069461
 21
99.228581085
 31
0.0
  0
LINE
  5
660
330
2
100
AcDbEntity
  8
0
100
AcDbLine
 10
614.3497119461
 20
136.828477085
 30
0.0
 11
614.3497119461
 21
64.228616085
 31
0.0
  0
LINE
  5
661
330
2
100
AcDbEntity
  8
CENTER
100
AcDbLine
 10
563.8497119461
 20
178.928590085
 30
0.0
 11
563.8497119461
 21
40.928586085
 31
0.0
  0
LINE
  5
662
330
2
100
AcDbEntity
  8
0
100
AcDbLine
 10
513.3497269461
 20
80.428586085
 30
0.0
 11
513.3497269461
 21
139.428590085
 31
0.0
  0
LINE
  5
663
330
2
100
AcDbEntity
  8
0
100
AcDbLine
 10
582.1423149461
 20
57.835286085
 30
0.0
 11
597.0912279461
 21
68.321856085
 31
0.0
  0
LINE
  5
664
330
2
100
AcDbEntity
  8
0
100
AcDbLine
 10
603.8497119461
 20
50.928586085
 30
0.0
 11
523.8497269461
 21
50.928586085
 31
0.0
  0
ARC
  5
665
330
2
100
AcDbEntity
  8
0
100
AcDbCircle
 10
548.4286149461
 20
61.928586085
 30
0.0
 40
5.0
100
AcDbArc
 50
234.9505
 51
270.0
  0
LINE
  5
666
330
2
100
AcDbEntity
  8
0
100
AcDbLine
 10
545.5571249461
 20
57.835305085
 30
0.0
 11
513.3497269461
 21
80.428586085
 31
0.0
  0
LINE
  5
667
330
2
100
AcDbEntity
  8
0
100
AcDbLine
 10
514.8730279461
 20
59.282025085
 30
0.0
 11
513.3497269461
 21
80.428586085
 31
0.0
  0
CIRCLE
  5
668
330
2
100
AcDbEntity
  8
0
100
AcDbCircle
 10
523.8497269461
 20
59.928586085
 30
0.0
 40
4.25
  0
ARC
  5
66B
330
2
100
AcDbEntity
  8
0
100
AcDbCircle
 10
523.8497269461
 20
59.928586085
 30
0.0
 40
9.0
100
AcDbArc
 50
184.120102
 51
270.0
  0
LINE
  5
66C
330
2
100
AcDbEntity
  8
0
100
AcDbLine
 10
579.2708239461
 20
56.928586085
 30
0.0
 11
548.4286149461
 21
56.928586085
 31
0.0
  0
ARC
  5
66D
330
2
100
AcDbEntity
  8
0
100
AcDbCircle
 10
579.2708239461
 20
61.928586085
 30
0.0
 40
5.0
100
AcDbArc
 50
270.0
 51
305.049591
  0
LINE
  5
6B3
330
2
100
AcDbEntity
  8
0
100
AcDbLine
 10
599.9626269461
 20
69.228585085
 30
0.0
 11
609.3497119461
 21
69.228585085
 31
0.0
  0
ARC
  5
6B4
330
2
100
AcDbEntity
  8
0
100
AcDbCircle
 10
603.8497119461
 20
59.928586085
 30
0.0
 40
9.0
100
AcDbArc
 50
270.0
 51
355.879913
  0
CIRCLE
  5
6B5
330
2
100
AcDbEntity
  8
0
100
AcDbCircle
 10
603.8497119461
 20
59.928586085
 30
0.0
 40
4.25
  0
ARC
  5
6B8
330
2
100
AcDbEntity
  8
0
100
AcDbCircle
 10
599.9626269461
 20
64.228597085
 30
0.0
 40
5.0
100
AcDbArc
 50
90.0
 51
125.049698
  0
LINE
  5
6B9
330
2
100
AcDbEntity
  8
0
100
AcDbLine
 10
614.3497119461
 20
56.228585085
 30
0.0
 11
614.3497119461
 21
64.228616085
 31
0.0
  0
LINE
  5
6BA
330
2
100
AcDbEntity
  8
0
100
AcDbLine
 10
612.8264269461
 20
59.282025085
 30
0.0
 11
613.3945119461
 21
67.167907085
 31
0.0
  0
ARC
  5
6BB
330
2
100
AcDbEntity
  8
0
100
AcDbCircle
 10
616.3497119461
 20
56.228585085
 30
0.0
 40
2.0
100
AcDbArc
 50
180.0
 51
270.0
  0
ARC
  5
6BC
330
2
100
AcDbEntity
  8
0
100
AcDbCircle
 10
609.3497119461
 20
64.228616085
 30
0.0
 40
5.0
100
AcDbArc
 50
0.0
 51
90.0
  0
LINE
  5
6BD
330
2
100
AcDbEntity
  8
0
100
AcDbLine
 10
582.1423149461
 20
162.021874085
 30
0.0
 11
612.2211109461
 21
140.921777085
 31
0.0
  0
CIRCLE
  5
6BE
330
2
100
AcDbEntity
  8
0
100
AcDbCircle
 10
563.8497119461
 20
124.928590085
 30
0.0
 40
23.5
  0
LINE
  5
6BF
330
2
100
AcDbEntity
  8
0
100
AcDbLine
 10
603.8497119461
 20
168.928590085
 30
0.0
 11
523.8497269461
 21
168.928590085
 31
0.0
  0
LINE
  5
6C0
330
2
100
AcDbEntity
  8
CENTER
100
AcDbLine
 10
597.3497119461
 20
124.928590085
 30
0.0
 11
530.3497119461
 21
124.928590085
 31
0.0
  0
LINE
  5
6C1
330
2
100
AcDbEntity
  8
0
100
AcDbLine
 10
545.5572169461
 20
162.021867085
 30
0.0
 11
513.3497269461
 21
139.428590085
 31
0.0
  0
LINE
  5
6C2
330
2
100
AcDbEntity
  8
0
100
AcDbLine
 10
514.8730279461
 20
160.575219085
 30
0.0
 11
513.3497269461
 21
139.428590085
 31
0.0
  0
ARC
  5
6C3
330
2
100
AcDbEntity
  8
0
100
AcDbCircle
 10
563.8497119461
 20
124.928590085
 30
0.0
 40
9.0
100
AcDbArc
 50
199.471207
 51
160.528793
  0
LINE
  5
6C4
330
2
100
AcDbEntity
  8
0
100
AcDbLine
 10
552.3497269461
 20
127.928590085
 30
0.0
 11
552.3497269461
 21
121.928590085
 31
0.0
  0
LINE
  5
6C5
330
2
100
AcDbEntity
  8
0
100
AcDbLine
 10
558.3497269461
 20
127.928590085
 30
0.0
 11
558.3497269461
 21
121.928590085
 31
0.0
  0
LINE
  5
6C6
330
2
100
AcDbEntity
  8
0
100
AcDbLine
 10
552.3497269461
 20
121.928590085
 30
0.0
 11
558.3497269461
 21
121.928590085
 31
0.0
  0
LINE
  5
6C7
330
2
100
AcDbEntity
  8
0
100
AcDbLine
 10
552.3497269461
 20
127.928590085
 30
0.0
 11
558.3497269461
 21
127.928590085
 31
0.0
  0
ARC
  5
6C8
330
2
100
AcDbEntity
  8
0
100
AcDbCircle
 10
548.4286149461
 20
157.928590085
 30
0.0
 40
5.0
100
AcDbArc
 50
90.0
 51
125.0495
  0
CIRCLE
  5
6C9
330
2
100
AcDbEntity
  8
0
100
AcDbCircle
 10
523.8497269461
 20
159.928590085
 30
0.0
 40
4.25
  0
ARC
  5
6CB
330
2
100
AcDbEntity
  8
0
100
AcDbCircle
 10
523.8497269461
 20
159.928590085
 30
0.0
 40
9.0
100
AcDbArc
 50
90.0
 51
175.879898
  0
LINE
  5
6CD
330
2
100
AcDbEntity
  8
0
100
AcDbLine
 10
548.4286149461
 20
162.928590085
 30
0.0
 11
579.2708239461
 21
162.928590085
 31
0.0
  0
ARC
  5
6CE
330
2
100
AcDbEntity
  8
0
100
AcDbCircle
 10
579.2709159461
 20
157.928590085
 30
0.0
 40
5.0
100
AcDbArc
 50
54.95071
 51
90.0
  0
LINE
  5
6CF
330
2
100
AcDbEntity
  8
0
100
AcDbLine
 10
612.8264269461
 20
160.575219085
 30
0.0
 11
614.0039179461
 21
144.228585085
 31
0.0
  0
ARC
  5
6D0
330
2
100
AcDbEntity
  8
0
100
AcDbCircle
 10
609.3497119461
 20
136.828477085
 30
0.0
 40
5.0
100
AcDbArc
 50
0.0
 51
54.950691
  0
ARC
  5
6D1
330
2
100
AcDbEntity
  8
0
100
AcDbCircle
 10
603.8497119461
 20
159.928590085
 30
0.0
 40
9.0
100
AcDbArc
 50
4.120102
 51
90.0
  0
CIRCLE
  5
6D2
330
2
100
AcDbEntity
  8
0
100
AcDbCircle
 10
603.8497119461
 20
159.928590085
 30
0.0
 40
4.25
  0
LINE
  5
6D3
330
2
100
AcDbEntity
  8
CENTER
100
AcDbLine
 10
597.0497089461
 20
159.928590085
 30
0.0
 11
610.6497149461
 21
159.928590085
 31
0.0
  0
LINE
  5
6D4
330
2
100
AcDbEntity
  8
CENTER
100
AcDbLine
 10
603.8497119461
 20
153.128587085
 30
0.0
 11
603.8497119461
 21
166.728593085
 31
0.0
  0
LINE
  5
6D5
330
2
100
AcDbEntity
  8
0
100
AcDbLine
 10
743.8497119461
 20
141.228593085
 30
0.0
 11
743.8497119461
 21
57.228566085
 31
0.0
  0
LINE
  5
6D6
330
2
100
AcDbEntity
  8
0
100
AcDbLine
 10
696.3497119461
 20
146.228585085
 30
0.0
 11
696.3497119461
 21
52.228586085
 31
0.0
  0
LINE
  5
6D7
330
2
100
AcDbEntity
  8
0
100
AcDbLine
 10
686.8497119461
 20
54.228585085
 30
0.0
 11
686.8497119461
 21
144.228585085
 31
0.0
  0
ARC
  5
6D8
330
2
100
AcDbEntity
  8
0
100
AcDbCircle
 10
738.8497119461
 20
57.228585085
 30
0.0
 40
5.0
100
AcDbArc
 50
270.0
 51
0.0
  0
LINE
  5
6D9
330
2
100
AcDbEntity
  8
0
100
AcDbLine
 10
738.8497119461
 20
52.228586085
 30
0.0
 11
696.3497119461
 21
52.228586085
 31
0.0
  0
LINE
  5
6DA
330
2
100
AcDbEntity
  8
0
100
AcDbLine
 10
696.3497119461
 20
70.228585085
 30
0.0
 11
740.3247179461
 21
70.228585085
 31
0.0
  0
LINE
  5
6DB
330
2
100
AcDbEntity
  8
0
100
AcDbLine
 10
696.3497119461
 20
54.228585085
 30
0.0
 11
686.8497119461
 21
54.228585085
 31
0.0
  0
LINE
  5
6DC
330
2
100
AcDbEntity
  8
0
100
AcDbLine
 10
686.8497119461
 20
64.819276085
 30
0.0
 11
696.3497119461
 21
64.819276085
 31
0.0
  0
ARC
  5
6DD
330
2
100
AcDbEntity
  8
0
100
AcDbCircle
 10
738.8497119461
 20
141.228616085
 30
0.0
 40
5.0
100
AcDbArc
 50
0.0
 51
90.0
  0
LINE
  5
6E2
330
2
100
AcDbEntity
  8
0
100
AcDbLine
 10
738.8497119461
 20
146.228585085
 30
0.0
 11
696.3497119461
 21
146.228585085
 31
0.0
  0
LINE
  5
6E3
330
2
100
AcDbEntity
  8
0
100
AcDbLine
 10
696.3497119461
 20
128.228585085
 30
0.0
 11
740.3247179461
 21
128.228585085
 31
0.0
  0
LINE
  5
6E4
330
2
100
AcDbEntity
  8
0
100
AcDbLine
 10
686.8497119461
 20
133.637887085
 30
0.0
 11
696.3497119461
 21
133.637887085
 31
0.0
  0
LINE
  5
6E5
330
2
100
AcDbEntity
  8
0
100
AcDbLine
 10
696.3497119461
 20
144.228585085
 30
0.0
 11
686.8497119461
 21
144.228585085
 31
0.0
  0
LINE
  5
6EC
330
2
100
AcDbEntity
  8
0
100
AcDbLine
 10
176.5596556342
 20
276.5348007276
 30
0.0
 11
106.0865416342
 21
276.5348007276
 31
0.0
  0
LINE
  5
6ED
330
2
100
AcDbEntity
  8
0
100
AcDbLine
 10
106.0865416342
 20
292.5348007276
 30
0.0
 11
176.7033936342
 21
292.5348007276
 31
0.0
  0
LINE
  5
6EE
330
2
100
AcDbEntity
  8
0
100
AcDbLine
 10
106.0865416342
 20
350.5348007276
 30
0.0
 11
185.4290706342
 21
350.5348007276
 31
0.0
  0
LINE
  5
6EF
330
2
100
AcDbEntity
  8
0
100
AcDbLine
 10
176.4287346342
 20
366.5348007276
 30
0.0
 11
106.0865416342
 21
366.5348007276
 31
0.0
  0
LINE
  5
6F0
330
2
100
AcDbEntity
  8
0
100
AcDbLine
 10
277.4117366342
 20
356.5871537276
 30
0.0
 11
279.5865266342
 21
273.5348007276
 31
0.0
  0
LINE
  5
6F1
330
2
100
AcDbEntity
  8
0
100
AcDbLine
 10
185.4290706342
 20
348.5348007276
 30
0.0
 11
185.4290706342
 21
285.0698047276
 31
0.0
  0
LINE
  5
6F2
330
2
100
AcDbEntity
  8
0
100
AcDbLine
 10
246.0865266342
 20
353.5348007276
 30
0.0
 11
246.0865266342
 21
285.5348007276
 31
0.0
  0
LINE
  5
6F3
330
2
100
AcDbEntity
  8
0
100
AcDbLine
 10
212.0865416342
 20
353.5348007276
 30
0.0
 11
212.0865416342
 21
285.5348007276
 31
0.0
  0
LINE
  5
6F4
330
2
100
AcDbEntity
  8
0
100
AcDbLine
 10
177.3296136342
 20
321.5348007276
 30
0.0
 11
178.5865416342
 21
273.5348007276
 31
0.0
  0
LINE
  5
6F5
330
2
100
AcDbEntity
  8
CENTER
100
AcDbLine
 10
229.0865416342
 20
405.5348007276
 30
0.0
 11
229.0865416342
 21
263.5348007276
 31
0.0
  0
LINE
  5
6F6
330
2
100
AcDbEntity
  8
0
100
AcDbLine
 10
251.5865416342
 20
363.5348007276
 30
0.0
 11
206.5865416342
 21
363.5348007276
 31
0.0
  0
LINE
  5
6F7
330
2
100
AcDbEntity
  8
0
100
AcDbLine
 10
275.4124076342
 20
358.5348007276
 30
0.0
 11
180.5348446342
 21
358.5348007276
 31
0.0
  0
LINE
  5
6F8
330
2
100
AcDbEntity
  8
0
100
AcDbLine
 10
237.5715266342
 20
395.5348007276
 30
0.0
 11
237.5715266342
 21
368.5348007276
 31
0.0
  0
LINE
  5
6F9
330
2
100
AcDbEntity
  8
0
100
AcDbLine
 10
240.5865266342
 20
395.5348007276
 30
0.0
 11
240.5865266342
 21
368.5348007276
 31
0.0
  0
LINE
  5
6FA
330
2
100
AcDbEntity
  8
0
100
AcDbLine
 10
220.0865416342
 20
365.5348007276
 30
0.0
 11
220.0865416342
 21
395.5348007276
 31
0.0
  0
LINE
  5
6FB
330
2
100
AcDbEntity
  8
0
100
AcDbLine
 10
240.5865266342
 20
395.5348007276
 30
0.0
 11
220.0865416342
 21
395.5348007276
 31
0.0
  0
ARC
  5
6FC
330
2
100
AcDbEntity
  8
0
100
AcDbCircle
 10
275.4124076342
 20
356.5348007276
 30
0.0
 40
2.0
100
AcDbArc
 50
1.5
 51
90.0
  0
ARC
  5
6FD
330
2
100
AcDbEntity
  8
0
100
AcDbCircle
 10
254.5865266342
 20
360.5348007276
 30
0.0
 40
2.0
100
AcDbArc
 50
180.0
 51
270.0
  0
ARC
  5
6FE
330
2
100
AcDbEntity
  8
0
100
AcDbCircle
 10
251.5865416342
 20
362.5348007276
 30
0.0
 40
1.0
100
AcDbArc
 50
0.0
 51
90.0
  0
LINE
  5
6FF
330
2
100
AcDbEntity
  8
0
100
AcDbLine
 10
252.5865416342
 20
362.5348007276
 30
0.0
 11
252.5865416342
 21
360.5348007276
 31
0.0
  0
LINE
  5
700
330
2
100
AcDbEntity
  8
0
100
AcDbLine
 10
219.0865416342
 20
365.5348007276
 30
0.0
 11
239.0865266342
 21
365.5348007276
 31
0.0
  0
LINE
  5
701
330
2
100
AcDbEntity
  8
0
100
AcDbLine
 10
238.0865266342
 20
365.5348007276
 30
0.0
 11
238.0865266342
 21
368.5348007276
 31
0.0
  0
LINE
  5
702
330
2
100
AcDbEntity
  8
0
100
AcDbLine
 10
240.5865266342
 20
368.5348007276
 30
0.0
 11
237.5715266342
 21
368.5348007276
 31
0.0
  0
LINE
  5
703
330
2
100
AcDbEntity
  8
0
100
AcDbLine
 10
239.0865266342
 20
363.5348007276
 30
0.0
 11
239.0865266342
 21
365.5348007276
 31
0.0
  0
LINE
  5
704
330
2
100
AcDbEntity
  8
0
100
AcDbLine
 10
219.0865416342
 20
363.5348007276
 30
0.0
 11
219.0865416342
 21
365.5348007276
 31
0.0
  0
ARC
  5
705
330
2
100
AcDbEntity
  8
0
100
AcDbCircle
 10
203.5865416342
 20
360.5348007276
 30
0.0
 40
2.0
100
AcDbArc
 50
270.0
 51
0.0
  0
ARC
  5
706
330
2
100
AcDbEntity
  8
0
100
AcDbCircle
 10
206.5865416342
 20
362.5348007276
 30
0.0
 40
1.0
100
AcDbArc
 50
90.0
 51
180.0
  0
LINE
  5
707
330
2
100
AcDbEntity
  8
0
100
AcDbLine
 10
205.5865416342
 20
362.5348007276
 30
0.0
 11
205.5865416342
 21
360.5348007276
 31
0.0
  0
ARC
  5
708
330
2
100
AcDbEntity
  8
0
100
AcDbCircle
 10
180.5348446342
 20
360.5348007276
 30
0.0
 40
2.0
100
AcDbArc
 50
181.5
 51
270.0
  0
ARC
  5
709
330
2
100
AcDbEntity
  8
0
100
AcDbCircle
 10
176.4287346342
 20
364.5348007276
 30
0.0
 40
2.0
100
AcDbArc
 50
1.5
 51
90.0
  0
LINE
  5
70A
330
2
100
AcDbEntity
  8
0
100
AcDbLine
 10
178.4280326342
 20
364.5871537276
 30
0.0
 11
178.5355156342
 21
360.4824477276
 31
0.0
  0
LINE
  5
70B
330
2
100
AcDbEntity
  8
0
100
AcDbLine
 10
178.3771296342
 20
350.5375477276
 30
0.0
 11
178.5355156342
 21
356.5871537276
 31
0.0
  0
ARC
  5
70C
330
2
100
AcDbEntity
  8
0
100
AcDbCircle
 10
180.5348446342
 20
356.5348007276
 30
0.0
 40
2.0
100
AcDbArc
 50
90.0
 51
178.5
  0
LINE
  5
70D
330
2
100
AcDbEntity
  8
0
100
AcDbLine
 10
180.3777396342
 20
283.5348007276
 30
0.0
 11
277.3763516342
 21
283.5348007276
 31
0.0
  0
LINE
  5
70E
330
2
100
AcDbEntity
  8
0
100
AcDbLine
 10
178.5865416342
 20
273.5348007276
 30
0.0
 11
279.5865266342
 21
273.5348007276
 31
0.0
  0
LINE
  5
70F
330
2
100
AcDbEntity
  8
CENTER
100
AcDbLine
 10
269.0865266342
 20
268.5348007276
 30
0.0
 11
269.0865266342
 21
288.5348007276
 31
0.0
  0
ARC
  5
710
330
2
100
AcDbEntity
  8
0
100
AcDbCircle
 10
248.0865266342
 20
285.5348007276
 30
0.0
 40
2.0
100
AcDbArc
 50
180.0
 51
270.0
  0
LINE
  5
711
330
2
100
AcDbEntity
  8
HIDS
100
AcDbLine
 10
273.3365266342
 20
283.5348007276
 30
0.0
 11
273.3365266342
 21
273.5348007276
 31
0.0
  0
ARC
  5
712
330
2
100
AcDbEntity
  8
0
100
AcDbCircle
 10
277.3763516342
 20
281.5348007276
 30
0.0
 40
2.0
100
AcDbArc
 50
1.5
 51
90.0
  0
LINE
  5
713
330
2
100
AcDbEntity
  8
HIDS
100
AcDbLine
 10
264.8365266342
 20
283.5348007276
 30
0.0
 11
264.8365266342
 21
273.5348007276
 31
0.0
  0
LINE
  5
714
330
2
100
AcDbEntity
  8
0
100
AcDbLine
 10
211.9446046342
 20
284.7948107276
 30
0.0
 11
246.2284636342
 21
284.7948107276
 31
0.0
  0
ARC
  5
715
330
2
100
AcDbEntity
  8
0
100
AcDbCircle
 10
210.0865416342
 20
285.5348007276
 30
0.0
 40
2.0
100
AcDbArc
 50
270.0
 51
0.0
  0
LINE
  5
716
330
2
100
AcDbEntity
  8
CENTER
100
AcDbLine
 10
189.0865416342
 20
268.5348007276
 30
0.0
 11
189.0865416342
 21
288.5348007276
 31
0.0
  0
LINE
  5
717
330
2
100
AcDbEntity
  8
HIDS
100
AcDbLine
 10
193.3365416342
 20
283.5348007276
 30
0.0
 11
193.3365416342
 21
273.5348007276
 31
0.0
  0
LINE
  5
718
330
2
100
AcDbEntity
  8
HIDS
100
AcDbLine
 10
184.8365416342
 20
283.5348007276
 30
0.0
 11
184.8365416342
 21
273.5348007276
 31
0.0
  0
ARC
  5
719
330
2
100
AcDbEntity
  8
0
100
AcDbCircle
 10
180.3777396342
 20
281.5348007276
 30
0.0
 40
2.0
100
AcDbArc
 50
90.0
 51
181.5
  0
ARC
  5
71A
330
2
100
AcDbEntity
  8
0
100
AcDbCircle
 10
176.5596556342
 20
274.5348007276
 30
0.0
 40
2.0
100
AcDbArc
 50
1.5
 51
90.0
  0
LINE
  5
71B
330
2
100
AcDbEntity
  8
0
100
AcDbLine
 10
49.0865416342
 20
363.5348007276
 30
0.0
 11
49.0865106342
 21
279.5348007276
 31
0.0
  0
LINE
  5
71C
330
2
100
AcDbEntity
  8
0
100
AcDbLine
 10
96.5865416342
 20
368.5348007276
 30
0.0
 11
96.5865416342
 21
274.5348007276
 31
0.0
  0
ARC
  5
721
330
2
100
AcDbEntity
  8
0
100
AcDbCircle
 10
54.0865416342
 20
363.5348007276
 30
0.0
 40
5.0
100
AcDbArc
 50
90.0
 51
180.0
  0
LINE
  5
722
330
2
100
AcDbEntity
  8
0
100
AcDbLine
 10
54.0865106342
 20
368.5348007276
 30
0.0
 11
96.5865416342
 21
368.5348007276
 31
0.0
  0
LINE
  5
723
330
2
100
AcDbEntity
  8
0
100
AcDbLine
 10
96.5865416342
 20
350.5348007276
 30
0.0
 11
52.6115046342
 21
350.5348007276
 31
0.0
  0
LINE
  5
724
330
2
100
AcDbEntity
  8
0
100
AcDbLine
 10
106.0865416342
 20
346.5348007276
 30
0.0
 11
106.0865416342
 21
366.5348007276
 31
0.0
  0
LINE
  5
725
330
2
100
AcDbEntity
  8
0
100
AcDbLine
 10
96.5865416342
 20
366.5348007276
 30
0.0
 11
106.0865416342
 21
366.5348007276
 31
0.0
  0
LINE
  5
726
330
2
100
AcDbEntity
  8
0
100
AcDbLine
 10
106.0865416342
 20
350.5348007276
 30
0.0
 11
96.5865416342
 21
350.5348007276
 31
0.0
  0
ARC
  5
72C
330
2
100
AcDbEntity
  8
0
100
AcDbCircle
 10
54.0865106342
 20
279.5348007276
 30
0.0
 40
5.0
100
AcDbArc
 50
180.0
 51
270.0
  0
LINE
  5
72D
330
2
100
AcDbEntity
  8
0
100
AcDbLine
 10
54.0865106342
 20
274.5348007276
 30
0.0
 11
96.5865416342
 21
274.5348007276
 31
0.0
  0
LINE
  5
72E
330
2
100
AcDbEntity
  8
0
100
AcDbLine
 10
96.5865416342
 20
292.5348007276
 30
0.0
 11
52.6115046342
 21
292.5348007276
 31
0.0
  0
LINE
  5
72F
330
2
100
AcDbEntity
  8
0
100
AcDbLine
 10
106.0865416342
 20
276.5348007276
 30
0.0
 11
106.0865416342
 21
296.5348007276
 31
0.0
  0
LINE
  5
735
330
2
100
AcDbEntity
  8
0
100
AcDbLine
 10
101.0865416342
 20
282.2649647276
 30
0.0
 11
101.0865416342
 21
277.7649647276
 31
0.0
  0
LINE
  5
736
330
2
100
AcDbEntity
  8
0
100
AcDbLine
 10
99.5865416342
 20
282.2649647276
 30
0.0
 11
99.5865416342
 21
277.7649647276
 31
0.0
  0
LINE
  5
737
330
2
100
AcDbEntity
  8
0
100
AcDbLine
 10
98.0865416342
 20
282.2649647276
 30
0.0
 11
98.0865416342
 21
277.2493697276
 31
0.0
  0
ARC
  5
738
330
2
100
AcDbEntity
  8
0
100
AcDbCircle
 10
96.5865416342
 20
282.2649647276
 30
0.0
 40
3.0
100
AcDbArc
 50
0.0
 51
90.0
  0
ARC
  5
739
330
2
100
AcDbEntity
  8
0
100
AcDbCircle
 10
96.5865416342
 20
282.2649647276
 30
0.0
 40
4.5
100
AcDbArc
 50
0.0
 51
90.0
  0
LINE
  5
73A
330
2
100
AcDbEntity
  8
0
100
AcDbLine
 10
106.0865416342
 20
292.5348007276
 30
0.0
 11
96.5865416342
 21
292.5348007276
 31
0.0
  0
ARC
  5
73B
330
2
100
AcDbEntity
  8
0
100
AcDbCircle
 10
96.5865416342
 20
282.2649647276
 30
0.0
 40
1.5
100
AcDbArc
 50
0.0
 51
90.0
  0
LINE
  5
73C
330
2
100
AcDbEntity
  8
HOJO
100
AcDbLine
 10
98.0865416342
 20
277.2649647276
 30
0.0
 11
99.5865416342
 21
277.7649647276
 31
0.0
  0
LINE
  5
73D
330
2
100
AcDbEntity
  8
0
100
AcDbLine
 10
96.5865416342
 20
276.5348007276
 30
0.0
 11
106.0865416342
 21
276.5348007276
 31
0.0
  0
LINE
  5
73E
330
2
100
AcDbEntity
  8
HOJO
100
AcDbLine
 10
99.5865416342
 20
278.2649647276
 30
0.0
 11
101.0865416342
 21
277.7649647276
 31
0.0
  0
LINE
  5
74B
330
2
100
AcDbEntity
  8
CENTER
100
AcDbLine
 10
517.0497239461
 20
159.928590085
 30
0.0
 11
530.6497299461
 21
159.928590085
 31
0.0
  0
LINE
  5
74C
330
2
100
AcDbEntity
  8
CENTER
100
AcDbLine
 10
523.8497269461
 20
153.128587085
 30
0.0
 11
523.8497269461
 21
166.728593085
 31
0.0
  0
LINE
  5
74D
330
2
100
AcDbEntity
  8
CENTER
100
AcDbLine
 10
517.0497239461
 20
59.928586085
 30
0.0
 11
530.6497299461
 21
59.928586085
 31
0.0
  0
LINE
  5
74E
330
2
100
AcDbEntity
  8
CENTER
100
AcDbLine
 10
523.8497269461
 20
53.128583085
 30
0.0
 11
523.8497269461
 21
66.728589085
 31
0.0
  0
LINE
  5
74F
330
2
100
AcDbEntity
  8
CENTER
100
AcDbLine
 10
597.0497089461
 20
59.928586085
 30
0.0
 11
610.6497149461
 21
59.928586085
 31
0.0
  0
LINE
  5
750
330
2
100
AcDbEntity
  8
CENTER
100
AcDbLine
 10
603.8497119461
 20
53.128583085
 30
0.0
 11
603.8497119461
 21
66.728589085
 31
0.0
  0
LINE
  5
7FB
330
2
100
AcDbEntity
  8
0
100
AcDbLine
 10
203.0865416342
 20
164.928590085
 30
0.0
 11
255.0865416342
 21
164.928590085
 31
0.0
  0
LINE
  5
7FC
330
2
100
AcDbEntity
  8
0
100
AcDbLine
 10
255.0865416342
 20
54.928590085
 30
0.0
 11
203.0865416342
 21
54.928590085
 31
0.0
  0
CIRCLE
  5
7FD
330
2
100
AcDbEntity
  8
0
100
AcDbCircle
 10
229.0865416342
 20
124.928590085
 30
0.0
 40
23.5
  0
LINE
  5
7FE
330
2
100
AcDbEntity
  8
CENTER
100
AcDbLine
 10
195.5865416342
 20
124.928590085
 30
0.0
 11
262.5865416342
 21
124.928590085
 31
0.0
  0
LINE
  5
7FF
330
2
100
AcDbEntity
  8
0
100
AcDbLine
 10
189.0865416342
 20
168.928590085
 30
0.0
 11
269.0865416342
 21
168.928590085
 31
0.0
  0
LINE
  5
800
330
2
100
AcDbEntity
  8
0
100
AcDbLine
 10
189.0865416342
 20
50.928590085
 30
0.0
 11
269.0865416342
 21
50.928590085
 31
0.0
  0
ARC
  5
801
330
2
100
AcDbEntity
  8
0
100
AcDbCircle
 10
229.0865416342
 20
109.928590085
 30
0.0
 40
50.5
100
AcDbArc
 50
18.1038
 51
161.896194
  0
ARC
  5
802
330
2
100
AcDbEntity
  8
0
100
AcDbCircle
 10
229.0865416342
 20
109.928590085
 30
0.0
 40
50.5
100
AcDbArc
 50
198.103806
 51
341.89621
  0
LINE
  5
803
330
2
100
AcDbEntity
  8
CENTER
100
AcDbLine
 10
189.0865416342
 20
153.128587085
 30
0.0
 11
189.0865416342
 21
166.728593085
 31
0.0
  0
LINE
  5
804
330
2
100
AcDbEntity
  8
0
100
AcDbLine
 10
180.1097356342
 20
160.575219085
 30
0.0
 11
178.5865416342
 21
139.428590085
 31
0.0
  0
CIRCLE
  5
805
330
2
100
AcDbEntity
  8
0
100
AcDbCircle
 10
189.0865416342
 20
159.928590085
 30
0.0
 40
4.25
  0
ARC
  5
806
330
2
100
AcDbEntity
  8
0
100
AcDbCircle
 10
189.0865416342
 20
159.928590085
 30
0.0
 40
9.0
100
AcDbArc
 50
265.879333
 51
0.0
  0
LINE
  5
809
330
2
100
AcDbEntity
  8
CENTER
100
AcDbLine
 10
39.0865431342
 20
99.228589085
 30
0.0
 11
206.4160706342
 21
99.228589085
 31
0.0
  0
LINE
  5
80A
330
2
100
AcDbEntity
  8
0
100
AcDbLine
 10
106.0865346342
 20
144.228593085
 30
0.0
 11
178.9322456342
 21
144.228593085
 31
0.0
  0
LINE
  5
80B
330
2
100
AcDbEntity
  8
0
100
AcDbLine
 10
176.5865416342
 20
54.228590085
 30
0.0
 11
106.0865346342
 21
54.228590085
 31
0.0
  0
LINE
  5
80C
330
2
100
AcDbEntity
  8
0
100
AcDbLine
 10
106.0865346342
 20
133.637887085
 30
0.0
 11
176.5865416342
 21
133.637887085
 31
0.0
  0
LINE
  5
80D
330
2
100
AcDbEntity
  8
0
100
AcDbLine
 10
106.0865346342
 20
64.819280085
 30
0.0
 11
177.0865416342
 21
64.819280085
 31
0.0
  0
LINE
  5
80E
330
2
100
AcDbEntity
  8
0
100
AcDbLine
 10
96.5865346342
 20
146.228593085
 30
0.0
 11
96.5865346342
 21
52.228590085
 31
0.0
  0
LINE
  5
80F
330
2
100
AcDbEntity
  8
0
100
AcDbLine
 10
49.0865556342
 20
141.228601085
 30
0.0
 11
49.0865306342
 21
57.228580085
 31
0.0
  0
LINE
  5
810
330
2
100
AcDbEntity
  8
0
100
AcDbLine
 10
106.0865346342
 20
54.228590085
 30
0.0
 11
106.0865346342
 21
144.228593085
 31
0.0
  0
LINE
  5
811
330
2
100
AcDbEntity
  8
0
100
AcDbLine
 10
96.5865346342
 20
70.228589085
 30
0.0
 11
52.6115316342
 21
70.228589085
 31
0.0
  0
LINE
  5
812
330
2
100
AcDbEntity
  8
0
100
AcDbLine
 10
54.0865306342
 20
52.228590085
 30
0.0
 11
96.5865346342
 21
52.228590085
 31
0.0
  0
ARC
  5
813
330
2
100
AcDbEntity
  8
0
100
AcDbCircle
 10
54.0865296342
 20
57.228590085
 30
0.0
 40
5.0
100
AcDbArc
 50
180.0
 51
270.0
  0
LINE
  5
814
330
2
100
AcDbEntity
  8
0
100
AcDbLine
 10
96.5865346342
 20
54.228590085
 30
0.0
 11
106.0865346342
 21
54.228590085
 31
0.0
  0
LINE
  5
815
330
2
100
AcDbEntity
  8
0
100
AcDbLine
 10
106.0865346342
 20
64.819289085
 30
0.0
 11
96.5865346342
 21
64.819289085
 31
0.0
  0
LINE
  5
816
330
2
100
AcDbEntity
  8
0
100
AcDbLine
 10
96.5865346342
 20
128.228593085
 30
0.0
 11
52.6115326342
 21
128.228593085
 31
0.0
  0
LINE
  5
817
330
2
100
AcDbEntity
  8
0
100
AcDbLine
 10
54.0865306342
 20
146.228593085
 30
0.0
 11
96.5865346342
 21
146.228593085
 31
0.0
  0
ARC
  5
818
330
2
100
AcDbEntity
  8
0
100
AcDbCircle
 10
54.0865556342
 20
141.228624085
 30
0.0
 40
5.0
100
AcDbArc
 50
90.0
 51
180.0
  0
LINE
  5
819
330
2
100
AcDbEntity
  8
0
100
AcDbLine
 10
98.0865346342
 20
127.757989085
 30
0.0
 11
98.0865346342
 21
122.742387085
 31
0.0
  0
LINE
  5
81A
330
2
100
AcDbEntity
  8
0
100
AcDbLine
 10
99.5865346342
 20
127.757989085
 30
0.0
 11
99.5865346342
 21
123.257989085
 31
0.0
  0
LINE
  5
81B
330
2
100
AcDbEntity
  8
0
100
AcDbLine
 10
101.0865346342
 20
127.757989085
 30
0.0
 11
101.0865346342
 21
123.257989085
 31
0.0
  0
LINE
  5
81C
330
2
100
AcDbEntity
  8
HOJO
100
AcDbLine
 10
98.0865346342
 20
122.757989085
 30
0.0
 11
99.5865346342
 21
123.257989085
 31
0.0
  0
LINE
  5
81D
330
2
100
AcDbEntity
  8
HOJO
100
AcDbLine
 10
99.5865346342
 20
123.757989085
 30
0.0
 11
101.0865346342
 21
123.257989085
 31
0.0
  0
LINE
  5
81E
330
2
100
AcDbEntity
  8
0
100
AcDbLine
 10
96.5865346342
 20
144.228593085
 30
0.0
 11
106.0865346342
 21
144.228593085
 31
0.0
  0
LINE
  5
81F
330
2
100
AcDbEntity
  8
0
100
AcDbLine
 10
106.0865346342
 20
133.637887085
 30
0.0
 11
96.5865346342
 21
133.637887085
 31
0.0
  0
ARC
  5
821
330
2
100
AcDbEntity
  8
0
100
AcDbCircle
 10
96.5865346342
 20
127.757989085
 30
0.0
 40
3.0
100
AcDbArc
 50
0.0
 51
90.0
  0
ARC
  5
822
330
2
100
AcDbEntity
  8
0
100
AcDbCircle
 10
96.5865346342
 20
127.757989085
 30
0.0
 40
1.5
100
AcDbArc
 50
0.0
 51
90.0
  0
ARC
  5
823
330
2
100
AcDbEntity
  8
0
100
AcDbCircle
 10
96.5865346342
 20
127.757989085
 30
0.0
 40
4.5
100
AcDbArc
 50
0.0
 51
90.0
  0
LINE
  5
82B
330
2
100
AcDbEntity
  8
0
100
AcDbLine
 10
181.0865416342
 20
125.620782085
 30
0.0
 11
181.0865416342
 21
94.236070085
 31
0.0
  0
LINE
  5
82C
330
2
100
AcDbEntity
  8
0
100
AcDbLine
 10
178.5865416342
 20
139.428590085
 30
0.0
 11
178.5865416342
 21
80.428579085
 31
0.0
  0
LINE
  5
82D
330
2
100
AcDbEntity
  8
CENTER
100
AcDbLine
 10
189.0865416342
 20
53.128587085
 30
0.0
 11
189.0865416342
 21
66.728593085
 31
0.0
  0
ARC
  5
82E
330
2
100
AcDbEntity
  8
0
100
AcDbCircle
 10
183.5865416342
 20
64.228620085
 30
0.0
 40
5.0
100
AcDbArc
 50
143.994797
 51
180.0
  0
LINE
  5
82F
330
2
100
AcDbEntity
  8
0
100
AcDbLine
 10
180.1097356342
 20
59.282029085
 30
0.0
 11
178.5865416342
 21
80.428590085
 31
0.0
  0
ARC
  5
830
330
2
100
AcDbEntity
  8
0
100
AcDbCircle
 10
189.0865416342
 20
59.928590085
 30
0.0
 40
9.0
100
AcDbArc
 50
0.0
 51
94.120163
  0
LINE
  5
831
330
2
100
AcDbEntity
  8
CENTER
100
AcDbLine
 10
182.2865386342
 20
59.928590085
 30
0.0
 11
195.8865446342
 21
59.928590085
 31
0.0
  0
CIRCLE
  5
832
330
2
100
AcDbEntity
  8
0
100
AcDbCircle
 10
189.0865416342
 20
59.928590085
 30
0.0
 40
4.25
  0
ARC
  5
833
330
2
100
AcDbEntity
  8
0
100
AcDbCircle
 10
176.5865416342
 20
56.228590085
 30
0.0
 40
2.0
100
AcDbArc
 50
270.0
 51
0.0
  0
ARC
  5
834
330
2
100
AcDbEntity
  8
0
100
AcDbCircle
 10
189.0865416342
 20
59.928590085
 30
0.0
 40
9.0
100
AcDbArc
 50
184.120102
 51
270.0
  0
LINE
  5
835
330
2
100
AcDbEntity
  8
0
100
AcDbLine
 10
178.5865416342
 20
56.228590085
 30
0.0
 11
178.5865416342
 21
64.228620085
 31
0.0
  0
ARC
  5
836
330
2
100
AcDbEntity
  8
0
100
AcDbCircle
 10
203.0865416342
 20
59.928590085
 30
0.0
 40
5.0
100
AcDbArc
 50
180.0
 51
270.0
  0
LINE
  5
837
330
2
100
AcDbEntity
  8
0
100
AcDbLine
 10
183.0935456342
 20
73.533170085
 30
0.0
 11
181.0864356342
 21
94.236554085
 31
0.0
  0
ARC
  5
838
330
2
100
AcDbEntity
  8
0
100
AcDbCircle
 10
188.0806366342
 20
73.892410085
 30
0.0
 40
5.0
100
AcDbArc
 50
184.120499
 51
274.120209
  0
LINE
  5
839
330
2
100
AcDbEntity
  8
0
100
AcDbLine
 10
183.0935456342
 20
146.324052085
 30
0.0
 11
181.0865416342
 21
125.620950085
 31
0.0
  0
ARC
  5
83A
330
2
100
AcDbEntity
  8
0
100
AcDbCircle
 10
188.0806366342
 20
145.964769085
 30
0.0
 40
5.0
100
AcDbArc
 50
85.879799
 51
175.879501
  0
LINE
  5
83B
330
2
100
AcDbEntity
  8
CENTER
100
AcDbLine
 10
182.2865386342
 20
159.928590085
 30
0.0
 11
195.8865446342
 21
159.928590085
 31
0.0
  0
ARC
  5
83C
330
2
100
AcDbEntity
  8
0
100
AcDbCircle
 10
189.0865416342
 20
159.928590085
 30
0.0
 40
9.0
100
AcDbArc
 50
90.0
 51
175.879898
  0
ARC
  5
83D
330
2
100
AcDbEntity
  8
0
100
AcDbCircle
 10
203.0865416342
 20
159.928590085
 30
0.0
 40
5.0
100
AcDbArc
 50
90.0
 51
180.0
  0
CIRCLE
  5
83E
330
2
100
AcDbEntity
  8
0
100
AcDbCircle
 10
269.0865416342
 20
159.928590085
 30
0.0
 40
4.25
  0
LINE
  5
83F
330
2
100
AcDbEntity
  8
CENTER
100
AcDbLine
 10
269.0865416342
 20
153.128587085
 30
0.0
 11
269.0865416342
 21
166.728593085
 31
0.0
  0
LINE
  5
840
330
2
100
AcDbEntity
  8
0
100
AcDbLine
 10
278.0632416342
 20
160.575219085
 30
0.0
 11
279.5865416342
 21
139.428590085
 31
0.0
  0
LINE
  5
841
330
2
100
AcDbEntity
  8
0
100
AcDbLine
 10
243.0865416342
 20
163.997392085
 30
0.0
 11
243.0865416342
 21
158.449212085
 31
0.0
  0
LINE
  5
842
330
2
100
AcDbEntity
  8
0
100
AcDbLine
 10
215.0865416342
 20
163.997392085
 30
0.0
 11
215.0865416342
 21
158.449197085
 31
0.0
  0
LINE
  5
843
330
2
100
AcDbEntity
  8
CENTER
100
AcDbLine
 10
229.0865416342
 20
178.928590085
 30
0.0
 11
229.0865416342
 21
40.928590085
 31
0.0
  0
ARC
  5
844
330
2
100
AcDbEntity
  8
0
100
AcDbCircle
 10
269.0865416342
 20
159.928590085
 30
0.0
 40
9.0
100
AcDbArc
 50
180.0
 51
274.120697
  0
LINE
  5
845
330
2
100
AcDbEntity
  8
0
100
AcDbLine
 10
279.5865416342
 20
80.428590085
 30
0.0
 11
279.5865416342
 21
139.428590085
 31
0.0
  0
LINE
  5
846
330
2
100
AcDbEntity
  8
0
100
AcDbLine
 10
277.0865416342
 20
125.620950085
 30
0.0
 11
277.0865416342
 21
94.236554085
 31
0.0
  0
LINE
  5
847
330
2
100
AcDbEntity
  8
0
100
AcDbLine
 10
215.0865416342
 20
61.407979085
 30
0.0
 11
215.0865416342
 21
56.133960085
 31
0.0
  0
LINE
  5
848
330
2
100
AcDbEntity
  8
0
100
AcDbLine
 10
243.0865416342
 20
61.407979085
 30
0.0
 11
243.0865416342
 21
56.133960085
 31
0.0
  0
LINE
  5
889
330
2
100
AcDbEntity
  8
CENTER
100
AcDbLine
 10
269.0865416342
 20
53.128587085
 30
0.0
 11
269.0865416342
 21
66.728593085
 31
0.0
  0
LINE
  5
88A
330
2
100
AcDbEntity
  8
0
100
AcDbLine
 10
278.0632416342
 20
59.282029085
 30
0.0
 11
279.5865416342
 21
80.428590085
 31
0.0
  0
ARC
  5
88B
330
2
100
AcDbEntity
  8
0
100
AcDbCircle
 10
269.0865416342
 20
59.928590085
 30
0.0
 40
9.0
100
AcDbArc
 50
85.879837
 51
180.0
  0
LINE
  5
88C
330
2
100
AcDbEntity
  8
CENTER
100
AcDbLine
 10
262.2865386342
 20
59.928590085
 30
0.0
 11
275.8865446342
 21
59.928590085
 31
0.0
  0
ARC
  5
88D
330
2
100
AcDbEntity
  8
0
100
AcDbCircle
 10
269.0865416342
 20
59.928590085
 30
0.0
 40
9.0
100
AcDbArc
 50
270.0
 51
355.879913
  0
ARC
  5
88E
330
2
100
AcDbEntity
  8
0
100
AcDbCircle
 10
255.0865416342
 20
59.928590085
 30
0.0
 40
5.0
100
AcDbArc
 50
270.0
 51
0.0
  0
CIRCLE
  5
88F
330
2
100
AcDbEntity
  8
0
100
AcDbCircle
 10
269.0865416342
 20
59.928590085
 30
0.0
 40
4.25
  0
ARC
  5
890
330
2
100
AcDbEntity
  8
0
100
AcDbCircle
 10
270.0924476342
 20
73.892410085
 30
0.0
 40
5.0
100
AcDbArc
 50
265.879791
 51
355.879486
  0
LINE
  5
891
330
2
100
AcDbEntity
  8
0
100
AcDbLine
 10
275.0794466342
 20
73.533170085
 30
0.0
 11
277.0866486342
 21
94.236554085
 31
0.0
  0
LINE
  5
892
330
2
100
AcDbEntity
  8
HIDS
100
AcDbLine
 10
234.5865416342
 20
121.928613085
 30
0.0
 11
234.5865416342
 21
127.928613085
 31
0.0
  0
LINE
  5
893
330
2
100
AcDbEntity
  8
HIDS
100
AcDbLine
 10
240.5865416342
 20
121.928628085
 30
0.0
 11
240.5865416342
 21
127.928628085
 31
0.0
  0
ARC
  5
894
330
2
100
AcDbEntity
  8
HIDS
100
AcDbCircle
 10
229.0865416342
 20
124.928590085
 30
0.0
 40
9.0
100
AcDbArc
 50
19.47121
 51
340.528809
  0
LINE
  5
895
330
2
100
AcDbEntity
  8
HIDS
100
AcDbLine
 10
240.5865416342
 20
121.928628085
 30
0.0
 11
234.5865416342
 21
121.928613085
 31
0.0
  0
LINE
  5
896
330
2
100
AcDbEntity
  8
HIDS
100
AcDbLine
 10
240.5865416342
 20
127.928628085
 30
0.0
 11
234.5865416342
 21
127.928613085
 31
0.0
  0
LINE
  5
897
330
2
100
AcDbEntity
  8
0
100
AcDbLine
 10
275.0794466342
 20
146.324052085
 30
0.0
 11
277.0865416342
 21
125.620950085
 31
0.0
  0
ARC
  5
898
330
2
100
AcDbEntity
  8
0
100
AcDbCircle
 10
270.0924476342
 20
145.964769085
 30
0.0
 40
5.0
100
AcDbArc
 50
4.120544
 51
94.120201
  0
LINE
  5
899
330
2
100
AcDbEntity
  8
CENTER
100
AcDbLine
 10
262.2865386342
 20
159.928590085
 30
0.0
 11
275.8865446342
 21
159.928590085
 31
0.0
  0
ARC
  5
89A
330
2
100
AcDbEntity
  8
0
100
AcDbCircle
 10
269.0865416342
 20
159.928590085
 30
0.0
 40
9.0
100
AcDbArc
 50
4.120065
 51
90.0
  0
ARC
  5
89B
330
2
100
AcDbEntity
  8
0
100
AcDbCircle
 10
255.0865416342
 20
159.928590085
 30
0.0
 40
5.0
100
AcDbArc
 50
0.0
 51
90.0
  0
TEXT
  5
8B3
330
2
100
AcDbEntity
  8
TITLE
100
AcDbText
 10
320.7308543305
 20
380.051682776
 30
0.0
 40
5.0
  1
HFMN-18L-10~240-T90K
 41
0.8
100
AcDbText
  0
TEXT
  5
8B4
330
2
100
AcDbEntity
  8
TITLE
100
AcDbText
 10
320.7308543305
 20
372.051682776
 30
0.0
 40
5.0
  1
HFMN-18L-10~240-T90WK
 41
0.8
100
AcDbText
  0
TEXT
  5
8B5
330
2
100
AcDbEntity
  8
TITLE
100
AcDbText
 10
320.7308543305
 20
388.051682776
 30
0.0
 40
5.0
  1
HFMN-18L-10~240-T60WK
 41
0.8
100
AcDbText
  0
TEXT
  5
8B6
330
2
100
AcDbEntity
  8
TITLE
100
AcDbText
 10
320.7308543305
 20
396.051682776
 30
0.0
 40
5.0
  1
HFMN-18L-80~240-T60K
 41
0.8
100
AcDbText
  0
TEXT
  5
8B7
330
2
100
AcDbEntity
  8
TITLE
100
AcDbText
 10
320.7308543305
 20
404.051682776
 30
0.0
 40
5.0
  1
HFMN-18L-160~240-T40WK
 41
0.8
100
AcDbText
  0
TEXT
  5
8B8
330
2
100
AcDbEntity
  8
TITLE
100
AcDbText
 10
320.7308543305
 20
412.051682776
 30
0.0
 40
5.0
  1
HFMN-18L-160~240-T40K
 41
0.8
100
AcDbText
  0
TEXT
  5
8B9
330
2
100
AcDbEntity
  8
TITLE
100
AcDbText
 10
413.061385707
 20
388.051682776
 30
0.0
 40
5.0
  1
HFMN-18L-10~240-S60WK
 41
0.8
100
AcDbText
  0
TEXT
  5
8BA
330
2
100
AcDbEntity
  8
TITLE
100
AcDbText
 10
413.061385707
 20
372.051682776
 30
0.0
 40
5.0
  1
HFMN-18L-10~240-S90WK
 41
0.8
100
AcDbText
  0
TEXT
  5
8BB
330
2
100
AcDbEntity
  8
TITLE
100
AcDbText
 10
413.061385707
 20
380.051682776
 30
0.0
 40
5.0
  1
HFMN-18L-10~240-S90K
 41
0.8
100
AcDbText
  0
TEXT
  5
8BC
330
2
100
AcDbEntity
  8
TITLE
100
AcDbText
 10
413.061385707
 20
404.051682776
 30
0.0
 40
5.0
  1
HFMN-18L-160~240-S40WK
 41
0.8
100
AcDbText
  0
TEXT
  5
8BD
330
2
100
AcDbEntity
  8
TITLE
100
AcDbText
 10
413.061385707
 20
396.051682776
 30
0.0
 40
5.0
  1
HFMN-18L-10~240-S60K
 41
0.8
100
AcDbText
  0
TEXT
  5
8BE
330
2
100
AcDbEntity
  8
TITLE
100
AcDbText
 10
413.061385707
 20
412.051682776
 30
0.0
 40
5.0
  1
HFMN-18L-160~240-S40K
 41
0.8
100
AcDbText
  0
LINE
  5
18BA
330
2
100
AcDbEntity
  8
0
100
AcDbLine
 10
145.0863366342
 20
339.0348007276
 30
0.0
 11
145.0863366342
 21
304.0348007276
 31
0.0
  0
LINE
  5
18BB
330
2
100
AcDbEntity
  8
0
100
AcDbLine
 10
147.0865346342
 20
344.5348007276
 30
0.0
 11
147.0863366342
 21
298.5348007276
 31
0.0
  0
LINE
  5
18BC
330
2
100
AcDbEntity
  8
CENTER
100
AcDbLine
 10
122.0865346342
 20
291.4911937464
 30
0.0
 11
122.0865346342
 21
351.5784077088
 31
0.0
  0
LINE
  5
18BD
330
2
100
AcDbEntity
  8
0
100
AcDbLine
 10
99.0864276342
 20
339.0348007276
 30
0.0
 11
99.0864276342
 21
304.0348007276
 31
0.0
  0
LINE
  5
18BE
330
2
100
AcDbEntity
  8
0
100
AcDbLine
 10
97.0864276342
 20
298.5348007276
 30
0.0
 11
97.0864276342
 21
344.5348007276
 31
0.0
  0
LINE
  5
1924
330
2
100
AcDbEntity
  8
0
100
AcDbLine
 10
145.0863366342
 20
296.5348007276
 30
0.0
 11
147.0863366342
 21
298.5348007276
 31
0.0
  0
LINE
  5
1925
330
2
100
AcDbEntity
  8
0
100
AcDbLine
 10
147.0863366342
 20
298.5348007276
 30
0.0
 11
145.0863366342
 21
296.5348007276
 31
0.0
  0
ARC
  5
1926
330
2
100
AcDbEntity
  8
0
100
AcDbCircle
 10
145.6162346342
 20
298.0050087276
 30
0.0
 40
1.742199999999999
100
AcDbArc
 50
89.9986903345
 51
180.0013096655
  0
LINE
  5
1927
330
2
100
AcDbEntity
  8
0
100
AcDbLine
 10
139.5863366342
 20
300.0347087276
 30
0.0
 11
139.5863366342
 21
296.5348007276
 31
0.0
  0
CIRCLE
  5
1928
330
2
100
AcDbEntity
  8
0
100
AcDbCircle
 10
143.5865346342
 20
300.0347087276
 30
0.0
 40
3.500000000000028
  0
ARC
  5
1929
330
2
100
AcDbEntity
  8
0
100
AcDbCircle
 10
141.5568346342
 20
298.0050087276
 30
0.0
 40
1.742199999999999
100
AcDbArc
 50
359.9986903345
 51
90.0013096655
  0
LINE
  5
192A
330
2
100
AcDbEntity
  8
0
100
AcDbLine
 10
104.5864276342
 20
300.0347087276
 30
0.0
 11
104.5864276342
 21
296.5348007276
 31
0.0
  0
ARC
  5
192B
330
2
100
AcDbEntity
  8
0
100
AcDbCircle
 10
102.6161276342
 20
298.0050087276
 30
0.0
 40
1.742199999999999
100
AcDbArc
 50
89.9986903345
 51
180.0013096655
  0
LINE
  5
192C
330
2
100
AcDbEntity
  8
0
100
AcDbLine
 10
97.0864276342
 20
298.5348007276
 30
0.0
 11
99.0864276342
 21
296.5348007276
 31
0.0
  0
CIRCLE
  5
192D
330
2
100
AcDbEntity
  8
0
100
AcDbCircle
 10
100.5864276342
 20
300.0347087276
 30
0.0
 40
3.500000000000028
  0
ARC
  5
192E
330
2
100
AcDbEntity
  8
0
100
AcDbCircle
 10
98.5567276342
 20
298.0050087276
 30
0.0
 40
1.742199999999999
100
AcDbArc
 50
359.9986903345
 51
90.0013096655
  0
LINE
  5
192F
330
2
100
AcDbEntity
  8
0
100
AcDbLine
 10
99.0864276342
 20
296.5348007276
 30
0.0
 11
145.0863366342
 21
296.5348007276
 31
0.0
  0
ARC
  5
1930
330
2
100
AcDbEntity
  8
0
100
AcDbCircle
 10
100.5864276342
 20
300.0347087276
 30
0.0
 40
2.049999999999998
100
AcDbArc
 50
261.938039916
 51
270.0
  0
ARC
  5
1931
330
2
100
AcDbEntity
  8
0
100
AcDbCircle
 10
100.5864276342
 20
300.0347087276
 30
0.0
 40
2.049999999999998
100
AcDbArc
 50
270.0
 51
278.061960084
  0
ARC
  5
1932
330
2
100
AcDbEntity
  8
0
100
AcDbCircle
 10
143.5865346342
 20
300.0347087276
 30
0.0
 40
2.049999999999998
100
AcDbArc
 50
261.938039916
 51
270.0
  0
ARC
  5
1933
330
2
100
AcDbEntity
  8
0
100
AcDbCircle
 10
143.5865346342
 20
300.0347087276
 30
0.0
 40
2.049999999999998
100
AcDbArc
 50
270.0
 51
278.061960084
  0
LINE
  5
1935
330
2
100
AcDbEntity
  8
0
100
AcDbLine
 10
139.5863366342
 20
298.5348007276
 30
0.0
 11
104.5864276342
 21
298.5348007276
 31
0.0
  0
ARC
  5
1936
330
2
100
AcDbEntity
  8
0
100
AcDbCircle
 10
100.5864276342
 20
300.0347087276
 30
0.0
 40
4.0
100
AcDbArc
 50
0.0
 51
90.0
  0
ARC
  5
1937
330
2
100
AcDbEntity
  8
0
100
AcDbCircle
 10
102.6161276342
 20
302.0644087276
 30
0.0
 40
1.742199999999999
100
AcDbArc
 50
179.9986903345
 51
270.0013096655
  0
ARC
  5
1938
330
2
100
AcDbEntity
  8
0
100
AcDbCircle
 10
100.5864276342
 20
300.0347087276
 30
0.0
 40
2.049999999999998
100
AcDbArc
 50
0.0
 51
8.061960084
  0
ARC
  5
1939
330
2
100
AcDbEntity
  8
0
100
AcDbCircle
 10
100.5864276342
 20
300.0347087276
 30
0.0
 40
2.049999999999998
100
AcDbArc
 50
90.0
 51
98.061960084
  0
ARC
  5
193A
330
2
100
AcDbEntity
  8
0
100
AcDbCircle
 10
100.5864276342
 20
300.0347087276
 30
0.0
 40
2.049999999999998
100
AcDbArc
 50
81.938039916
 51
90.0
  0
ARC
  5
193B
330
2
100
AcDbEntity
  8
0
100
AcDbCircle
 10
100.5864276342
 20
300.0347087276
 30
0.0
 40
2.049999999999998
100
AcDbArc
 50
351.938039916
 51
0.0
  0
ARC
  5
193C
330
2
100
AcDbEntity
  8
0
100
AcDbCircle
 10
100.5864276342
 20
300.0347087276
 30
0.0
 40
2.049999999999998
100
AcDbArc
 50
171.938039916
 51
180.0
  0
ARC
  5
193D
330
2
100
AcDbEntity
  8
0
100
AcDbCircle
 10
100.5864276342
 20
300.0347087276
 30
0.0
 40
2.049999999999998
100
AcDbArc
 50
180.0
 51
188.061960084
  0
ARC
  5
193E
330
2
100
AcDbEntity
  8
0
100
AcDbCircle
 10
98.5567276342
 20
302.0644087276
 30
0.0
 40
1.742199999999999
100
AcDbArc
 50
269.9986903345
 51
0.0013096655
  0
LINE
  5
193F
330
2
100
AcDbEntity
  8
0
100
AcDbLine
 10
100.5864276342
 20
304.0348007276
 30
0.0
 11
97.0864276342
 21
304.0348007276
 31
0.0
  0
ARC
  5
1940
330
2
100
AcDbEntity
  8
0
100
AcDbCircle
 10
141.5568346342
 20
302.0644087276
 30
0.0
 40
1.742199999999999
100
AcDbArc
 50
269.9986903345
 51
0.0013096655
  0
ARC
  5
1941
330
2
100
AcDbEntity
  8
0
100
AcDbCircle
 10
143.5865346342
 20
300.0347087276
 30
0.0
 40
4.0
100
AcDbArc
 50
90.0
 51
180.0
  0
ARC
  5
1942
330
2
100
AcDbEntity
  8
0
100
AcDbCircle
 10
143.5865346342
 20
300.0347087276
 30
0.0
 40
2.049999999999998
100
AcDbArc
 50
171.938039916
 51
180.0
  0
ARC
  5
1943
330
2
100
AcDbEntity
  8
0
100
AcDbCircle
 10
143.5865346342
 20
300.0347087276
 30
0.0
 40
2.049999999999998
100
AcDbArc
 50
180.0
 51
188.061960084
  0
ARC
  5
1944
330
2
100
AcDbEntity
  8
0
100
AcDbCircle
 10
145.6162346342
 20
302.0644087276
 30
0.0
 40
1.742199999999999
100
AcDbArc
 50
179.9986903345
 51
270.0013096655
  0
ARC
  5
1945
330
2
100
AcDbEntity
  8
0
100
AcDbCircle
 10
143.5865346342
 20
300.0347087276
 30
0.0
 40
2.049999999999998
100
AcDbArc
 50
0.0
 51
8.061960084
  0
LINE
  5
1946
330
2
100
AcDbEntity
  8
0
100
AcDbLine
 10
143.5863366342
 20
304.0348007276
 30
0.0
 11
147.0863366342
 21
304.0348007276
 31
0.0
  0
ARC
  5
1947
330
2
100
AcDbEntity
  8
0
100
AcDbCircle
 10
143.5865346342
 20
300.0347087276
 30
0.0
 40
2.049999999999998
100
AcDbArc
 50
90.0
 51
98.061960084
  0
ARC
  5
1948
330
2
100
AcDbEntity
  8
0
100
AcDbCircle
 10
143.5865346342
 20
300.0347087276
 30
0.0
 40
2.049999999999998
100
AcDbArc
 50
81.938039916
 51
90.0
  0
ARC
  5
1949
330
2
100
AcDbEntity
  8
0
100
AcDbCircle
 10
143.5865346342
 20
300.0347087276
 30
0.0
 40
2.049999999999998
100
AcDbArc
 50
351.938039916
 51
0.0
  0
LINE
  5
194A
330
2
100
AcDbEntity
  8
0
100
AcDbLine
 10
99.0864276342
 20
346.5348007276
 30
0.0
 11
145.0863366342
 21
346.5348007276
 31
0.0
  0
LINE
  5
194B
330
2
100
AcDbEntity
  8
0
100
AcDbLine
 10
139.5863366342
 20
344.5348007276
 30
0.0
 11
104.5864276342
 21
344.5348007276
 31
0.0
  0
CIRCLE
  5
194C
330
2
100
AcDbEntity
  8
0
100
AcDbCircle
 10
100.5864276342
 20
343.0348007276
 30
0.0
 40
3.500000000000028
  0
ARC
  5
194D
330
2
100
AcDbEntity
  8
0
100
AcDbCircle
 10
100.5864276342
 20
343.0348007276
 30
0.0
 40
4.0
100
AcDbArc
 50
270.0
 51
0.0
  0
LINE
  5
194E
330
2
100
AcDbEntity
  8
0
100
AcDbLine
 10
100.5864276342
 20
339.0348007276
 30
0.0
 11
97.0864276342
 21
339.0348007276
 31
0.0
  0
ARC
  5
194F
330
2
100
AcDbEntity
  8
0
100
AcDbCircle
 10
100.5864276342
 20
343.0348007276
 30
0.0
 40
2.049999999999998
100
AcDbArc
 50
90.0
 51
98.061960084
  0
ARC
  5
1950
330
2
100
AcDbEntity
  8
0
100
AcDbCircle
 10
100.5864276342
 20
343.0348007276
 30
0.0
 40
2.049999999999998
100
AcDbArc
 50
81.938039916
 51
90.0
  0
LINE
  5
1951
330
2
100
AcDbEntity
  8
0
100
AcDbLine
 10
97.0864276342
 20
344.5348007276
 30
0.0
 11
99.0864276342
 21
346.5348007276
 31
0.0
  0
LINE
  5
1952
330
2
100
AcDbEntity
  8
0
100
AcDbLine
 10
97.0864276342
 20
344.5348007276
 30
0.0
 11
99.0864276342
 21
346.5348007276
 31
0.0
  0
ARC
  5
1953
330
2
100
AcDbEntity
  8
0
100
AcDbCircle
 10
102.6161276342
 20
341.0051007276
 30
0.0
 40
1.742199999999999
100
AcDbArc
 50
89.9986903345
 51
180.0013096655
  0
ARC
  5
1954
330
2
100
AcDbEntity
  8
0
100
AcDbCircle
 10
100.5864276342
 20
343.0348007276
 30
0.0
 40
2.049999999999998
100
AcDbArc
 50
351.938039916
 51
0.0
  0
ARC
  5
1955
330
2
100
AcDbEntity
  8
0
100
AcDbCircle
 10
100.5864276342
 20
343.0348007276
 30
0.0
 40
2.049999999999998
100
AcDbArc
 50
0.0
 51
8.061960084
  0
ARC
  5
1956
330
2
100
AcDbEntity
  8
0
100
AcDbCircle
 10
100.5864276342
 20
343.0348007276
 30
0.0
 40
2.049999999999998
100
AcDbArc
 50
261.938039916
 51
270.0
  0
ARC
  5
1957
330
2
100
AcDbEntity
  8
0
100
AcDbCircle
 10
100.5864276342
 20
343.0348007276
 30
0.0
 40
2.049999999999998
100
AcDbArc
 50
270.0
 51
278.061960084
  0
ARC
  5
1958
330
2
100
AcDbEntity
  8
0
100
AcDbCircle
 10
100.5864276342
 20
343.0348007276
 30
0.0
 40
2.049999999999998
100
AcDbArc
 50
180.0
 51
188.061960084
  0
ARC
  5
1959
330
2
100
AcDbEntity
  8
0
100
AcDbCircle
 10
100.5864276342
 20
343.0348007276
 30
0.0
 40
2.049999999999998
100
AcDbArc
 50
171.938039916
 51
180.0
  0
ARC
  5
195A
330
2
100
AcDbEntity
  8
0
100
AcDbCircle
 10
98.5567276342
 20
341.0051007276
 30
0.0
 40
1.742199999999999
100
AcDbArc
 50
359.9986903345
 51
90.0013096655
  0
ARC
  5
195B
330
2
100
AcDbEntity
  8
0
100
AcDbCircle
 10
98.5567276342
 20
345.0645007276
 30
0.0
 40
1.742199999999999
100
AcDbArc
 50
269.9986903345
 51
0.0013096655
  0
ARC
  5
195C
330
2
100
AcDbEntity
  8
0
100
AcDbCircle
 10
102.6161276342
 20
345.0645007276
 30
0.0
 40
1.742199999999999
100
AcDbArc
 50
179.9986903345
 51
270.0013096655
  0
LINE
  5
195D
330
2
100
AcDbEntity
  8
0
100
AcDbLine
 10
104.5864276342
 20
343.0348007276
 30
0.0
 11
104.5864276342
 21
346.5346167276
 31
0.0
  0
CIRCLE
  5
195E
330
2
100
AcDbEntity
  8
0
100
AcDbCircle
 10
143.5865346342
 20
343.0348007276
 30
0.0
 40
3.500000000000028
  0
ARC
  5
195F
330
2
100
AcDbEntity
  8
0
100
AcDbCircle
 10
143.5865346342
 20
343.0348007276
 30
0.0
 40
4.0
100
AcDbArc
 50
180.0
 51
270.0
  0
ARC
  5
1960
330
2
100
AcDbEntity
  8
0
100
AcDbCircle
 10
141.5568346342
 20
345.0645007276
 30
0.0
 40
1.742199999999999
100
AcDbArc
 50
269.9986903345
 51
0.0013096655
  0
ARC
  5
1961
330
2
100
AcDbEntity
  8
0
100
AcDbCircle
 10
141.5568346342
 20
341.0051007276
 30
0.0
 40
1.742199999999999
100
AcDbArc
 50
359.9986903345
 51
90.0013096655
  0
ARC
  5
1962
330
2
100
AcDbEntity
  8
0
100
AcDbCircle
 10
143.5865346342
 20
343.0348007276
 30
0.0
 40
2.049999999999998
100
AcDbArc
 50
180.0
 51
188.061960084
  0
ARC
  5
1963
330
2
100
AcDbEntity
  8
0
100
AcDbCircle
 10
143.5865346342
 20
343.0348007276
 30
0.0
 40
2.049999999999998
100
AcDbArc
 50
171.938039916
 51
180.0
  0
LINE
  5
1964
330
2
100
AcDbEntity
  8
0
100
AcDbLine
 10
139.5863366342
 20
343.0348007276
 30
0.0
 11
139.5863366342
 21
346.5346167276
 31
0.0
  0
LINE
  5
1965
330
2
100
AcDbEntity
  8
0
100
AcDbLine
 10
143.5863366342
 20
339.0348007276
 30
0.0
 11
147.0863366342
 21
339.0348007276
 31
0.0
  0
LINE
  5
1966
330
2
100
AcDbEntity
  8
0
100
AcDbLine
 10
147.0865346342
 20
344.5348007276
 30
0.0
 11
145.0863366342
 21
346.5348007276
 31
0.0
  0
LINE
  5
1967
330
2
100
AcDbEntity
  8
0
100
AcDbLine
 10
147.0863366342
 20
344.5348007276
 30
0.0
 11
145.0863366342
 21
346.5348007276
 31
0.0
  0
LINE
  5
1968
330
2
100
AcDbEntity
  8
0
100
AcDbLine
 10
147.0863366342
 20
344.5348007276
 30
0.0
 11
145.0863366342
 21
346.5348007276
 31
0.0
  0
ARC
  5
1969
330
2
100
AcDbEntity
  8
0
100
AcDbCircle
 10
143.5865346342
 20
343.0348007276
 30
0.0
 40
2.049999999999998
100
AcDbArc
 50
90.0
 51
98.061960084
  0
ARC
  5
196A
330
2
100
AcDbEntity
  8
0
100
AcDbCircle
 10
143.5865346342
 20
343.0348007276
 30
0.0
 40
2.049999999999998
100
AcDbArc
 50
81.938039916
 51
90.0
  0
ARC
  5
196B
330
2
100
AcDbEntity
  8
0
100
AcDbCircle
 10
145.6162346342
 20
341.0051007276
 30
0.0
 40
1.742199999999999
100
AcDbArc
 50
89.9986903345
 51
180.0013096655
  0
ARC
  5
196C
330
2
100
AcDbEntity
  8
0
100
AcDbCircle
 10
143.5865346342
 20
343.0348007276
 30
0.0
 40
2.049999999999998
100
AcDbArc
 50
351.938039916
 51
0.0
  0
ARC
  5
196D
330
2
100
AcDbEntity
  8
0
100
AcDbCircle
 10
143.5865346342
 20
343.0348007276
 30
0.0
 40
2.049999999999998
100
AcDbArc
 50
0.0
 51
8.061960084
  0
ARC
  5
196E
330
2
100
AcDbEntity
  8
0
100
AcDbCircle
 10
143.5865346342
 20
343.0348007276
 30
0.0
 40
2.049999999999998
100
AcDbArc
 50
261.938039916
 51
270.0
  0
ARC
  5
196F
330
2
100
AcDbEntity
  8
0
100
AcDbCircle
 10
143.5865346342
 20
343.0348007276
 30
0.0
 40
2.049999999999998
100
AcDbArc
 50
270.0
 51
278.061960084
  0
ARC
  5
1970
330
2
100
AcDbEntity
  8
0
100
AcDbCircle
 10
145.6162346342
 20
345.0645007276
 30
0.0
 40
1.742199999999999
100
AcDbArc
 50
179.9986903345
 51
270.0013096655
  0
LINE
  5
1971
330
2
100
AcDbEntity
  8
CENTER
100
AcDbLine
 10
700.8933189273
 20
173.728585085
 30
0.0
 11
640.8061049649
 21
173.728585085
 31
0.0
  0
LINE
  5
1972
330
2
100
AcDbEntity
  8
0
100
AcDbLine
 10
691.0118031301
 20
190.728600085
 30
0.0
 11
650.6876207622
 21
190.728600085
 31
0.0
  0
LINE
  5
1973
330
2
100
AcDbEntity
  8
0
100
AcDbLine
 10
694.3497189461
 20
145.728585085
 30
0.0
 11
647.8497119461
 21
145.728585085
 31
0.0
  0
LINE
  5
1974
330
2
100
AcDbEntity
  8
0
100
AcDbLine
 10
695.8497189461
 20
157.728585085
 30
0.0
 11
645.8497119461
 21
157.728585085
 31
0.0
  0
LINE
  5
1975
330
2
100
AcDbEntity
  8
0
100
AcDbLine
 10
695.8497189461
 20
147.728585085
 30
0.0
 11
645.8497119461
 21
147.728585085
 31
0.0
  0
LINE
  5
1976
330
2
100
AcDbEntity
  8
0
100
AcDbLine
 10
695.8497189461
 20
158.728585085
 30
0.0
 11
645.8497119461
 21
158.728585085
 31
0.0
  0
LINE
  5
1977
330
2
100
AcDbEntity
  8
0
100
AcDbLine
 10
688.3497119461
 20
189.728600085
 30
0.0
 11
653.3497119461
 21
189.728600085
 31
0.0
  0
ARC
  5
1979
330
2
100
AcDbEntity
  8
0
100
AcDbCircle
 10
413.7364061176
 20
181.828608085
 30
0.0
 40
9.0
100
AcDbArc
 50
74.1191499917
 51
105.8808500083
  0
LINE
  5
197A
330
2
100
AcDbEntity
  8
0
100
AcDbLine
 10
372.0743149337
 20
190.728608085
 30
0.0
 11
412.3984973016
 21
190.728608085
 31
0.0
  0
LINE
  5
197B
330
2
100
AcDbEntity
  8
0
100
AcDbLine
 10
409.7364061176
 20
188.228608085
 30
0.0
 11
417.2364061176
 21
188.228608085
 31
0.0
  0
LINE
  5
197C
330
2
100
AcDbEntity
  8
CENTER
100
AcDbLine
 10
362.1927991364
 20
173.728593085
 30
0.0
 11
422.2800130988
 21
173.728593085
 31
0.0
  0
LINE
  5
1983
330
2
100
AcDbEntity
  8
0
100
AcDbLine
 10
367.2364061176
 20
189.728608085
 30
0.0
 11
367.2364061176
 21
164.010547145
 31
0.0
  0
LINE
  5
1986
330
2
100
AcDbEntity
  8
0
100
AcDbLine
 10
374.7364061176
 20
188.228608085
 30
0.0
 11
367.2364061176
 21
188.228608085
 31
0.0
  0
SPLINE
  5
1987
330
2
100
AcDbEntity
  8
0
100
AcDbSpline
210
0.0
220
0.0
230
1.0
 70
     8
 71
     3
 72
    11
 73
     7
 74
     0
 42
0.000000001
 43
0.0000000001
 40
0.0
 40
0.0
 40
0.0
 40
0.0
 40
0.4601364636755307
 40
1.04988694485363
 40
1.713742833862792
 40
2.320347933405154
 40
2.320347933405154
 40
2.320347933405154
 40
2.320347933405173
 10
371.0239061180862
 20
189.3116080850349
 30
0.0
 10
371.046323775194
 20
189.4666315247148
 30
0.0
 10
371.0974738304273
 20
189.8203463426323
 30
0.0
 10
371.5333589919609
 20
190.245074014234
 30
0.0
 10
372.1384097069683
 20
190.4642611941998
 30
0.0
 10
372.5635943311441
 20
190.3952698945892
 30
0.0
 10
372.7661459407952
 20
190.3810496224125
 30
0.0
  0
ARC
  5
1988
330
2
100
AcDbEntity
  8
0
100
AcDbCircle
 10
370.7364061176
 20
181.828608085
 30
0.0
 40
9.0
100
AcDbArc
 50
74.1191499917
 51
105.8808500083
  0
LINE
  5
1989
330
2
100
AcDbEntity
  8
0
100
AcDbLine
 10
367.2364061176
 20
188.228608085
 30
0.0
 11
367.3343422565
 21
189.3480232749
 31
0.0
  0
LINE
  5
198A
330
2
100
AcDbEntity
  8
0
100
AcDbLine
 10
368.2364061176
 20
190.728608085
 30
0.0
 11
367.2364061176
 21
189.728608085
 31
0.0
  0
SPLINE
  5
198B
330
2
100
AcDbEntity
  8
0
100
AcDbSpline
210
0.0
220
0.0
230
1.0
 70
     8
 71
     3
 72
    11
 73
     7
 74
     0
 42
0.000000001
 43
0.0000000001
 40
0.0
 40
0.0
 40
0.0
 40
0.0
 40
0.4601364636755307
 40
1.04988694485363
 40
1.713742833862792
 40
2.320347933405154
 40
2.320347933405154
 40
2.320347933405154
 40
2.320347933405173
 10
370.4489061171762
 20
189.3116080850349
 30
0.0
 10
370.4264884600682
 20
189.4666315247148
 30
0.0
 10
370.3753384048349
 20
189.8203463426323
 30
0.0
 10
369.9394532433014
 20
190.245074014234
 30
0.0
 10
369.3344025282938
 20
190.4642611941998
 30
0.0
 10
368.9092179041181
 20
190.3952698945892
 30
0.0
 10
368.706666294467
 20
190.3810496224125
 30
0.0
  0
LINE
  5
198C
330
2
100
AcDbEntity
  8
0
100
AcDbLine
 10
370.4489061172
 20
189.311608085
 30
0.0
 11
371.0239061181
 21
189.311608085
 31
0.0
  0
LINE
  5
198D
330
2
100
AcDbEntity
  8
0
100
AcDbLine
 10
368.7066662945
 20
190.3810496224
 30
0.0
 11
368.6864061176
 21
190.5920263679
 31
0.0
  0
ARC
  5
198E
330
2
100
AcDbEntity
  8
0
100
AcDbCircle
 10
368.629395364
 20
189.2347208093
 30
0.0
 40
1.3
100
AcDbArc
 50
105.8808500083
 51
175.0
  0
LINE
  5
198F
330
2
100
AcDbEntity
  8
0
100
AcDbLine
 10
369.3984973016
 20
190.728608085
 30
0.0
 11
368.2364061176
 21
190.728608085
 31
0.0
  0
LINE
  5
1990
330
2
100
AcDbEntity
  8
0
100
AcDbLine
 10
410.2364061176
 20
188.228608085
 30
0.0
 11
410.3343422565
 21
189.3480232749
 31
0.0
  0
LINE
  5
1991
330
2
100
AcDbEntity
  8
0
100
AcDbLine
 10
409.7364061176
 20
188.228608085
 30
0.0
 11
409.7364061176
 21
190.228608085
 31
0.0
  0
LINE
  5
1992
330
2
100
AcDbEntity
  8
0
100
AcDbLine
 10
374.7364061176
 20
188.228608085
 30
0.0
 11
374.7364061176
 21
190.228608085
 31
0.0
  0
LINE
  5
1993
330
2
100
AcDbEntity
  8
0
100
AcDbLine
 10
374.2364061176
 20
188.228608085
 30
0.0
 11
374.1384699787
 21
189.3480232749
 31
0.0
  0
LINE
  5
1994
330
2
100
AcDbEntity
  8
0
100
AcDbLine
 10
374.7364061176
 20
189.728608085
 30
0.0
 11
409.7364061176
 21
189.728608085
 31
0.0
  0
ARC
  5
1995
330
2
100
AcDbEntity
  8
0
100
AcDbCircle
 10
372.8434168712
 20
189.2347208093
 30
0.0
 40
1.3
100
AcDbArc
 50
5.0
 51
74.1191499917
  0
LINE
  5
1996
330
2
100
AcDbEntity
  8
0
100
AcDbLine
 10
374.7364061176
 20
190.228608085
 30
0.0
 11
373.6813835073
 21
190.228608085
 31
0.0
  0
LINE
  5
1997
330
2
100
AcDbEntity
  8
0
100
AcDbLine
 10
372.7661459408
 20
190.3810496224
 30
0.0
 11
372.7864061176
 21
190.5920263679
 31
0.0
  0
LINE
  5
1998
330
2
100
AcDbEntity
  8
0
100
AcDbLine
 10
375.2364061176
 20
190.728608085
 30
0.0
 11
374.7364061176
 21
190.228608085
 31
0.0
  0
LINE
  5
1999
330
2
100
AcDbEntity
  8
0
100
AcDbLine
 10
409.7364061176
 20
190.228608085
 30
0.0
 11
410.791428728
 21
190.228608085
 31
0.0
  0
LINE
  5
199A
330
2
100
AcDbEntity
  8
0
100
AcDbLine
 10
409.2364061176
 20
190.728608085
 30
0.0
 11
409.7364061176
 21
190.228608085
 31
0.0
  0
ARC
  5
199B
330
2
100
AcDbEntity
  8
0
100
AcDbCircle
 10
411.629395364
 20
189.2347208093
 30
0.0
 40
1.3
100
AcDbArc
 50
105.8808500083
 51
175.0
  0
LINE
  5
199C
330
2
100
AcDbEntity
  8
0
100
AcDbLine
 10
645.8497119461
 20
189.728600085
 30
0.0
 11
645.8497119461
 21
147.728585085
 31
0.0
  0
LINE
  5
199D
330
2
100
AcDbEntity
  8
0
100
AcDbLine
 10
417.2363911176
 20
189.728608085
 30
0.0
 11
417.2363911176
 21
163.1379926168
 31
0.0
  0
LINE
  5
19A0
330
2
100
AcDbEntity
  8
0
100
AcDbLine
 10
647.8497119461
 20
145.728585085
 30
0.0
 11
645.8497119461
 21
147.728585085
 31
0.0
  0
LINE
  5
19A1
330
2
100
AcDbEntity
  8
0
100
AcDbLine
 10
648.3497119461
 20
145.728585085
 30
0.0
 11
648.3497119461
 21
144.228585085
 31
0.0
  0
LINE
  5
19A2
330
2
100
AcDbEntity
  8
0
100
AcDbLine
 10
417.2364061176
 20
188.228608085
 30
0.0
 11
417.1384699787
 21
189.3480232749
 31
0.0
  0
ARC
  5
19A3
330
2
100
AcDbEntity
  8
0
100
AcDbCircle
 10
415.8434168712
 20
189.2347208093
 30
0.0
 40
1.3
100
AcDbArc
 50
5.0
 51
74.1191499917
  0
LINE
  5
19A4
330
2
100
AcDbEntity
  8
0
100
AcDbLine
 10
416.2364061176
 20
190.728608085
 30
0.0
 11
417.2364061176
 21
189.728608085
 31
0.0
  0
SPLINE
  5
19A5
330
2
100
AcDbEntity
  8
0
100
AcDbSpline
210
0.0
220
0.0
230
1.0
 70
     8
 71
     3
 72
    11
 73
     7
 74
     0
 42
0.000000001
 43
0.0000000001
 40
0.0
 40
0.0
 40
0.0
 40
0.0
 40
0.4601364636755307
 40
1.04988694485363
 40
1.713742833862792
 40
2.320347933405154
 40
2.320347933405154
 40
2.320347933405154
 40
2.320347933405173
 10
413.4489061171762
 20
189.3116080850349
 30
0.0
 10
413.4264884600683
 20
189.4666315247148
 30
0.0
 10
413.3753384048351
 20
189.8203463426323
 30
0.0
 10
412.9394532433013
 20
190.245074014234
 30
0.0
 10
412.3344025282936
 20
190.4642611941998
 30
0.0
 10
411.9092179041182
 20
190.3952698945892
 30
0.0
 10
411.7066662944671
 20
190.3810496224125
 30
0.0
  0
LINE
  5
19A6
330
2
100
AcDbEntity
  8
0
100
AcDbLine
 10
411.7066662945
 20
190.3810496224
 30
0.0
 11
411.6864061176
 21
190.5920263679
 31
0.0
  0
LINE
  5
19A7
330
2
100
AcDbEntity
  8
0
100
AcDbLine
 10
415.7661459408
 20
190.3810496224
 30
0.0
 11
415.7864061176
 21
190.5920263679
 31
0.0
  0
LINE
  5
19A8
330
2
100
AcDbEntity
  8
0
100
AcDbLine
 10
414.0239061181
 20
189.311608085
 30
0.0
 11
413.4489061172
 21
189.311608085
 31
0.0
  0
SPLINE
  5
19A9
330
2
100
AcDbEntity
  8
0
100
AcDbSpline
210
0.0
220
0.0
230
1.0
 70
     8
 71
     3
 72
    11
 73
     7
 74
     0
 42
0.000000001
 43
0.0000000001
 40
0.0
 40
0.0
 40
0.0
 40
0.0
 40
0.4601364636755307
 40
1.04988694485363
 40
1.713742833862792
 40
2.320347933405154
 40
2.320347933405154
 40
2.320347933405154
 40
2.320347933405173
 10
414.0239061180863
 20
189.3116080850349
 30
0.0
 10
414.0463237751942
 20
189.4666315247148
 30
0.0
 10
414.0974738304274
 20
189.8203463426323
 30
0.0
 10
414.5333589919609
 20
190.245074014234
 30
0.0
 10
415.1384097069684
 20
190.4642611941998
 30
0.0
 10
415.5635943311442
 20
190.3952698945892
 30
0.0
 10
415.7661459407951
 20
190.3810496224125
 30
0.0
  0
LINE
  5
19AA
330
2
100
AcDbEntity
  8
0
100
AcDbLine
 10
415.0743149337
 20
190.728608085
 30
0.0
 11
416.2364061176
 21
190.728608085
 31
0.0
  0
LINE
  5
19AB
330
2
100
AcDbEntity
  8
0
100
AcDbLine
 10
653.3497119461
 20
188.228600085
 30
0.0
 11
653.3497119461
 21
190.228600085
 31
0.0
  0
LINE
  5
19AC
330
2
100
AcDbEntity
  8
0
100
AcDbLine
 10
652.8497119461
 20
188.228600085
 30
0.0
 11
652.7517758072
 21
189.3480152749
 31
0.0
  0
LINE
  5
19AD
330
2
100
AcDbEntity
  8
0
100
AcDbLine
 10
645.8497119461
 20
188.228600085
 30
0.0
 11
645.947648085
 21
189.3480152749
 31
0.0
  0
LINE
  5
19AE
330
2
100
AcDbEntity
  8
0
100
AcDbLine
 10
653.3497119461
 20
188.228600085
 30
0.0
 11
645.8497119461
 21
188.228600085
 31
0.0
  0
LINE
  5
19AF
330
2
100
AcDbEntity
  8
0
100
AcDbLine
 10
649.0622119457
 20
189.311600085
 30
0.0
 11
649.6372119466
 21
189.311600085
 31
0.0
  0
ARC
  5
19B0
330
2
100
AcDbEntity
  8
0
100
AcDbCircle
 10
649.3497119461
 20
181.828600085
 30
0.0
 40
9.0
100
AcDbArc
 50
74.1191499917
 51
105.8808500083
  0
ARC
  5
19B1
330
2
100
AcDbEntity
  8
0
100
AcDbCircle
 10
647.2427011925
 20
189.2347128093
 30
0.0
 40
1.3
100
AcDbArc
 50
105.8808500083
 51
175.0
  0
LINE
  5
19B2
330
2
100
AcDbEntity
  8
0
100
AcDbLine
 10
646.8497119461
 20
190.728600085
 30
0.0
 11
645.8497119461
 21
189.728600085
 31
0.0
  0
LINE
  5
19B3
330
2
100
AcDbEntity
  8
0
100
AcDbLine
 10
648.0118031301
 20
190.728600085
 30
0.0
 11
646.8497119461
 21
190.728600085
 31
0.0
  0
LINE
  5
19B4
330
2
100
AcDbEntity
  8
0
100
AcDbLine
 10
647.319972123
 20
190.3810416224
 30
0.0
 11
647.2997119461
 21
190.5920183679
 31
0.0
  0
SPLINE
  5
19B5
330
2
100
AcDbEntity
  8
0
100
AcDbSpline
210
0.0
220
0.0
230
1.0
 70
     8
 71
     3
 72
    11
 73
     7
 74
     0
 42
0.000000001
 43
0.0000000001
 40
0.0
 40
0.0
 40
0.0
 40
0.0
 40
0.4601364636755307
 40
1.04988694485363
 40
1.713742833862792
 40
2.320347933405154
 40
2.320347933405154
 40
2.320347933405154
 40
2.320347933405173
 10
649.0622119456816
 20
189.3116000850349
 30
0.0
 10
649.0397942885737
 20
189.4666235247147
 30
0.0
 10
648.9886442333405
 20
189.8203383426323
 30
0.0
 10
648.552759071807
 20
190.2450660142339
 30
0.0
 10
647.9477083567998
 20
190.4642531941998
 30
0.0
 10
647.5225237326237
 20
190.3952618945892
 30
0.0
 10
647.3199721229726
 20
190.3810416224125
 30
0.0
  0
LINE
  5
19B6
330
2
100
AcDbEntity
  8
0
100
AcDbLine
 10
653.8497119461
 20
190.728600085
 30
0.0
 11
653.3497119461
 21
190.228600085
 31
0.0
  0
LINE
  5
19B7
330
2
100
AcDbEntity
  8
0
100
AcDbLine
 10
651.3794517693
 20
190.3810416224
 30
0.0
 11
651.3997119461
 21
190.5920183679
 31
0.0
  0
ARC
  5
19B8
330
2
100
AcDbEntity
  8
0
100
AcDbCircle
 10
651.4567226997
 20
189.2347128093
 30
0.0
 40
1.3
100
AcDbArc
 50
5.0
 51
74.1191499917
  0
SPLINE
  5
19B9
330
2
100
AcDbEntity
  8
0
100
AcDbSpline
210
0.0
220
0.0
230
1.0
 70
     8
 71
     3
 72
    11
 73
     7
 74
     0
 42
0.000000001
 43
0.0000000001
 40
0.0
 40
0.0
 40
0.0
 40
0.0
 40
0.4601364636755307
 40
1.04988694485363
 40
1.713742833862792
 40
2.320347933405154
 40
2.320347933405154
 40
2.320347933405154
 40
2.320347933405173
 10
649.6372119465917
 20
189.3116000850349
 30
0.0
 10
649.6596296036997
 20
189.4666235247147
 30
0.0
 10
649.710779658933
 20
189.8203383426323
 30
0.0
 10
650.1466648204666
 20
190.2450660142339
 30
0.0
 10
650.7517155354737
 20
190.4642531941998
 30
0.0
 10
651.1769001596499
 20
190.3952618945892
 30
0.0
 10
651.3794517693009
 20
190.3810416224125
 30
0.0
  0
LINE
  5
19BA
330
2
100
AcDbEntity
  8
0
100
AcDbLine
 10
653.3497119461
 20
190.228600085
 30
0.0
 11
652.2946893358
 21
190.228600085
 31
0.0
  0
LINE
  5
19BB
330
2
100
AcDbEntity
  8
CENTER
100
AcDbLine
 10
670.8497119461
 20
139.339089085
 30
0.0
 11
670.8497119461
 21
196.116100085
 31
0.0
  0
LINE
  5
19BC
330
2
100
AcDbEntity
  8
0
100
AcDbLine
 10
695.8497189461
 20
189.728600085
 30
0.0
 11
695.8497189461
 21
147.728585085
 31
0.0
  0
LINE
  5
19BD
330
2
100
AcDbEntity
  8
0
100
AcDbLine
 10
695.8497189461
 20
147.728585085
 30
0.0
 11
693.8497189461
 21
145.728585085
 31
0.0
  0
LINE
  5
19BE
330
2
100
AcDbEntity
  8
0
100
AcDbLine
 10
694.3497189461
 20
145.728585085
 30
0.0
 11
694.3497189461
 21
144.228585085
 31
0.0
  0
LINE
  5
19BF
330
2
100
AcDbEntity
  8
0
100
AcDbLine
 10
696.7247189461
 20
163.228585085
 30
0.0
 11
694.7247189461
 21
163.228585085
 31
0.0
  0
LINE
  5
19C0
330
2
100
AcDbEntity
  8
0
100
AcDbLine
 10
695.8497119461
 20
188.228600085
 30
0.0
 11
695.7517758072
 21
189.3480152749
 31
0.0
  0
LINE
  5
19C1
330
2
100
AcDbEntity
  8
0
100
AcDbLine
 10
688.3497119461
 20
188.228600085
 30
0.0
 11
688.3497119461
 21
190.228600085
 31
0.0
  0
LINE
  5
19C2
330
2
100
AcDbEntity
  8
0
100
AcDbLine
 10
688.8497119461
 20
188.228600085
 30
0.0
 11
688.947648085
 21
189.3480152749
 31
0.0
  0
LINE
  5
19C3
330
2
100
AcDbEntity
  8
0
100
AcDbLine
 10
688.3497119461
 20
188.228600085
 30
0.0
 11
695.8497119461
 21
188.228600085
 31
0.0
  0
LINE
  5
19C4
330
2
100
AcDbEntity
  8
0
100
AcDbLine
 10
696.7247189461
 20
184.228585085
 30
0.0
 11
694.7247189461
 21
184.228585085
 31
0.0
  0
ARC
  5
19C5
330
2
100
AcDbEntity
  8
0
100
AcDbCircle
 10
690.2427011925
 20
189.2347128093
 30
0.0
 40
1.3
100
AcDbArc
 50
105.8808500083
 51
175.0
  0
LINE
  5
19C6
330
2
100
AcDbEntity
  8
0
100
AcDbLine
 10
688.3497119461
 20
190.228600085
 30
0.0
 11
689.4047345565
 21
190.228600085
 31
0.0
  0
LINE
  5
19C7
330
2
100
AcDbEntity
  8
0
100
AcDbLine
 10
687.8497119461
 20
190.728600085
 30
0.0
 11
688.3497119461
 21
190.228600085
 31
0.0
  0
SPLINE
  5
19C8
330
2
100
AcDbEntity
  8
0
100
AcDbSpline
210
0.0
220
0.0
230
1.0
 70
     8
 71
     3
 72
    11
 73
     7
 74
     0
 42
0.000000001
 43
0.0000000001
 40
0.0
 40
0.0
 40
0.0
 40
0.0
 40
0.4601364636755307
 40
1.04988694485363
 40
1.713742833862792
 40
2.320347933405154
 40
2.320347933405154
 40
2.320347933405154
 40
2.320347933405173
 10
692.6372119465919
 20
189.3116000850349
 30
0.0
 10
692.6596296036998
 20
189.4666235247147
 30
0.0
 10
692.7107796589332
 20
189.8203383426323
 30
0.0
 10
693.1466648204668
 20
190.2450660142339
 30
0.0
 10
693.7517155354742
 20
190.4642531941998
 30
0.0
 10
694.17690015965
 20
190.3952618945892
 30
0.0
 10
694.3794517693011
 20
190.3810416224125
 30
0.0
  0
LINE
  5
19C9
330
2
100
AcDbEntity
  8
0
100
AcDbLine
 10
693.6876207622
 20
190.728600085
 30
0.0
 11
694.8497119461
 21
190.728600085
 31
0.0
  0
LINE
  5
19CA
330
2
100
AcDbEntity
  8
0
100
AcDbLine
 10
694.8497119461
 20
190.728600085
 30
0.0
 11
695.8497119461
 21
189.728600085
 31
0.0
  0
LINE
  5
19CB
330
2
100
AcDbEntity
  8
0
100
AcDbLine
 10
694.3794517693
 20
190.3810416224
 30
0.0
 11
694.3997119461
 21
190.5920183679
 31
0.0
  0
ARC
  5
19CC
330
2
100
AcDbEntity
  8
0
100
AcDbCircle
 10
694.4567226997
 20
189.2347128093
 30
0.0
 40
1.3
100
AcDbArc
 50
5.0
 51
74.1191499917
  0
LINE
  5
19CD
330
2
100
AcDbEntity
  8
0
100
AcDbLine
 10
690.319972123
 20
190.3810416224
 30
0.0
 11
690.2997119461
 21
190.5920183679
 31
0.0
  0
SPLINE
  5
19CE
330
2
100
AcDbEntity
  8
0
100
AcDbSpline
210
0.0
220
0.0
230
1.0
 70
     8
 71
     3
 72
    11
 73
     7
 74
     0
 42
0.000000001
 43
0.0000000001
 40
0.0
 40
0.0
 40
0.0
 40
0.0
 40
0.4601364636755307
 40
1.04988694485363
 40
1.713742833862792
 40
2.320347933405154
 40
2.320347933405154
 40
2.320347933405154
 40
2.320347933405173
 10
692.0622119456819
 20
189.3116000850349
 30
0.0
 10
692.039794288574
 20
189.4666235247147
 30
0.0
 10
691.9886442333408
 20
189.8203383426323
 30
0.0
 10
691.5527590718072
 20
190.2450660142339
 30
0.0
 10
690.9477083567998
 20
190.4642531941998
 30
0.0
 10
690.5225237326241
 20
190.3952618945892
 30
0.0
 10
690.3199721229729
 20
190.3810416224125
 30
0.0
  0
ARC
  5
19CF
330
2
100
AcDbEntity
  8
0
100
AcDbCircle
 10
692.3497119461
 20
181.828600085
 30
0.0
 40
9.0
100
AcDbArc
 50
74.1191499917
 51
105.8808500083
  0
LINE
  5
19D0
330
2
100
AcDbEntity
  8
0
100
AcDbLine
 10
692.6372119466
 20
189.311600085
 30
0.0
 11
692.0622119457
 21
189.311600085
 31
0.0
  0
LINE
  5
1A25
330
2
100
AcDbEntity
  8
CENTER
100
AcDbLine
 10
92.042927653
 20
173.728593085
 30
0.0
 11
152.1301416154
 21
173.728593085
 31
0.0
  0
LINE
  5
1A27
330
2
100
AcDbEntity
  8
0
100
AcDbLine
 10
140.0865346342
 20
188.228608085
 30
0.0
 11
140.1844707731
 21
189.3480232749
 31
0.0
  0
LINE
  5
1A28
330
2
100
AcDbEntity
  8
0
100
AcDbLine
 10
139.5865346342
 20
188.228608085
 30
0.0
 11
139.5865346342
 21
190.228608085
 31
0.0
  0
LINE
  5
1A29
330
2
100
AcDbEntity
  8
0
100
AcDbLine
 10
147.0865346342
 20
188.228608085
 30
0.0
 11
146.9885984953
 21
189.3480232749
 31
0.0
  0
LINE
  5
1A2A
330
2
100
AcDbEntity
  8
0
100
AcDbLine
 10
97.0865346342
 20
188.228608085
 30
0.0
 11
97.1844707731
 21
189.3480232749
 31
0.0
  0
LINE
  5
1A2B
330
2
100
AcDbEntity
  8
0
100
AcDbLine
 10
104.0865346342
 20
188.228608085
 30
0.0
 11
103.9885984953
 21
189.3480232749
 31
0.0
  0
LINE
  5
1A2C
330
2
100
AcDbEntity
  8
0
100
AcDbLine
 10
104.5865346342
 20
188.228608085
 30
0.0
 11
104.5865346342
 21
190.228608085
 31
0.0
  0
LINE
  5
1A2D
330
2
100
AcDbEntity
  8
CENTER
100
AcDbLine
 10
122.0865346342
 20
139.339097085
 30
0.0
 11
122.0865346342
 21
196.116108085
 31
0.0
  0
LINE
  5
1A2E
330
2
100
AcDbEntity
  8
0
100
AcDbLine
 10
97.0865276342
 20
189.728608085
 30
0.0
 11
97.0865276342
 21
147.728593085
 31
0.0
  0
LINE
  5
1A2F
330
2
100
AcDbEntity
  8
0
100
AcDbLine
 10
147.0865346342
 20
189.728608085
 30
0.0
 11
147.0865346342
 21
147.728593085
 31
0.0
  0
LINE
  5
1A32
330
2
100
AcDbEntity
  8
0
100
AcDbLine
 10
98.5865276342
 20
145.728593085
 30
0.0
 11
145.0865346342
 21
145.728593085
 31
0.0
  0
LINE
  5
1A33
330
2
100
AcDbEntity
  8
0
100
AcDbLine
 10
97.0865276342
 20
147.728593085
 30
0.0
 11
147.0865346342
 21
147.728593085
 31
0.0
  0
LINE
  5
1A34
330
2
100
AcDbEntity
  8
0
100
AcDbLine
 10
98.5865276342
 20
145.728593085
 30
0.0
 11
98.5865276342
 21
144.228593085
 31
0.0
  0
LINE
  5
1A35
330
2
100
AcDbEntity
  8
0
100
AcDbLine
 10
97.0865276342
 20
147.728593085
 30
0.0
 11
99.0865276342
 21
145.728593085
 31
0.0
  0
LINE
  5
1A36
330
2
100
AcDbEntity
  8
0
100
AcDbLine
 10
144.5865346342
 20
145.728593085
 30
0.0
 11
144.5865346342
 21
144.228593085
 31
0.0
  0
LINE
  5
1A37
330
2
100
AcDbEntity
  8
0
100
AcDbLine
 10
145.0865346342
 20
145.728593085
 30
0.0
 11
147.0865346342
 21
147.728593085
 31
0.0
  0
LINE
  5
1A38
330
2
100
AcDbEntity
  8
0
100
AcDbLine
 10
97.0865276342
 20
157.728593085
 30
0.0
 11
147.0865346342
 21
157.728593085
 31
0.0
  0
LINE
  5
1A39
330
2
100
AcDbEntity
  8
0
100
AcDbLine
 10
97.0865276342
 20
158.728593085
 30
0.0
 11
147.0865346342
 21
158.728593085
 31
0.0
  0
LINE
  5
1A3A
330
2
100
AcDbEntity
  8
0
100
AcDbLine
 10
96.2115276342
 20
163.228593085
 30
0.0
 11
98.2115276342
 21
163.228593085
 31
0.0
  0
LINE
  5
1A3B
330
2
100
AcDbEntity
  8
0
100
AcDbLine
 10
104.5865346342
 20
188.228608085
 30
0.0
 11
97.0865346342
 21
188.228608085
 31
0.0
  0
LINE
  5
1A3C
330
2
100
AcDbEntity
  8
0
100
AcDbLine
 10
96.2115276342
 20
184.228593085
 30
0.0
 11
98.2115276342
 21
184.228593085
 31
0.0
  0
LINE
  5
1A3D
330
2
100
AcDbEntity
  8
0
100
AcDbLine
 10
139.5865346342
 20
188.228608085
 30
0.0
 11
147.0865346342
 21
188.228608085
 31
0.0
  0
LINE
  5
1A3E
330
2
100
AcDbEntity
  8
0
100
AcDbLine
 10
101.9244434502
 20
190.728608085
 30
0.0
 11
142.2486258181
 21
190.728608085
 31
0.0
  0
LINE
  5
1A3F
330
2
100
AcDbEntity
  8
0
100
AcDbLine
 10
104.5865346342
 20
189.728608085
 30
0.0
 11
139.5865346342
 21
189.728608085
 31
0.0
  0
LINE
  5
1A41
330
2
100
AcDbEntity
  8
0
100
AcDbLine
 10
104.5865346342
 20
190.228608085
 30
0.0
 11
103.5315120238
 21
190.228608085
 31
0.0
  0
ARC
  5
1A42
330
2
100
AcDbEntity
  8
0
100
AcDbCircle
 10
102.6935453878
 20
189.2347208093
 30
0.0
 40
1.3
100
AcDbArc
 50
5.0
 51
74.1191499917
  0
SPLINE
  5
1A43
330
2
100
AcDbEntity
  8
0
100
AcDbSpline
210
0.0
220
0.0
230
1.0
 70
     8
 71
     3
 72
    11
 73
     7
 74
     0
 42
0.000000001
 43
0.0000000001
 40
0.0
 40
0.0
 40
0.0
 40
0.0
 40
0.4601364636755307
 40
1.04988694485363
 40
1.713742833862792
 40
2.320347933405154
 40
2.320347933405154
 40
2.320347933405154
 40
2.320347933405173
 10
100.2990346337121
 20
189.3116080850349
 30
0.0
 10
100.2766169766043
 20
189.4666315247148
 30
0.0
 10
100.2254669213709
 20
189.8203463426323
 30
0.0
 10
99.78958175983748
 20
190.245074014234
 30
0.0
 10
99.18453104482999
 20
190.4642611941998
 30
0.0
 10
98.7593464206542
 20
190.3952698945892
 30
0.0
 10
98.5567948110031
 20
190.3810496224125
 30
0.0
  0
LINE
  5
1A44
330
2
100
AcDbEntity
  8
0
100
AcDbLine
 10
98.0865346342
 20
190.728608085
 30
0.0
 11
97.0865346342
 21
189.728608085
 31
0.0
  0
LINE
  5
1A45
330
2
100
AcDbEntity
  8
0
100
AcDbLine
 10
98.556794811
 20
190.3810496224
 30
0.0
 11
98.5365346342
 21
190.5920263679
 31
0.0
  0
ARC
  5
1A46
330
2
100
AcDbEntity
  8
0
100
AcDbCircle
 10
98.4795238806
 20
189.2347208093
 30
0.0
 40
1.3
100
AcDbArc
 50
105.8808500083
 51
175.0
  0
LINE
  5
1A47
330
2
100
AcDbEntity
  8
0
100
AcDbLine
 10
99.2486258181
 20
190.728608085
 30
0.0
 11
98.0865346342
 21
190.728608085
 31
0.0
  0
LINE
  5
1A48
330
2
100
AcDbEntity
  8
0
100
AcDbLine
 10
100.2990346337
 20
189.311608085
 30
0.0
 11
100.8740346346
 21
189.311608085
 31
0.0
  0
LINE
  5
1A49
330
2
100
AcDbEntity
  8
0
100
AcDbLine
 10
102.6162744573
 20
190.3810496224
 30
0.0
 11
102.6365346342
 21
190.5920263679
 31
0.0
  0
SPLINE
  5
1A4A
330
2
100
AcDbEntity
  8
0
100
AcDbSpline
210
0.0
220
0.0
230
1.0
 70
     8
 71
     3
 72
    11
 73
     7
 74
     0
 42
0.000000001
 43
0.0000000001
 40
0.0
 40
0.0
 40
0.0
 40
0.0
 40
0.4601364636755307
 40
1.04988694485363
 40
1.713742833862792
 40
2.320347933405154
 40
2.320347933405154
 40
2.320347933405154
 40
2.320347933405173
 10
100.8740346346222
 20
189.3116080850349
 30
0.0
 10
100.8964522917301
 20
189.4666315247148
 30
0.0
 10
100.9476023469633
 20
189.8203463426323
 30
0.0
 10
101.3834875084969
 20
190.245074014234
 30
0.0
 10
101.9885382235044
 20
190.4642611941998
 30
0.0
 10
102.4137228476802
 20
190.3952698945892
 30
0.0
 10
102.6162744573313
 20
190.3810496224125
 30
0.0
  0
ARC
  5
1A4B
330
2
100
AcDbEntity
  8
0
100
AcDbCircle
 10
100.5865346342
 20
181.828608085
 30
0.0
 40
9.0
100
AcDbArc
 50
74.1191499917
 51
105.8808500083
  0
LINE
  5
1A4C
330
2
100
AcDbEntity
  8
0
100
AcDbLine
 10
105.0865346342
 20
190.728608085
 30
0.0
 11
104.5865346342
 21
190.228608085
 31
0.0
  0
ARC
  5
1A4D
330
2
100
AcDbEntity
  8
0
100
AcDbCircle
 10
143.5865346342
 20
181.828608085
 30
0.0
 40
9.0
100
AcDbArc
 50
74.1191499917
 51
105.8808500083
  0
SPLINE
  5
1A4E
330
2
100
AcDbEntity
  8
0
100
AcDbSpline
210
0.0
220
0.0
230
1.0
 70
     8
 71
     3
 72
    11
 73
     7
 74
     0
 42
0.000000001
 43
0.0000000001
 40
0.0
 40
0.0
 40
0.0
 40
0.0
 40
0.4601364636755307
 40
1.04988694485363
 40
1.713742833862792
 40
2.320347933405154
 40
2.320347933405154
 40
2.320347933405154
 40
2.320347933405173
 10
143.2990346337124
 20
189.3116080850349
 30
0.0
 10
143.2766169766045
 20
189.4666315247148
 30
0.0
 10
143.2254669213712
 20
189.8203463426323
 30
0.0
 10
142.7895817598376
 20
190.245074014234
 30
0.0
 10
142.1845310448301
 20
190.4642611941998
 30
0.0
 10
141.7593464206543
 20
190.3952698945892
 30
0.0
 10
141.5567948110033
 20
190.3810496224125
 30
0.0
  0
LINE
  5
1A4F
330
2
100
AcDbEntity
  8
0
100
AcDbLine
 10
141.556794811
 20
190.3810496224
 30
0.0
 11
141.5365346342
 21
190.5920263679
 31
0.0
  0
ARC
  5
1A50
330
2
100
AcDbEntity
  8
0
100
AcDbCircle
 10
141.4795238806
 20
189.2347208093
 30
0.0
 40
1.3
100
AcDbArc
 50
105.8808500083
 51
175.0
  0
LINE
  5
1A51
330
2
100
AcDbEntity
  8
0
100
AcDbLine
 10
139.5865346342
 20
190.228608085
 30
0.0
 11
140.6415572445
 21
190.228608085
 31
0.0
  0
LINE
  5
1A52
330
2
100
AcDbEntity
  8
0
100
AcDbLine
 10
139.0865346342
 20
190.728608085
 30
0.0
 11
139.5865346342
 21
190.228608085
 31
0.0
  0
LINE
  5
1A53
330
2
100
AcDbEntity
  8
0
100
AcDbLine
 10
144.9244434502
 20
190.728608085
 30
0.0
 11
146.0865346342
 21
190.728608085
 31
0.0
  0
ARC
  5
1A54
330
2
100
AcDbEntity
  8
0
100
AcDbCircle
 10
145.6935453878
 20
189.2347208093
 30
0.0
 40
1.3
100
AcDbArc
 50
5.0
 51
74.1191499917
  0
LINE
  5
1A55
330
2
100
AcDbEntity
  8
0
100
AcDbLine
 10
145.6162744573
 20
190.3810496224
 30
0.0
 11
145.6365346342
 21
190.5920263679
 31
0.0
  0
LINE
  5
1A56
330
2
100
AcDbEntity
  8
0
100
AcDbLine
 10
143.8740346346
 20
189.311608085
 30
0.0
 11
143.2990346337
 21
189.311608085
 31
0.0
  0
SPLINE
  5
1A57
330
2
100
AcDbEntity
  8
0
100
AcDbSpline
210
0.0
220
0.0
230
1.0
 70
     8
 71
     3
 72
    11
 73
     7
 74
     0
 42
0.000000001
 43
0.0000000001
 40
0.0
 40
0.0
 40
0.0
 40
0.0
 40
0.4601364636755307
 40
1.04988694485363
 40
1.713742833862792
 40
2.320347933405154
 40
2.320347933405154
 40
2.320347933405154
 40
2.320347933405173
 10
143.8740346346224
 20
189.3116080850349
 30
0.0
 10
143.8964522917301
 20
189.4666315247148
 30
0.0
 10
143.9476023469635
 20
189.8203463426323
 30
0.0
 10
144.3834875084972
 20
190.245074014234
 30
0.0
 10
144.9885382235045
 20
190.4642611941998
 30
0.0
 10
145.4137228476804
 20
190.3952698945892
 30
0.0
 10
145.6162744573314
 20
190.3810496224125
 30
0.0
  0
LINE
  5
1A58
330
2
100
AcDbEntity
  8
0
100
AcDbLine
 10
146.0865346342
 20
190.728608085
 30
0.0
 11
147.0865346342
 21
189.728608085
 31
0.0
  0
TEXT
  5
1FBC
330
2
100
AcDbEntity
  8
TITLE_C
100
AcDbText
 10
320.8779299954
 20
314.6677124363
 30
0.0
 40
5.0
  1
HF18L010～240-YTBR90WK
 41
0.8
100
AcDbText
  0
TEXT
  5
1FBD
330
2
100
AcDbEntity
  8
TITLE_C
100
AcDbText
 10
320.8779299954
 20
329.3947058483
 30
0.0
 40
5.0
  1
HF18L010～240-YTBR60WK
 41
0.8
100
AcDbText
  0
TEXT
  5
1FBF
330
2
100
AcDbEntity
  8
TITLE_C
100
AcDbText
 10
320.8779299954
 20
345.4657451277
 30
0.0
 40
5.0
  1
HF18L010～240-YTBR40WK
 41
0.8
100
AcDbText
  0
TEXT
  5
1FC4
330
2
100
AcDbEntity
  8
TITLE_C
100
AcDbText
 10
413.2084613718
 20
345.2226905883
 30
0.0
 40
5.0
  1
HF18L010～240-YSBR40WK
 41
0.8
100
AcDbText
  0
TEXT
  5
1FC5
330
2
100
AcDbEntity
  8
TITLE_C
100
AcDbText
 10
413.2084613718
 20
337.2226905883
 30
0.0
 40
5.0
  1
HF18L010～240-YSBR60NK
 41
0.8
100
AcDbText
  0
TEXT
  5
1FC6
330
2
100
AcDbEntity
  8
TITLE_C
100
AcDbText
 10
413.2084613718
 20
353.2226905883
 30
0.0
 40
5.0
  1
HF18L010～240-YSBR40NK
 41
0.8
100
AcDbText
  0
TEXT
  5
3884
330
2
100
AcDbEntity
  8
TITLE_C
100
AcDbText
 10
320.8779299954
 20
352.6827975911
 30
0.0
 40
5.0
  1
HF18L010～240-YTBR40NK
 41
0.8
100
AcDbText
  0
TEXT
  5
3885
330
2
100
AcDbEntity
  8
TITLE_C
100
AcDbText
 10
320.8779299954
 20
337.4657451277
 30
0.0
 40
5.0
  1
HF18L010～240-YTBR60NK
 41
0.8
100
AcDbText
  0
TEXT
  5
3886
330
2
100
AcDbEntity
  8
TITLE_C
100
AcDbText
 10
320.8779299954
 20
321.8239373531
 30
0.0
 40
5.0
  1
HF18L010～240-YTBR90NK
 41
0.8
100
AcDbText
  0
TEXT
  5
4673
330
2
100
AcDbEntity
  8
TITLE_C
100
AcDbText
 10
413.2084613718
 20
321.8047894541
 30
0.0
 40
5.0
  1
HF18L010～240-YSBR90NK
 41
0.8
100
AcDbText
  0
TEXT
  5
4674
330
2
100
AcDbEntity
  8
TITLE_C
100
AcDbText
 10
413.2084613718
 20
313.8047894541
 30
0.0
 40
5.0
  1
HF18L010～240-YSBR90WK
 41
0.8
100
AcDbText
  0
TEXT
  5
4675
330
2
100
AcDbEntity
  8
TITLE_C
100
AcDbText
 10
413.2084613718
 20
329.8047894541
 30
0.0
 40
5.0
  1
HF18L010～240-YSBR60WK
 41
0.8
100
AcDbText
  0
ENDSEC
  0
SECTION
  2
OBJECTS
  0
DICTIONARY
  5
7
330
0
100
AcDbDictionary
281
     1
  3
ACAD_CIP_PREVIOUS_PRODUCT_INFO
350
3BC0
  3
ACAD_COLOR
350
1F77
  3
ACAD_DETAILVIEWSTYLE
350
429D
  3
ACAD_GROUP
350
75
  3
ACAD_LAYOUT
350
61
  3
ACAD_MATERIAL
350
1F4A
  3
ACAD_MLEADERSTYLE
350
1F9C
  3
ACAD_MLINESTYLE
350
76
  3
ACAD_PLOTSETTINGS
350
77
  3
ACAD_PLOTSTYLENAME
350
6
  3
ACAD_SCALELIST
350
1F7A
  3
ACAD_SECTIONVIEWSTYLE
350
429B
  3
ACAD_TABLESTYLE
350
1F78
  3
ACAD_VISUALSTYLE
350
1F63
  3
AcadDim
350
480
  3
ACDB_RECOMPOSE_DATA
350
4C64
  3
AcDbVariableDictionary
350
102
  3
DWGPROPS
350
4C65
  0
DICTIONARY
  5
250A
330
6E
100
AcDbDictionary
280
     1
281
     1
  0
DICTIONARY
  5
1FA3
330
66
100
AcDbDictionary
280
     1
281
     1
  3
ACAD_LAYERSTATES
360
1FA4
  0
DICTIONARY
  5
24F3
330
5E
100
AcDbDictionary
280
     1
281
     1
  3
ADSK_XREC_LAYER_RECONCILED
360
24F4
  0
DICTIONARY
  5
24F5
330
3E
100
AcDbDictionary
280
     1
281
     1
  3
ADSK_XREC_LAYER_RECONCILED
360
24F6
  0
DICTIONARY
  5
24FB
330
2B5
100
AcDbDictionary
280
     1
281
     1
  3
ADSK_XREC_LAYER_RECONCILED
360
24FC
  0
DICTIONARY
  5
24FD
330
2BA
100
AcDbDictionary
280
     1
281
     1
  3
ADSK_XREC_LAYER_RECONCILED
360
24FE
  0
DICTIONARY
  5
2501
330
3FA
100
AcDbDictionary
280
     1
281
     1
  3
ADSK_XREC_LAYER_RECONCILED
360
2502
  0
DICTIONARY
  5
1FA1
330
1FA0
100
AcDbDictionary
280
     1
281
     1
  3
ADSK_XREC_LAYER_RECONCILED
360
2503
  0
XRECORD
  5
3BC0
102
{ACAD_REACTORS
330
7
102
}
330
7
100
AcDbXrecord
280
     1
300
ACD
300
2020
300
87224ACD_2020_0F
  0
DICTIONARY
  5
1F77
102
{ACAD_REACTORS
330
7
102
}
330
7
100
AcDbDictionary
281
     1
  0
DICTIONARY
  5
429D
102
{ACAD_REACTORS
330
7
102
}
330
7
100
AcDbDictionary
281
     1
  3
Imperial24
350
429E
  0
DICTIONARY
  5
75
102
{ACAD_REACTORS
330
7
102
}
330
7
100
AcDbDictionary
281
     1
  0
DICTIONARY
  5
61
102
{ACAD_REACTORS
330
7
102
}
330
7
100
AcDbDictionary
281
     1
  3
Model
350
60
  3
レイアウト1
350
4C5E
  0
DICTIONARY
  5
1F4A
102
{ACAD_REACTORS
330
7
102
}
330
7
100
AcDbDictionary
281
     1
  3
ByBlock
350
1F53
  3
ByLayer
350
1F4B
  3
Global
350
1F5B
  0
DICTIONARY
  5
1F9C
102
{ACAD_REACTORS
330
7
102
}
330
7
100
AcDbDictionary
281
     1
  3
Standard
350
1F9D
  0
DICTIONARY
  5
76
102
{ACAD_REACTORS
330
7
102
}
330
7
100
AcDbDictionary
281
     1
  3
STANDARD
350
78
  0
DICTIONARY
  5
77
102
{ACAD_REACTORS
330
7
102
}
330
7
100
AcDbDictionary
281
     1
  0
ACDBDICTIONARYWDFLT
  5
6
102
{ACAD_REACTORS
330
7
102
}
330
7
100
AcDbDictionary
281
     1
  3
Normal
350
5
100
AcDbDictionaryWithDefault
340
5
  0
DICTIONARY
  5
1F7A
102
{ACAD_REACTORS
330
7
102
}
330
7
100
AcDbDictionary
281
     1
  3
A0
350
1F7B
  3
A1
350
1F7C
  3
A2
350
1F7D
  3
A3
350
1F7E
  3
A4
350
1F7F
  3
A5
350
1F80
  3
A6
350
1F81
  3
A7
350
1F82
  3
A8
350
1F83
  3
A9
350
1F84
  3
B0
350
1F85
  3
B1
350
1F86
  3
B2
350
1F87
  3
B3
350
1F88
  3
B4
350
1F89
  3
B5
350
1F8A
  3
B6
350
1F8B
  3
B7
350
1F8C
  3
B8
350
1F8D
  3
B9
350
1F8E
  3
C0
350
1F8F
  3
C1
350
1F90
  3
C2
350
1F91
  3
C3
350
1F92
  3
C4
350
1F93
  3
C5
350
1F94
  3
C6
350
1F95
  3
C7
350
1F96
  3
C8
350
1F97
  3
C9
350
1F98
  3
D0
350
1F99
  3
D1
350
1F9A
  3
D2
350
1F9B
  0
DICTIONARY
  5
429B
102
{ACAD_REACTORS
330
7
102
}
330
7
100
AcDbDictionary
281
     1
  3
Imperial24
350
429C
  0
DICTIONARY
  5
1F78
102
{ACAD_REACTORS
330
7
102
}
330
7
100
AcDbDictionary
281
     1
  3
Standard
350
1F79
  0
DICTIONARY
  5
1F63
102
{ACAD_REACTORS
330
7
102
}
330
7
100
AcDbDictionary
281
     1
  3
2dWireframe
350
1F69
  3
3D Hidden
350
1F6B
  3
3dWireframe
350
1F6A
  3
Basic
350
1F68
  3
Brighten
350
1F6F
  3
ColorChange
350
1F73
  3
Conceptual
350
1F6C
  3
Dim
350
1F6E
  3
EdgeColorOff
350
1F76
  3
Facepattern
350
1F72
  3
Flat
350
1F64
  3
FlatWithEdges
350
1F65
  3
Gouraud
350
1F66
  3
GouraudWithEdges
350
1F67
  3
Hidden
350
3BB8
  3
JitterOff
350
1F74
  3
Linepattern
350
1F71
  3
OverhangOff
350
1F75
  3
Realistic
350
1F6D
  3
Shaded
350
3BBD
  3
Shaded with edges
350
3BBC
  3
Shades of Gray
350
3BB9
  3
Sketchy
350
3BBA
  3
Thicken
350
1F70
  3
Wireframe
350
3BB7
  3
X-Ray
350
3BBB
  0
XRECORD
  5
480
102
{ACAD_REACTORS
330
7
102
}
330
7
100
AcDbXrecord
280
     1
 90
   990106
  3

 60
     0
 61
     0
 62
     1
 63
     3
 64
     1
 65
     0
 66
     0
 67
     3
 68
     1
 69
     0
 70
     0
 71
     0
 72
     0
 40
0.0
170
     2
340
0
  0
XRECORD
  5
4C64
102
{ACAD_REACTORS
330
7
102
}
330
7
100
AcDbXrecord
280
     1
 90
        1
330
1F79
  0
DICTIONARY
  5
102
102
{ACAD_REACTORS
330
7
102
}
330
7
100
AcDbDictionary
281
     1
  3
CANNOSCALE
350
25A1
  3
CMLEADERSTYLE
350
25A0
  3
CTABLESTYLE
350
259F
  3
CVIEWDETAILSTYLE
350
4382
  3
CVIEWSECTIONSTYLE
350
4383
  3
DIMASSOC
350
103
  3
INDEXCTL
350
25A3
  3
SORTENTS
350
25A2
  3
XCLIPFRAME
350
4C62
  0
XRECORD
  5
4C65
102
{ACAD_REACTORS
330
7
102
}
330
7
100
AcDbXrecord
280
     1
  1
DWGPROPS COOKIE
  2

  3

  4

  6

  7

  8
ykitaga
  9

300
=
301
=
302
=
303
=
304
=
305
=
306
=
307
=
308
=
309
=
 40
0.5391263542
 41
2453754.487106482
 42
2460249.327546296
  1

 90
        0
  0
DICTIONARY
  5
1FA4
102
{ACAD_REACTORS
330
1FA3
102
}
330
1FA3
100
AcDbDictionary
281
     1
  0
XRECORD
  5
24F4
102
{ACAD_REACTORS
330
24F3
102
}
330
24F3
100
AcDbXrecord
280
     1
290
     1
  0
XRECORD
  5
24F6
102
{ACAD_REACTORS
330
24F5
102
}
330
24F5
100
AcDbXrecord
280
     1
290
     1
  0
XRECORD
  5
24FC
102
{ACAD_REACTORS
330
24FB
102
}
330
24FB
100
AcDbXrecord
280
     1
290
     1
  0
XRECORD
  5
24FE
102
{ACAD_REACTORS
330
24FD
102
}
330
24FD
100
AcDbXrecord
280
     1
290
     1
  0
XRECORD
  5
2502
102
{ACAD_REACTORS
330
2501
102
}
330
2501
100
AcDbXrecord
280
     1
290
     1
  0
XRECORD
  5
2503
102
{ACAD_REACTORS
330
1FA1
102
}
330
1FA1
100
AcDbXrecord
280
     1
290
     1
  0
ACDBDETAILVIEWSTYLE
  5
429E
102
{ACAD_XDICTIONARY
360
4CC5
102
}
102
{ACAD_REACTORS
330
429D
102
}
330
429D
100
AcDbModelDocViewStyle
 70
     0
  3
Imperial24
290
     0
100
AcDbDetailViewStyle
 70
     0
 71
     0
 90
        3
 71
     1
340
16
 40
0.24
340
0
 40
0.24
300

 40
0.36
280
     3
 71
     2
340
8
 90
       25
 71
     3
340
16
 40
0.24
 90
        1
 40
0.75
 90
        1
300
%<\AcVar ViewType \f "%tc1">% %<\AcVar ViewDetailId>%\PSCALE %<\AcVar ViewScale \f "%sn">%
 71
     4
340
8
 90
       25
340
8
 90
       25
280
     0
  0
LAYOUT
  5
60
102
{ACAD_XDICTIONARY
360
1FD0
102
}
102
{ACAD_REACTORS
330
61
102
}
330
61
100
AcDbPlotSettings
  1

  2
Canon LBP-1420
  4
A4
  6

 40
5.873749733
 41
5.8737478256
 42
5.8737487793
 43
5.8737487793
 44
209.9733276367
 45
296.925994873
 46
0.0
 47
5.37
 48
0.0
 49
0.0
140
0.0
141
0.0
142
1.0
143
0.088099941
 70
 11956
 72
     1
 73
     1
 74
     1
  7
Sekkei.ctb
 75
     0
147
11.3507453947
148
-88.9740150773
149
-101.3630682339
100
AcDbLayout
  1
Model
 70
     1
 71
     0
 10
0.0
 20
0.0
 11
12.0
 21
9.0
 12
0.0
 22
0.0
 32
0.0
 14
0.0
 24
0.0
 34
0.0
 15
0.0
 25
0.0
 35
0.0
146
0.0
 13
0.0
 23
0.0
 33
0.0
 16
1.0
 26
0.0
 36
0.0
 17
0.0
 27
1.0
 37
0.0
 76
     0
330
2
331
1F48
  0
LAYOUT
  5
4C5E
102
{ACAD_XDICTIONARY
360
4CD3
102
}
102
{ACAD_REACTORS
330
61
102
}
330
61
100
AcDbPlotSettings
  1

  2
LBP8610
  4

  6

 40
0.0
 41
0.0
 42
0.0
 43
0.0
 44
0.0
 45
0.0
 46
0.0
 47
0.0
 48
0.0
 49
0.0
140
0.0
141
0.0
142
1.0
143
1.0
 70
   688
 72
     0
 73
     0
 74
     5
  7

 75
    16
147
1.0
148
0.0
149
0.0
100
AcDbLayout
  1
レイアウト1
 70
     1
 71
     1
 10
0.0
 20
0.0
 11
12.0
 21
9.0
 12
0.0
 22
0.0
 32
0.0
 14
0.0
 24
0.0
 34
0.0
 15
0.0
 25
0.0
 35
0.0
146
0.0
 13
0.0
 23
0.0
 33
0.0
 16
1.0
 26
0.0
 36
0.0
 17
0.0
 27
1.0
 37
0.0
 76
     0
330
4C5D
  0
MATERIAL
  5
1F53
102
{ACAD_XDICTIONARY
360
1F54
102
}
102
{ACAD_REACTORS
330
1F4A
102
}
330
1F4A
100
AcDbMaterial
  1
ByBlock
 72
     0
 43
0.0208333333
 43
0.0
 43
0.0
 43
0.0
 43
0.0
 43
0.0208333333
 43
0.0
 43
0.0
 43
0.0
 43
0.0
 43
1.0
 43
0.0
 43
0.0
 43
0.0
 43
0.0
 43
1.0
 77
     0
 47
0.0208333333
 47
0.0
 47
0.0
 47
0.0
 47
0.0
 47
0.0208333333
 47
0.0
 47
0.0
 47
0.0
 47
0.0
 47
1.0
 47
0.0
 47
0.0
 47
0.0
 47
0.0
 47
1.0
171
     0
 49
0.0208333333
 49
0.0
 49
0.0
 49
0.0
 49
0.0
 49
0.0208333333
 49
0.0
 49
0.0
 49
0.0
 49
0.0
 49
1.0
 49
0.0
 49
0.0
 49
0.0
 49
0.0
 49
1.0
175
     0
142
0.0208333333
142
0.0
142
0.0
142
0.0
142
0.0
142
0.0208333333
142
0.0
142
0.0
142
0.0
142
0.0
142
1.0
142
0.0
142
0.0
142
0.0
142
0.0
142
1.0
179
     0
144
0.0208333333
144
0.0
144
0.0
144
0.0
144
0.0
144
0.0208333333
144
0.0
144
0.0
144
0.0
144
0.0
144
1.0
144
0.0
144
0.0
144
0.0
144
0.0
144
1.0
147
0.0208333333
147
0.0
147
0.0
147
0.0
147
0.0
147
0.0208333333
147
0.0
147
0.0
147
0.0
147
0.0
147
1.0
147
0.0
147
0.0
147
0.0
147
0.0
147
1.0
  0
MATERIAL
  5
1F4B
102
{ACAD_XDICTIONARY
360
1F4C
102
}
102
{ACAD_REACTORS
330
1F4A
102
}
330
1F4A
100
AcDbMaterial
  1
ByLayer
 72
     0
 43
0.0208333333
 43
0.0
 43
0.0
 43
0.0
 43
0.0
 43
0.0208333333
 43
0.0
 43
0.0
 43
0.0
 43
0.0
 43
1.0
 43
0.0
 43
0.0
 43
0.0
 43
0.0
 43
1.0
 77
     0
 47
0.0208333333
 47
0.0
 47
0.0
 47
0.0
 47
0.0
 47
0.0208333333
 47
0.0
 47
0.0
 47
0.0
 47
0.0
 47
1.0
 47
0.0
 47
0.0
 47
0.0
 47
0.0
 47
1.0
171
     0
 49
0.0208333333
 49
0.0
 49
0.0
 49
0.0
 49
0.0
 49
0.0208333333
 49
0.0
 49
0.0
 49
0.0
 49
0.0
 49
1.0
 49
0.0
 49
0.0
 49
0.0
 49
0.0
 49
1.0
175
     0
142
0.0208333333
142
0.0
142
0.0
142
0.0
142
0.0
142
0.0208333333
142
0.0
142
0.0
142
0.0
142
0.0
142
1.0
142
0.0
142
0.0
142
0.0
142
0.0
142
1.0
179
     0
144
0.0208333333
144
0.0
144
0.0
144
0.0
144
0.0
144
0.0208333333
144
0.0
144
0.0
144
0.0
144
0.0
144
1.0
144
0.0
144
0.0
144
0.0
144
0.0
144
1.0
147
0.0208333333
147
0.0
147
0.0
147
0.0
147
0.0
147
0.0208333333
147
0.0
147
0.0
147
0.0
147
0.0
147
1.0
147
0.0
147
0.0
147
0.0
147
0.0
147
1.0
  0
MATERIAL
  5
1F5B
102
{ACAD_XDICTIONARY
360
1F5C
102
}
102
{ACAD_REACTORS
330
1F4A
102
}
330
1F4A
100
AcDbMaterial
  1
Global
 72
     0
 43
0.0208333333
 43
0.0
 43
0.0
 43
0.0
 43
0.0
 43
0.0208333333
 43
0.0
 43
0.0
 43
0.0
 43
0.0
 43
1.0
 43
0.0
 43
0.0
 43
0.0
 43
0.0
 43
1.0
 77
     0
 47
0.0208333333
 47
0.0
 47
0.0
 47
0.0
 47
0.0
 47
0.0208333333
 47
0.0
 47
0.0
 47
0.0
 47
0.0
 47
1.0
 47
0.0
 47
0.0
 47
0.0
 47
0.0
 47
1.0
171
     0
 49
0.0208333333
 49
0.0
 49
0.0
 49
0.0
 49
0.0
 49
0.0208333333
 49
0.0
 49
0.0
 49
0.0
 49
0.0
 49
1.0
 49
0.0
 49
0.0
 49
0.0
 49
0.0
 49
1.0
175
     0
142
0.0208333333
142
0.0
142
0.0
142
0.0
142
0.0
142
0.0208333333
142
0.0
142
0.0
142
0.0
142
0.0
142
1.0
142
0.0
142
0.0
142
0.0
142
0.0
142
1.0
179
     0
144
0.0208333333
144
0.0
144
0.0
144
0.0
144
0.0
144
0.0208333333
144
0.0
144
0.0
144
0.0
144
0.0
144
1.0
144
0.0
144
0.0
144
0.0
144
0.0
144
1.0
147
0.0208333333
147
0.0
147
0.0
147
0.0
147
0.0
147
0.0208333333
147
0.0
147
0.0
147
0.0
147
0.0
147
1.0
147
0.0
147
0.0
147
0.0
147
0.0
147
1.0
  0
MLEADERSTYLE
  5
1F9D
102
{ACAD_REACTORS
330
1F9C
102
}
330
1F9C
100
AcDbMLeaderStyle
170
     2
171
     1
172
     0
 90
        2
 40
0.0
 41
0.0
173
     1
 91
-1056964608
340
6A
 92
       -2
290
     1
 42
0.09
291
     1
 43
0.36
  3
Standard
 44
0.18
300

342
16
174
     1
178
     6
175
     1
176
     0
 93
-1056964608
 45
0.18
292
     0
297
     0
 46
0.18
 94
-1056964608
 47
1.0
 49
1.0
140
1.0
293
     1
141
0.0
294
     1
177
     0
142
1.0
295
     0
296
     0
143
0.125
1001
ACAD_MLEADERVER
1070
     2
  0
MLINESTYLE
  5
78
102
{ACAD_REACTORS
330
76
102
}
330
76
100
AcDbMlineStyle
  2
STANDARD
 70
     0
  3

 62
     0
 51
90.0
 52
90.0
 71
     2
 49
0.5
 62
   256
  6
BYLAYER
 49
-0.5
 62
   256
  6
BYLAYER
  0
ACDBPLACEHOLDER
  5
5
102
{ACAD_REACTORS
330
6
102
}
330
6
  0
SCALE
  5
1F7B
102
{ACAD_REACTORS
330
1F7A
102
}
330
1F7A
100
AcDbScale
 70
     0
300
1:1
140
1.0
141
1.0
290
     1
  0
SCALE
  5
1F7C
102
{ACAD_REACTORS
330
1F7A
102
}
330
1F7A
100
AcDbScale
 70
     0
300
1:2
140
1.0
141
2.0
290
     0
  0
SCALE
  5
1F7D
102
{ACAD_REACTORS
330
1F7A
102
}
330
1F7A
100
AcDbScale
 70
     0
300
1:4
140
1.0
141
4.0
290
     0
  0
SCALE
  5
1F7E
102
{ACAD_REACTORS
330
1F7A
102
}
330
1F7A
100
AcDbScale
 70
     0
300
1:5
140
1.0
141
5.0
290
     0
  0
SCALE
  5
1F7F
102
{ACAD_REACTORS
330
1F7A
102
}
330
1F7A
100
AcDbScale
 70
     0
300
1:8
140
1.0
141
8.0
290
     0
  0
SCALE
  5
1F80
102
{ACAD_REACTORS
330
1F7A
102
}
330
1F7A
100
AcDbScale
 70
     0
300
1:10
140
1.0
141
10.0
290
     0
  0
SCALE
  5
1F81
102
{ACAD_REACTORS
330
1F7A
102
}
330
1F7A
100
AcDbScale
 70
     0
300
1:16
140
1.0
141
16.0
290
     0
  0
SCALE
  5
1F82
102
{ACAD_REACTORS
330
1F7A
102
}
330
1F7A
100
AcDbScale
 70
     0
300
1:20
140
1.0
141
20.0
290
     0
  0
SCALE
  5
1F83
102
{ACAD_REACTORS
330
1F7A
102
}
330
1F7A
100
AcDbScale
 70
     0
300
1:30
140
1.0
141
30.0
290
     0
  0
SCALE
  5
1F84
102
{ACAD_REACTORS
330
1F7A
102
}
330
1F7A
100
AcDbScale
 70
     0
300
1:40
140
1.0
141
40.0
290
     0
  0
SCALE
  5
1F85
102
{ACAD_REACTORS
330
1F7A
102
}
330
1F7A
100
AcDbScale
 70
     0
300
1:50
140
1.0
141
50.0
290
     0
  0
SCALE
  5
1F86
102
{ACAD_REACTORS
330
1F7A
102
}
330
1F7A
100
AcDbScale
 70
     0
300
1:100
140
1.0
141
100.0
290
     0
  0
SCALE
  5
1F87
102
{ACAD_REACTORS
330
1F7A
102
}
330
1F7A
100
AcDbScale
 70
     0
300
2:1
140
2.0
141
1.0
290
     0
  0
SCALE
  5
1F88
102
{ACAD_REACTORS
330
1F7A
102
}
330
1F7A
100
AcDbScale
 70
     0
300
4:1
140
4.0
141
1.0
290
     0
  0
SCALE
  5
1F89
102
{ACAD_REACTORS
330
1F7A
102
}
330
1F7A
100
AcDbScale
 70
     0
300
8:1
140
8.0
141
1.0
290
     0
  0
SCALE
  5
1F8A
102
{ACAD_REACTORS
330
1F7A
102
}
330
1F7A
100
AcDbScale
 70
     0
300
10:1
140
10.0
141
1.0
290
     0
  0
SCALE
  5
1F8B
102
{ACAD_REACTORS
330
1F7A
102
}
330
1F7A
100
AcDbScale
 70
     0
300
100:1
140
100.0
141
1.0
290
     0
  0
SCALE
  5
1F8C
102
{ACAD_REACTORS
330
1F7A
102
}
330
1F7A
100
AcDbScale
 70
     0
300
1/128" = 1'-0"
140
0.0078125
141
12.0
290
     0
  0
SCALE
  5
1F8D
102
{ACAD_REACTORS
330
1F7A
102
}
330
1F7A
100
AcDbScale
 70
     0
300
1/64" = 1'-0"
140
0.015625
141
12.0
290
     0
  0
SCALE
  5
1F8E
102
{ACAD_REACTORS
330
1F7A
102
}
330
1F7A
100
AcDbScale
 70
     0
300
1/32" = 1'-0"
140
0.03125
141
12.0
290
     0
  0
SCALE
  5
1F8F
102
{ACAD_REACTORS
330
1F7A
102
}
330
1F7A
100
AcDbScale
 70
     0
300
1/16" = 1'-0"
140
0.0625
141
12.0
290
     0
  0
SCALE
  5
1F90
102
{ACAD_REACTORS
330
1F7A
102
}
330
1F7A
100
AcDbScale
 70
     0
300
3/32" = 1'-0"
140
0.09375
141
12.0
290
     0
  0
SCALE
  5
1F91
102
{ACAD_REACTORS
330
1F7A
102
}
330
1F7A
100
AcDbScale
 70
     0
300
1/8" = 1'-0"
140
0.125
141
12.0
290
     0
  0
SCALE
  5
1F92
102
{ACAD_REACTORS
330
1F7A
102
}
330
1F7A
100
AcDbScale
 70
     0
300
3/16" = 1'-0"
140
0.1875
141
12.0
290
     0
  0
SCALE
  5
1F93
102
{ACAD_REACTORS
330
1F7A
102
}
330
1F7A
100
AcDbScale
 70
     0
300
1/4" = 1'-0"
140
0.25
141
12.0
290
     0
  0
SCALE
  5
1F94
102
{ACAD_REACTORS
330
1F7A
102
}
330
1F7A
100
AcDbScale
 70
     0
300
3/8" = 1'-0"
140
0.375
141
12.0
290
     0
  0
SCALE
  5
1F95
102
{ACAD_REACTORS
330
1F7A
102
}
330
1F7A
100
AcDbScale
 70
     0
300
1/2" = 1'-0"
140
0.5
141
12.0
290
     0
  0
SCALE
  5
1F96
102
{ACAD_REACTORS
330
1F7A
102
}
330
1F7A
100
AcDbScale
 70
     0
300
3/4" = 1'-0"
140
0.75
141
12.0
290
     0
  0
SCALE
  5
1F97
102
{ACAD_REACTORS
330
1F7A
102
}
330
1F7A
100
AcDbScale
 70
     0
300
1" = 1'-0"
140
1.0
141
12.0
290
     0
  0
SCALE
  5
1F98
102
{ACAD_REACTORS
330
1F7A
102
}
330
1F7A
100
AcDbScale
 70
     0
300
1-1/2" = 1'-0"
140
1.5
141
12.0
290
     0
  0
SCALE
  5
1F99
102
{ACAD_REACTORS
330
1F7A
102
}
330
1F7A
100
AcDbScale
 70
     0
300
3" = 1'-0"
140
3.0
141
12.0
290
     0
  0
SCALE
  5
1F9A
102
{ACAD_REACTORS
330
1F7A
102
}
330
1F7A
100
AcDbScale
 70
     0
300
6" = 1'-0"
140
6.0
141
12.0
290
     0
  0
SCALE
  5
1F9B
102
{ACAD_REACTORS
330
1F7A
102
}
330
1F7A
100
AcDbScale
 70
     0
300
1'-0" = 1'-0"
140
12.0
141
12.0
290
     0
  0
ACDBSECTIONVIEWSTYLE
  5
429C
102
{ACAD_XDICTIONARY
360
4CC3
102
}
102
{ACAD_REACTORS
330
429B
102
}
330
429B
100
AcDbModelDocViewStyle
 70
     0
  3
Imperial24
290
     0
100
AcDbSectionViewStyle
 70
     0
 71
     0
 90
       78
 71
     1
340
16
 40
0.24
340
0
340
0
 40
0.24
300
I, O, Q, S, X, Z
 40
0.48
 90
        3
 40
0.18
 90
        1
 71
     2
340
8
 90
       25
340
8
 90
       50
 40
0.24
 40
0.0
 40
0.24
 71
     3
340
16
 40
0.24
 90
        1
 40
0.75
 90
        1
300
%<\AcVar ViewType \f "%tc1">% %<\AcVar ViewSectionStartId>%-%<\AcVar ViewSectionEndId>%\PSCALE %<\AcVar ViewScale \f "%sn">%
 71
     4
300
ANSI31
 40
1.0
 90
        0
290
     0
290
     0
 90
        6
 40
0.0
 40
1.5707963268
 40
0.2617993878
 40
1.308996939
 40
-0.2617993878
 40
1.8325957146
  0
TABLESTYLE
  5
1F79
102
{ACAD_XDICTIONARY
360
2504
102
}
102
{ACAD_REACTORS
330
1F78
102
}
330
1F78
100
AcDbTableStyle
  3
Standard
 70
     0
 71
     0
 40
0.06
 41
0.06
280
     0
281
     0
  7
STANDARD
140
0.18
170
     2
 62
     0
 63
     7
283
     0
274
    -2
284
     1
 64
     0
275
    -2
285
     1
 65
     0
276
    -2
286
     1
 66
     0
277
    -2
287
     1
 67
     0
278
    -2
288
     1
 68
     0
279
    -2
289
     1
 69
     0
  7
STANDARD
140
0.25
170
     5
 62
     0
 63
     7
283
     0
274
    -2
284
     1
 64
     0
275
    -2
285
     1
 65
     0
276
    -2
286
     1
 66
     0
277
    -2
287
     1
 67
     0
278
    -2
288
     1
 68
     0
279
    -2
289
     1
 69
     0
  7
STANDARD
140
0.18
170
     5
 62
     0
 63
     7
283
     0
274
    -2
284
     1
 64
     0
275
    -2
285
     1
 65
     0
276
    -2
286
     1
 66
     0
277
    -2
287
     1
 67
     0
278
    -2
288
     1
 68
     0
279
    -2
289
     1
 69
     0
  0
VISUALSTYLE
  5
1F69
102
{ACAD_XDICTIONARY
360
4C74
102
}
102
{ACAD_REACTORS
330
1F63
102
}
330
1F63
100
AcDbVisualStyle
  2

 70
     4
 71
     0
 72
     2
 73
     0
 90
        0
 40
-0.6
 41
-30.0
 62
     5
 63
     7
 74
     1
 91
        4
 64
     7
 65
   257
 75
     1
175
     1
 42
1.0
 92
        0
 66
   257
 43
1.0
 76
     1
 77
     6
 78
     2
 67
     7
 79
     5
170
     0
171
     0
290
     0
174
     0
 93
        1
 44
0.0
173
     0
291
     0
 45
0.0
1001
ACAD
1000
AcDbSavedByObjectVersion
1070
     0
  0
VISUALSTYLE
  5
1F6B
102
{ACAD_XDICTIONARY
360
4C78
102
}
102
{ACAD_REACTORS
330
1F63
102
}
330
1F63
100
AcDbVisualStyle
  2

 70
     6
 71
     1
 72
     2
 73
     2
 90
        0
 40
-0.6
 41
-30.0
 62
     5
 63
     7
 74
     2
 91
        2
 64
     7
 65
   257
 75
     2
175
     1
 42
179.0
 92
        0
 66
   257
 43
1.0
 76
     1
 77
     6
 78
     2
 67
     7
 79
     3
170
     0
171
     0
290
     0
174
     0
 93
        1
 44
0.0
173
     0
291
     0
 45
0.0
1001
ACAD
1000
AcDbSavedByObjectVersion
1070
     0
  0
VISUALSTYLE
  5
1F6A
102
{ACAD_XDICTIONARY
360
4C76
102
}
102
{ACAD_REACTORS
330
1F63
102
}
330
1F63
100
AcDbVisualStyle
  2

 70
     5
 71
     0
 72
     2
 73
     0
 90
        0
 40
-0.6
 41
-30.0
 62
     5
 63
     7
 74
     1
 91
        4
 64
     7
 65
   257
 75
     1
175
     1
 42
1.0
 92
        0
 66
   257
 43
1.0
 76
     1
 77
     6
 78
     2
 67
     7
 79
     5
170
     0
171
     0
290
     0
174
     0
 93
        1
 44
0.0
173
     0
291
     0
 45
0.0
1001
ACAD
1000
AcDbSavedByObjectVersion
1070
     0
  0
VISUALSTYLE
  5
1F68
102
{ACAD_XDICTIONARY
360
4C72
102
}
102
{ACAD_REACTORS
330
1F63
102
}
330
1F63
100
AcDbVisualStyle
  2

 70
     7
 71
     1
 72
     0
 73
     1
 90
        0
 40
-0.6
 41
-30.0
 62
     5
 63
     7
 74
     0
 91
        4
 64
     7
 65
   257
 75
     1
175
     1
 42
1.0
 92
        8
 66
     7
 43
1.0
 76
     1
 77
     6
 78
     2
 67
     7
 79
     5
170
     0
171
     0
290
     0
174
     0
 93
        1
 44
0.0
173
     0
291
     1
 45
0.0
1001
ACAD
1000
AcDbSavedByObjectVersion
1070
     0
  0
VISUALSTYLE
  5
1F6F
102
{ACAD_XDICTIONARY
360
4C80
102
}
102
{ACAD_REACTORS
330
1F63
102
}
330
1F63
100
AcDbVisualStyle
  2

 70
    12
 71
     2
 72
     2
 73
     0
 90
        0
 40
-0.6
 41
-30.0
 62
     5
 63
     7
 74
     1
 91
        4
 64
     7
 65
   257
 75
     1
175
     1
 42
1.0
 92
        8
 66
     7
 43
1.0
 76
     1
 77
     6
 78
     2
 67
     7
 79
     5
170
     0
171
     0
290
     0
174
     0
 93
        1
 44
50.0
173
     0
291
     1
 45
0.0
1001
ACAD
1000
AcDbSavedByObjectVersion
1070
     0
  0
VISUALSTYLE
  5
1F73
102
{ACAD_XDICTIONARY
360
4C88
102
}
102
{ACAD_REACTORS
330
1F63
102
}
330
1F63
100
AcDbVisualStyle
  2

 70
    16
 71
     2
 72
     2
 73
     3
 90
        0
 40
-0.6
 41
-30.0
 62
     5
 63
     8
 74
     1
 91
        4
 64
     7
 65
   257
 75
     1
175
     1
 42
1.0
 92
        8
 66
     8
 43
1.0
 76
     1
 77
     6
 78
     2
 67
     7
 79
     5
170
     0
171
     0
290
     0
174
     0
 93
        1
 44
0.0
173
     0
291
     1
 45
0.0
1001
ACAD
1000
AcDbSavedByObjectVersion
1070
     0
  0
VISUALSTYLE
  5
1F6C
102
{ACAD_XDICTIONARY
360
4C7A
102
}
102
{ACAD_REACTORS
330
1F63
102
}
330
1F63
100
AcDbVisualStyle
  2

 70
     9
 71
     3
 72
     2
 73
     0
 90
        0
 40
-0.6
 41
-30.0
 62
     5
 63
     7
 74
     2
 91
        2
 64
     7
 65
   257
 75
     1
175
     1
 42
179.0
 92
        8
 66
     7
 43
1.0
 76
     1
 77
     6
 78
     2
 67
     7
 79
     3
170
     0
171
     0
290
     0
174
     0
 93
        1
 44
0.0
173
     0
291
     0
 45
0.0
1001
ACAD
1000
AcDbSavedByObjectVersion
1070
     0
  0
VISUALSTYLE
  5
1F6E
102
{ACAD_XDICTIONARY
360
4C7E
102
}
102
{ACAD_REACTORS
330
1F63
102
}
330
1F63
100
AcDbVisualStyle
  2

 70
    11
 71
     2
 72
     2
 73
     0
 90
        0
 40
-0.6
 41
-30.0
 62
     5
 63
     7
 74
     1
 91
        4
 64
     7
 65
   257
 75
     1
175
     1
 42
1.0
 92
        8
 66
     7
 43
1.0
 76
     1
 77
     6
 78
     2
 67
     7
 79
     5
170
     0
171
     0
290
     0
174
     0
 93
        1
 44
-50.0
173
     0
291
     1
 45
0.0
1001
ACAD
1000
AcDbSavedByObjectVersion
1070
     0
  0
VISUALSTYLE
  5
1F76
102
{ACAD_XDICTIONARY
360
4C8E
102
}
102
{ACAD_REACTORS
330
1F63
102
}
330
1F63
100
AcDbVisualStyle
  2

 70
    22
 71
     2
 72
     2
 73
     0
 90
        0
 40
-0.6
 41
-30.0
 62
     5
 63
     7
 74
     1
 91
        4
 64
     7
 65
   257
 75
     1
175
     1
 42
1.0
 92
        8
 66
     7
 43
1.0
 76
     1
 77
     6
 78
     2
 67
     7
 79
     5
170
     0
171
     0
290
     0
174
     0
 93
        1
 44
0.0
173
     0
291
     1
 45
0.0
1001
ACAD
1000
AcDbSavedByObjectVersion
1070
     0
  0
VISUALSTYLE
  5
1F72
102
{ACAD_XDICTIONARY
360
4C86
102
}
102
{ACAD_REACTORS
330
1F63
102
}
330
1F63
100
AcDbVisualStyle
  2

 70
    15
 71
     2
 72
     2
 73
     0
 90
        0
 40
-0.6
 41
-30.0
 62
     5
 63
     7
 74
     1
 91
        4
 64
     7
 65
   257
 75
     1
175
     1
 42
1.0
 92
        8
 66
     7
 43
1.0
 76
     1
 77
     6
 78
     2
 67
     7
 79
     5
170
     0
171
     0
290
     0
174
     0
 93
        1
 44
0.0
173
     0
291
     1
 45
0.0
1001
ACAD
1000
AcDbSavedByObjectVersion
1070
     0
  0
VISUALSTYLE
  5
1F64
102
{ACAD_XDICTIONARY
360
4C6A
102
}
102
{ACAD_REACTORS
330
1F63
102
}
330
1F63
100
AcDbVisualStyle
  2

 70
     0
 71
     2
 72
     1
 73
     1
 90
        2
 40
-0.6
 41
30.0
 62
     5
 63
     7
 74
     0
 91
        4
 64
     7
 65
   257
 75
     1
175
     1
 42
1.0
 92
        8
 66
     7
 43
1.0
 76
     1
 77
     6
 78
     2
 67
     7
 79
     5
170
     0
171
     0
290
     0
174
     0
 93
       13
 44
0.0
173
     0
291
     1
 45
0.0
1001
ACAD
1000
AcDbSavedByObjectVersion
1070
     0
  0
VISUALSTYLE
  5
1F65
102
{ACAD_XDICTIONARY
360
4C6C
102
}
102
{ACAD_REACTORS
330
1F63
102
}
330
1F63
100
AcDbVisualStyle
  2

 70
     1
 71
     2
 72
     1
 73
     1
 90
        2
 40
-0.6
 41
30.0
 62
     5
 63
     7
 74
     1
 91
        4
 64
     7
 65
   257
 75
     1
175
     1
 42
1.0
 92
        0
 66
   257
 43
1.0
 76
     1
 77
     6
 78
     2
 67
     7
 79
     5
170
     0
171
     0
290
     0
174
     0
 93
       13
 44
0.0
173
     0
291
     1
 45
0.0
1001
ACAD
1000
AcDbSavedByObjectVersion
1070
     0
  0
VISUALSTYLE
  5
1F66
102
{ACAD_XDICTIONARY
360
4C6E
102
}
102
{ACAD_REACTORS
330
1F63
102
}
330
1F63
100
AcDbVisualStyle
  2

 70
     2
 71
     2
 72
     2
 73
     1
 90
        2
 40
-0.6
 41
30.0
 62
     5
 63
     7
 74
     0
 91
        4
 64
     7
 65
   257
 75
     1
175
     1
 42
1.0
 92
        0
 66
     7
 43
1.0
 76
     1
 77
     6
 78
     2
 67
     7
 79
     5
170
     0
171
     0
290
     0
174
     0
 93
       13
 44
0.0
173
     0
291
     1
 45
0.0
1001
ACAD
1000
AcDbSavedByObjectVersion
1070
     0
  0
VISUALSTYLE
  5
1F67
102
{ACAD_XDICTIONARY
360
4C70
102
}
102
{ACAD_REACTORS
330
1F63
102
}
330
1F63
100
AcDbVisualStyle
  2

 70
     3
 71
     2
 72
     2
 73
     1
 90
        2
 40
-0.6
 41
30.0
 62
     5
 63
     7
 74
     1
 91
        4
 64
     7
 65
   257
 75
     1
175
     1
 42
1.0
 92
        0
 66
   257
 43
1.0
 76
     1
 77
     6
 78
     2
 67
     7
 79
     5
170
     0
171
     0
290
     0
174
     0
 93
       13
 44
0.0
173
     0
291
     1
 45
0.0
1001
ACAD
1000
AcDbSavedByObjectVersion
1070
     0
  0
VISUALSTYLE
  5
3BB8
102
{ACAD_XDICTIONARY
360
4CB7
102
}
102
{ACAD_REACTORS
330
1F63
102
}
330
1F63
100
AcDbVisualStyle
  2

 70
     6
 71
     1
 72
     2
 73
     2
 90
        0
 40
-0.6
 41
-30.0
 62
     5
 63
     7
 74
     2
 91
        2
 64
     7
 65
   257
 75
     2
175
     1
 42
40.0
 92
        0
 66
   257
 43
1.0
 76
     1
 77
     6
 78
     2
 67
     7
 79
     3
170
     0
171
     0
290
     0
174
     0
 93
        1
 44
0.0
173
     0
291
     0
 45
0.0
1001
ACAD
1000
AcDbSavedByObjectVersion
1070
     0
  0
VISUALSTYLE
  5
1F74
102
{ACAD_XDICTIONARY
360
4C8A
102
}
102
{ACAD_REACTORS
330
1F63
102
}
330
1F63
100
AcDbVisualStyle
  2

 70
    20
 71
     2
 72
     2
 73
     0
 90
        0
 40
-0.6
 41
-30.0
 62
     5
 63
     7
 74
     1
 91
        4
 64
     7
 65
   257
 75
     1
175
     1
 42
1.0
 92
       10
 66
     7
 43
1.0
 76
     1
 77
     6
 78
     2
 67
     7
 79
     5
170
     0
171
     0
290
     0
174
     0
 93
        1
 44
0.0
173
     0
291
     1
 45
0.0
1001
ACAD
1000
AcDbSavedByObjectVersion
1070
     0
  0
VISUALSTYLE
  5
1F71
102
{ACAD_XDICTIONARY
360
4C84
102
}
102
{ACAD_REACTORS
330
1F63
102
}
330
1F63
100
AcDbVisualStyle
  2

 70
    14
 71
     2
 72
     2
 73
     0
 90
        0
 40
-0.6
 41
-30.0
 62
     5
 63
     7
 74
     1
 91
        4
 64
     7
 65
   257
 75
     7
175
     7
 42
1.0
 92
        8
 66
     7
 43
1.0
 76
     1
 77
     6
 78
     2
 67
     7
 79
     5
170
     0
171
     0
290
     0
174
     0
 93
        1
 44
0.0
173
     0
291
     1
 45
0.0
1001
ACAD
1000
AcDbSavedByObjectVersion
1070
     0
  0
VISUALSTYLE
  5
1F75
102
{ACAD_XDICTIONARY
360
4C8C
102
}
102
{ACAD_REACTORS
330
1F63
102
}
330
1F63
100
AcDbVisualStyle
  2

 70
    21
 71
     2
 72
     2
 73
     0
 90
        0
 40
-0.6
 41
-30.0
 62
     5
 63
     7
 74
     1
 91
        4
 64
     7
 65
   257
 75
     1
175
     1
 42
1.0
 92
        9
 66
     7
 43
1.0
 76
     1
 77
     6
 78
     2
 67
     7
 79
     5
170
     0
171
     0
290
     0
174
     0
 93
        1
 44
0.0
173
     0
291
     1
 45
0.0
1001
ACAD
1000
AcDbSavedByObjectVersion
1070
     0
  0
VISUALSTYLE
  5
1F6D
102
{ACAD_XDICTIONARY
360
4C7C
102
}
102
{ACAD_REACTORS
330
1F63
102
}
330
1F63
100
AcDbVisualStyle
  2

 70
     8
 71
     2
 72
     2
 73
     0
 90
        0
 40
-0.6
 41
-30.0
 62
     5
 63
     7
 74
     1
 91
        0
 64
     7
 65
   257
 75
     1
175
     1
 42
1.0
 92
        8
 66
     8
 43
1.0
 76
     1
 77
     6
 78
     2
 67
     7
 79
     5
170
     0
171
     0
290
     0
174
     0
 93
       13
 44
0.0
173
     0
291
     0
 45
0.0
1001
ACAD
1000
AcDbSavedByObjectVersion
1070
     0
  0
VISUALSTYLE
  5
3BBD
102
{ACAD_XDICTIONARY
360
4CC1
102
}
102
{ACAD_REACTORS
330
1F63
102
}
330
1F63
100
AcDbVisualStyle
  2

 70
    27
 71
     2
 72
     2
 73
     1
 90
        2
 40
-0.6
 41
30.0
 62
     5
 63
     7
 74
     0
 91
        4
 64
     7
 65
   257
 75
     1
175
     1
 42
1.0
 92
        8
 66
   257
 43
1.0
 76
     1
 77
     6
 78
     2
 67
     8
 79
     3
170
     0
171
     0
290
     0
174
     0
 93
        5
 44
0.0
173
     0
291
     0
 45
0.0
1001
ACAD
1000
AcDbSavedByObjectVersion
1070
     0
  0
VISUALSTYLE
  5
3BBC
102
{ACAD_XDICTIONARY
360
4CBF
102
}
102
{ACAD_REACTORS
330
1F63
102
}
330
1F63
100
AcDbVisualStyle
  2

 70
    26
 71
     2
 72
     2
 73
     1
 90
        2
 40
-0.6
 41
30.0
 62
     5
 63
     7
 74
     1
 91
        2
 64
     7
 65
   257
 75
     2
175
     1
 42
1.0
 92
        8
 66
   257
 43
1.0
 76
     1
 77
     6
 78
     2
 67
     7
 79
     3
170
     0
171
     0
290
     0
174
     0
 93
        5
 44
0.0
173
     0
291
     0
 45
0.0
1001
ACAD
1000
AcDbSavedByObjectVersion
1070
     0
  0
VISUALSTYLE
  5
3BB9
102
{ACAD_XDICTIONARY
360
4CB9
102
}
102
{ACAD_REACTORS
330
1F63
102
}
330
1F63
100
AcDbVisualStyle
  2

 70
    23
 71
     2
 72
     2
 73
     3
 90
        0
 40
-0.6
 41
-30.0
 62
     5
 63
     7
 74
     2
 91
        2
 64
     7
 65
     7
 75
     1
175
     1
 42
40.0
 92
        8
 66
     7
 43
1.0
 76
     1
 77
     6
 78
     2
 67
     7
 79
     3
170
     0
171
     0
290
     0
174
     0
 93
        1
 44
0.0
173
     0
291
     0
 45
0.0
1001
ACAD
1000
AcDbSavedByObjectVersion
1070
     0
  0
VISUALSTYLE
  5
3BBA
102
{ACAD_XDICTIONARY
360
4CBB
102
}
102
{ACAD_REACTORS
330
1F63
102
}
330
1F63
100
AcDbVisualStyle
  2

 70
    24
 71
     1
 72
     2
 73
     2
 90
        0
 40
-0.6
 41
-30.0
 62
     5
 63
     7
 74
     2
 91
        2
 64
     7
 65
     7
 75
     1
175
     1
 42
40.0
 92
       11
 66
     7
 43
1.0
 76
     1
 77
     6
 78
     2
 67
     7
 79
     6
170
     0
171
     0
290
     0
174
     0
 93
        1
 44
0.0
173
     0
291
     0
 45
0.0
1001
ACAD
1000
AcDbSavedByObjectVersion
1070
     0
  0
VISUALSTYLE
  5
1F70
102
{ACAD_XDICTIONARY
360
4C82
102
}
102
{ACAD_REACTORS
330
1F63
102
}
330
1F63
100
AcDbVisualStyle
  2

 70
    13
 71
     2
 72
     2
 73
     0
 90
        0
 40
-0.6
 41
-30.0
 62
     5
 63
     7
 74
     1
 91
        4
 64
     7
 65
   257
 75
     1
175
     1
 42
1.0
 92
       12
 66
     7
 43
1.0
 76
     1
 77
     6
 78
     2
 67
     7
 79
     5
170
     0
171
     0
290
     0
174
     0
 93
        1
 44
0.0
173
     0
291
     1
 45
0.0
1001
ACAD
1000
AcDbSavedByObjectVersion
1070
     0
  0
VISUALSTYLE
  5
3BB7
102
{ACAD_XDICTIONARY
360
4CB5
102
}
102
{ACAD_REACTORS
330
1F63
102
}
330
1F63
100
AcDbVisualStyle
  2

 70
     5
 71
     0
 72
     2
 73
     0
 90
        0
 40
-0.6
 41
-30.0
 62
     5
 63
     7
 74
     1
 91
        4
 64
     7
 65
   257
 75
     1
175
     1
 42
1.0
 92
        0
 66
   257
 43
1.0
 76
     1
 77
     6
 78
     2
 67
     7
 79
     3
170
     0
171
     0
290
     0
174
     0
 93
        1
 44
0.0
173
     0
291
     0
 45
0.0
1001
ACAD
1000
AcDbSavedByObjectVersion
1070
     0
  0
VISUALSTYLE
  5
3BBB
102
{ACAD_XDICTIONARY
360
4CBD
102
}
102
{ACAD_REACTORS
330
1F63
102
}
330
1F63
100
AcDbVisualStyle
  2

 70
    25
 71
     2
 72
     2
 73
     1
 90
        1
 40
0.5
 41
-30.0
 62
     5
 63
     7
 74
     1
 91
        0
 64
     7
 65
   257
 75
     1
175
     1
 42
1.0
 92
        8
 66
     7
 43
1.0
 76
     1
 77
     6
 78
     2
 67
     7
 79
     3
170
     0
171
     0
290
     0
174
     0
 93
       13
 44
0.0
173
     0
291
     0
 45
0.0
1001
ACAD
1000
AcDbSavedByObjectVersion
1070
     0
  0
DICTIONARYVAR
  5
25A1
102
{ACAD_REACTORS
330
102
102
}
330
102
100
DictionaryVariables
280
     0
  1
1:1
  0
DICTIONARYVAR
  5
25A0
102
{ACAD_REACTORS
330
102
102
}
330
102
100
DictionaryVariables
280
     0
  1
STANDARD
  0
DICTIONARYVAR
  5
259F
102
{ACAD_REACTORS
330
102
102
}
330
102
100
DictionaryVariables
280
     0
  1
STANDARD
  0
DICTIONARYVAR
  5
4382
102
{ACAD_REACTORS
330
102
102
}
330
102
100
DictionaryVariables
280
     0
  1
Imperial24
  0
DICTIONARYVAR
  5
4383
102
{ACAD_REACTORS
330
102
102
}
330
102
100
DictionaryVariables
280
     0
  1
Imperial24
  0
DICTIONARYVAR
  5
103
102
{ACAD_REACTORS
330
102
102
}
330
102
100
DictionaryVariables
280
     0
  1
1
  0
DICTIONARYVAR
  5
25A3
102
{ACAD_REACTORS
330
102
102
}
330
102
100
DictionaryVariables
280
     0
  1
0
  0
DICTIONARYVAR
  5
25A2
102
{ACAD_REACTORS
330
102
102
}
330
102
100
DictionaryVariables
280
     0
  1
127
  0
DICTIONARYVAR
  5
4C62
102
{ACAD_REACTORS
330
102
102
}
330
102
100
DictionaryVariables
280
     0
  1
2
  0
DICTIONARY
  5
4CC5
330
429E
100
AcDbDictionary
280
     1
281
     1
  3
ACAD_XREC_ROUNDTRIP
360
4CC6
  0
DICTIONARY
  5
1FD0
330
60
100
AcDbDictionary
280
     1
281
     1
  3
ACAD_XREC_ROUNDTRIP
360
4C66
  3
ADSK_XREC_LAYOUTTHUMBNAIL
360
1FD1
  0
DICTIONARY
  5
4CD3
330
4C5E
100
AcDbDictionary
280
     1
281
     1
  3
ACAD_XREC_ROUNDTRIP
360
4CD4
  0
DICTIONARY
  5
1F54
330
1F53
100
AcDbDictionary
280
     1
281
     1
  3
ACAD_XREC_ROUNDTRIP
360
4C68
  3
BUMPTILE
360
1F56
  3
DIFFUSETILE
360
1F55
  3
OPACITYTILE
360
1F59
  3
REFLECTIONTILE
360
1F58
  3
REFRACTIONTILE
360
1F5A
  3
SPECULARTILE
360
1F57
  0
DICTIONARY
  5
1F4C
330
1F4B
100
AcDbDictionary
280
     1
281
     1
  3
ACAD_XREC_ROUNDTRIP
360
4C67
  3
BUMPTILE
360
1F4E
  3
DIFFUSETILE
360
1F4D
  3
OPACITYTILE
360
1F51
  3
REFLECTIONTILE
360
1F50
  3
REFRACTIONTILE
360
1F52
  3
SPECULARTILE
360
1F4F
  0
DICTIONARY
  5
1F5C
330
1F5B
100
AcDbDictionary
280
     1
281
     1
  3
ACAD_XREC_ROUNDTRIP
360
4C69
  3
BUMPTILE
360
1F5E
  3
DIFFUSETILE
360
1F5D
  3
OPACITYTILE
360
1F61
  3
REFLECTIONTILE
360
1F60
  3
REFRACTIONTILE
360
1F62
  3
SPECULARTILE
360
1F5F
  0
DICTIONARY
  5
4CC3
330
429C
100
AcDbDictionary
280
     1
281
     1
  3
ACAD_XREC_ROUNDTRIP
360
4CC4
  0
DICTIONARY
  5
2504
330
1F79
100
AcDbDictionary
280
     1
281
     1
  3
ACAD_ROUNDTRIP_2008_TABLESTYLE_CELLSTYLEMAP
360
4C63
  3
ACAD_XREC_ROUNDTRIP
360
4C90
  0
DICTIONARY
  5
4C74
330
1F69
100
AcDbDictionary
280
     1
281
     1
  3
ACAD_XREC_ROUNDTRIP
360
4C75
  0
DICTIONARY
  5
4C78
330
1F6B
100
AcDbDictionary
280
     1
281
     1
  3
ACAD_XREC_ROUNDTRIP
360
4C79
  0
DICTIONARY
  5
4C76
330
1F6A
100
AcDbDictionary
280
     1
281
     1
  3
ACAD_XREC_ROUNDTRIP
360
4C77
  0
DICTIONARY
  5
4C72
330
1F68
100
AcDbDictionary
280
     1
281
     1
  3
ACAD_XREC_ROUNDTRIP
360
4C73
  0
DICTIONARY
  5
4C80
330
1F6F
100
AcDbDictionary
280
     1
281
     1
  3
ACAD_XREC_ROUNDTRIP
360
4C81
  0
DICTIONARY
  5
4C88
330
1F73
100
AcDbDictionary
280
     1
281
     1
  3
ACAD_XREC_ROUNDTRIP
360
4C89
  0
DICTIONARY
  5
4C7A
330
1F6C
100
AcDbDictionary
280
     1
281
     1
  3
ACAD_XREC_ROUNDTRIP
360
4C7B
  0
DICTIONARY
  5
4C7E
330
1F6E
100
AcDbDictionary
280
     1
281
     1
  3
ACAD_XREC_ROUNDTRIP
360
4C7F
  0
DICTIONARY
  5
4C8E
330
1F76
100
AcDbDictionary
280
     1
281
     1
  3
ACAD_XREC_ROUNDTRIP
360
4C8F
  0
DICTIONARY
  5
4C86
330
1F72
100
AcDbDictionary
280
     1
281
     1
  3
ACAD_XREC_ROUNDTRIP
360
4C87
  0
DICTIONARY
  5
4C6A
330
1F64
100
AcDbDictionary
280
     1
281
     1
  3
ACAD_XREC_ROUNDTRIP
360
4C6B
  0
DICTIONARY
  5
4C6C
330
1F65
100
AcDbDictionary
280
     1
281
     1
  3
ACAD_XREC_ROUNDTRIP
360
4C6D
  0
DICTIONARY
  5
4C6E
330
1F66
100
AcDbDictionary
280
     1
281
     1
  3
ACAD_XREC_ROUNDTRIP
360
4C6F
  0
DICTIONARY
  5
4C70
330
1F67
100
AcDbDictionary
280
     1
281
     1
  3
ACAD_XREC_ROUNDTRIP
360
4C71
  0
DICTIONARY
  5
4CB7
330
3BB8
100
AcDbDictionary
280
     1
281
     1
  3
ACAD_XREC_ROUNDTRIP
360
4CB8
  0
DICTIONARY
  5
4C8A
330
1F74
100
AcDbDictionary
280
     1
281
     1
  3
ACAD_XREC_ROUNDTRIP
360
4C8B
  0
DICTIONARY
  5
4C84
330
1F71
100
AcDbDictionary
280
     1
281
     1
  3
ACAD_XREC_ROUNDTRIP
360
4C85
  0
DICTIONARY
  5
4C8C
330
1F75
100
AcDbDictionary
280
     1
281
     1
  3
ACAD_XREC_ROUNDTRIP
360
4C8D
  0
DICTIONARY
  5
4C7C
330
1F6D
100
AcDbDictionary
280
     1
281
     1
  3
ACAD_XREC_ROUNDTRIP
360
4C7D
  0
DICTIONARY
  5
4CC1
330
3BBD
100
AcDbDictionary
280
     1
281
     1
  3
ACAD_XREC_ROUNDTRIP
360
4CC2
  0
DICTIONARY
  5
4CBF
330
3BBC
100
AcDbDictionary
280
     1
281
     1
  3
ACAD_XREC_ROUNDTRIP
360
4CC0
  0
DICTIONARY
  5
4CB9
330
3BB9
100
AcDbDictionary
280
     1
281
     1
  3
ACAD_XREC_ROUNDTRIP
360
4CBA
  0
DICTIONARY
  5
4CBB
330
3BBA
100
AcDbDictionary
280
     1
281
     1
  3
ACAD_XREC_ROUNDTRIP
360
4CBC
  0
DICTIONARY
  5
4C82
330
1F70
100
AcDbDictionary
280
     1
281
     1
  3
ACAD_XREC_ROUNDTRIP
360
4C83
  0
DICTIONARY
  5
4CB5
330
3BB7
100
AcDbDictionary
280
     1
281
     1
  3
ACAD_XREC_ROUNDTRIP
360
4CB6
  0
DICTIONARY
  5
4CBD
330
3BBB
100
AcDbDictionary
280
     1
281
     1
  3
ACAD_XREC_ROUNDTRIP
360
4CBE
  0
XRECORD
  5
4CC6
102
{ACAD_REACTORS
330
4CC5
102
}
330
4CC5
100
AcDbXrecord
280
     1
102
DISPLAYNAME
  1
Imperial24
102
FLAGS
 90
        0
  0
XRECORD
  5
4C66
102
{ACAD_REACTORS
330
1FD0
102
}
330
1FD0
100
AcDbXrecord
280
     1
102
SHADEPLOT
 70
     0
102
SHADEPLOTRESLEVEL
 70
     2
102
SHADEPLOTCUSTOMDPI
 70
   300
  0
XRECORD
  5
1FD1
102
{ACAD_REACTORS
330
1FD0
102
}
330
1FD0
100
AcDbXrecord
280
     1
310
2800000000010000680000000100080000000000006800000100000001000000000100000000000000000000FFFFFF00000000FF000000FF000000FF000000FF000000FF000000FF000000FF000000FF000000FF330000FF660000FF990000FFCC0000FFFF0000FF003300FF333300FF663300FF993300FFCC3300FFFF3300
310
FF006600FF336600FF666600FF996600FFCC6600FFFF6600FF009900FF339900FF669900FF999900FFCC9900FFFF9900FF00CC00FF33CC00FF66CC00FF99CC00FFCCCC00FFFFCC00FF00FF00FF33FF00FF66FF00FF99FF00FFCCFF00FFFFFF00FF000033FF330033FF660033FF990033FFCC0033FFFF0033FF003333FF3333
310
33FF663333FF993333FFCC3333FFFF3333FF006633FF336633FF666633FF996633FFCC6633FFFF6633FF009933FF339933FF669933FF999933FFCC9933FFFF9933FF00CC33FF33CC33FF66CC33FF99CC33FFCCCC33FFFFCC33FF00FF33FF33FF33FF66FF33FF99FF33FFCCFF33FFFFFF33FF000066FF330066FF660066FF99
310
0066FFCC0066FFFF0066FF003366FF333366FF663366FF993366FFCC3366FFFF3366FF006666FF336666FF666666FF996666FFCC6666FFFF6666FF009966FF339966FF669966FF999966FFCC9966FFFF9966FF00CC66FF33CC66FF66CC66FF99CC66FFCCCC66FFFFCC66FF00FF66FF33FF66FF66FF66FF99FF66FFCCFF66FF
310
FFFF66FF000099FF330099FF660099FF990099FFCC0099FFFF0099FF003399FF333399FF663399FF993399FFCC3399FFFF3399FF006699FF336699FF666699FF996699FFCC6699FFFF6699FF009999FF339999FF669999FF999999FFCC9999FFFF9999FF00CC99FF33CC99FF66CC99FF99CC99FFCCCC99FFFFCC99FF00FF99
310
FF33FF99FF66FF99FF99FF99FFCCFF99FFFFFF99FF0000CCFF3300CCFF6600CCFF9900CCFFCC00CCFFFF00CCFF0033CCFF3333CCFF6633CCFF9933CCFFCC33CCFFFF33CCFF0066CCFF3366CCFF6666CCFF9966CCFFCC66CCFFFF66CCFF0099CCFF3399CCFF6699CCFF9999CCFFCC99CCFFFF99CCFF00CCCCFF33CCCCFF66CC
310
CCFF99CCCCFFCCCCCCFFFFCCCCFF00FFCCFF33FFCCFF66FFCCFF99FFCCFFCCFFCCFFFFFFCCFF0000FFFF3300FFFF6600FFFF9900FFFFCC00FFFFFF00FFFF0033FFFF3333FFFF6633FFFF9933FFFFCC33FFFFFF33FFFF0066FFFF3366FFFF6666FFFF9966FFFFCC66FFFFFF66FFFF0099FFFF3399FFFF6699FFFF9999FFFFCC
310
99FFFFFF99FFFF00CCFFFF33CCFFFF66CCFFFF99CCFFFFCCCCFFFFFFCCFFFF00FFFFFF33FFFFFF66FFFFFF99FFFFFFCCFFFFFFFFFFFFFF000000FF0D0D0DFF1A1A1AFF282828FF353535FF434343FF505050FF5D5D5DFF6B6B6BFF787878FF868686FF939393FFA1A1A1FFAEAEAEFFBBBBBBFFC9C9C9FFD6D6D6FFE4E4E4FF
310
F1F1F1FFFFFFFFFF000000FF000000FF000000FF000000FF000000FF000000FF000000FF000000FF000000FF000000FF0000000000000000000000000000000000000000000000000000000000000000000000000000000000000000000000000000000000000000000000000000002D000000000000000000000000000000
310
00000000000000000000002D00000000000000000000000000000000000000000000000000000000000000000000000000000000000000000000000000000000000000000000000000000000000000000000000000000000000000000000000000000000000000000000000000000000000000000000000000000000000000
310
00000000000000000000000000000000000000000000000000000000000000000000000000000000000000000000000000000000000000000000000000000000000000000000000000000000000000000000000000000000000000000000000000000000000000000000000000000000002D2D2D2D2D2D2D2D2D2D2D2D2D2D
310
2D2D2D2D2D2D2D2D2D2D2D2D2D2D0000000000000000000000000000000000000000000000000000000000000000000000000000000000000000000000000000000000000000000000000000000000000000000000000000000000000000000000000000000000000000000000000000000000000000000000000000000000
310
000000000000000000000000000000000000000000000000000000000000000000000000000000000000000000000000000000000000000000000000000000000000000000000000000000000000000000000000000000000000000000000000000000000000000000000000000000000000002D0000000000000000000000
310
002D2D0000000000000000000000002D000000000000000000000000000000000000000000000000000000000000000000000000000000000000000000000000000000000000000000000000000000000000000000000000000000000000000000000000000000000000000000000000000000000000000000000000000000
310
0000000000000000000000000000000000000000000000000000000000000000000000000000000000000000000000000000000000000000000000000000000000000000000000000000000000000000000000000000000000000000000000000000000000000000000000000000000000000000002D000000000000000000
310
00000000000000000000000000000000002D00000000000000000000000000000000000000000000000000000000000000000000000000000000000000000000000000000000000000000000000000000000000000000000000000000000000000000000000000000000000000000000000000000000000000000000000000
310
0000000000000000000000000000000000000000000000000000000000000000000000000000000000000000000000000000000000000000000000000000000000000000000000000000000000000000000000000000000000000000002D2D2D2D2D2D2D2D2D2D2D2D2D2D2D2D000000000000000000002D00002D2D2D2D2D
310
2D2D2D2D2D2D2D2D2D2D2D2D2D2D2D2D2D00002D002D2D2D2D2D2D2D0000000000002D2D2D2D2D2D2D0000000000000000000000000000000000000000000000000000000000000000000000000000000000000000000000000000000000000000000000000000000000000000000000000000000000000000000000000000
310
00000000000000000000000000000000000000000000000000000000000000000000000000000000000000000000000000000000000000000000000000000000000000000000000000000000000000000000000000000000000000000000002D2D2D2D2D2D2D2D2D2D2D2D2D2D2D00000000000000000000002D00002D0000
310
000000000000002D2D0000000000000000002D00002D2D002D2D2D2D2D0000000000000000002D2D2D0000000000000000000000000000000000000000000000000000000000000000000000000000000000000000000000000000000000002800000000000000000000000000000000000000000000000000000000000000
310
00000000000000000000000000000000000000000000000000000000000000000000000000000000000000000000000000000000000000000000000000000000000000000000000000000000000000000000000000000000000000000000000000002D0000000000000000000000000000000000000000000000002D00002D
310
00000000000000000000280000000000000000002D00002D000000000000000000000000000000002D002D000000000000000000280000000000000000000000000000000000000000000000000000000000000000000000000000000000000000280000000000000000000000000000000000000000000000000000000000
310
000000000000000000000000000000000000000000000000000000000000000000000000000000000000000000000000000000000000000000000000000000000000000000000000000000000000000000000000000000000000000000000000000000002D0000000000000000000000000000000000000000000000002D00
310
002D00000000000000000000280000000000000000002D00002D000000000000000000000000000000002D002D00000000000000000028000000000000000000000000000000000000000000000000000000000000000000000000000000000000000028000000000000000000000000000000000000000000000000000000
310
0000000000000000000000000000000000000000000000000000000000000000000000000000000000000000000000000000000000000000000000000000000000000000000000000000000000000000000000000000000000000000000000000000000000002D000000000000000000000000000000000000000000000000
310
2D00002DF5F5F5F5F5F5F5F5F5F528F5F5F5F5F5F5F5F5F52D2D2D2D2D2D2D2D2D2D2D2D00000000000000002DF52DF5000000000000000028000000000000000000000000000000000000000000000000000000000000000000F5F5F5F5F5F5F5F5F5F5F5F5F5F5F5F5F5F5F5F5F5F5000000000000000000000000000000
310
000000000000000000000000000000000000000000000000000000000000000000000000000000000000000000000000000000000000000000000000000000000000000000000000000000000000000000000000000000000000002D2D2D2D2D2D2DF5F5F5F5F5F52DF5F5F5F5F5F5F5F5F5F5F5F5F5F5F5F5F5F5F5F5F5F5
310
F5F52D00002D000000F5F5F5F5F5F5F528F5F5F5F5F5F50000002D2D002D0000000000002D000000000000000000F5F52DF5F5F5F5F5F5F5F5F528F5F5F5F5F5F5F5F50000000000000000000000000000000000000000000000000028000000000000000000002800000000000000000028000000F5F5F5F5F5F5F5F5F5F5
310
F5F5F5F5F5F5F5F5F5F5F5F5F5F5F5F5F5F5F5F5F5F500000000000000000000000000000000000000000000000000000000000000000000000000000000000000000000000000000000000000000000000000000000000000000000002D00000000F500000000000000002D0000F50000F500000000000000000000000000
310
000000F52DF5F5F5000000F50000F5000000280000F50000F5000000F52DF52D0000000000002D000000000000000000BEBEF5F5F5F5F5F5F5F5F5F528F5F5F5F5F5F5F5F5F500000000000000000000000000000000000000000000F5F5280000000000F5F5F5F5F5F5F5F5F5F5F50000000028F500F500F5000000000000
310
00000000000000000000F500F50000000000000000000000F5F50000000000000000000000000000000000000000000000000000000000000000000000000000000000000000000000000000000000000000000000000000000000000000002D00000000F500000000000000002D0000F50000F50000000000000000000000
310
0000000000002DF5F528F528F5000000F5000000280000F5000000F528F528F52D2D2D2D2D2D2D002D0000000000000028282828F52800F500000000000028000000000000F5F500F5000000000000000000000000000000000000000000F5282828280000F50000000000280000000000F5002828282828F5F50000000000
310
000000000000000000000000F500F5000000000000000000000000F50000000000000000000000000000000000000000000000000000000000000000000000000000000000000000000000000000000000000000000000000000000000000000002D00000000F500000000000000002D0000F5F5F5F5F5F5F5F5F5F5F5F5F5
310
F5F5F5F5F5F5F5F52DF500F5F5000000000000F5F5F528F5F5F50000000000F5F500F52D0000002D00002D000000000000000000BEBEBE000000000000000000280000000000000000F5F5F50000000000000000000000000000000000000000F500280000F5F500000000000028000000000000F50000280000F5F5F5F5F5
310
F5F5F5F5F5F5F5F5F5F5F5F5F5F5F5F5F5000000000000000000000000F50000000000000000000000000000000000000000000000000000000000000000000000000000000000000000000000000000000000000000000000000000000000000000002D00000000F5F5F5F5F5F5F5F5F52DF5F5F50000F500000000000000
310
000000000000000000002DF500F50000000000F5F500000028000000F5F500000000F500F52D0000002D00002D000000000000000000F500F500000000000000000028000000000000000000F500F500000000000000000000000000000000000000F5000000F500000000000000002800000000000000F5F5F5F5F5F50000
310
00000000000000000000000000000000F500F5F5F5F5F5F5F5F5F5F5F5F5F5F50000000000000000000000000000000000000000000000000000000000000000000000000000000000000000000000000000000000000000000000000000000000000000002D00000000F50000000000000000002D00F50000F50000000000
310
0000000000000000000000002D00F500000000F5F50000000000280000000000F5F5000000F5F52D0000002D00002D000000000000000000F500F5F5000000000000000028000000000000000000F500F500000000000000000000000000000000000000F50000F500000000000000000028000000000000000000000000F5
310
000000000000000000000000000000000000F500F5000000000000000000000000F50000000000000000000000000000000000000000000000000000000000000000000000000000000000000000000000000000000000000000000000000000000000000000002D00000000F50000000000000000002D00F50000F5000000
310
00000000000000000000000000002D00F50000F5F5000000000000002800000000000000F5F50000F52D0000002D00002D000000000000000000F500F500F500000000000000280000000000000000F5F500F500000000000000000000000000000000000000F5F5F500000000000000000000280000000000000000000000
310
00F5000000000000000000000000000000000000F500F5000000000000000000000000F50000000000000000000000000000000000000000000000000000000000000000000000000000000000000000000000000000000000000000000000000000000000000000002D00000000F50000000000000000002D00F50000F500
310
000000000000000000000000000000002D00F500F5000000000000F5F5F5F5F5F5F5000000000000F500F52D0000002D00002D000000000000000000F50000F5F5F5F5F5F5F5F5F528F5F5F5F5F5F5F5F5F5F500F500000000000000000000000000000000000000F5000000000000000000F5F500F500F5F5000000000000
310
000000F5000000000000000000000000000000000000F500F5000000000000000000000000F50000000000000000000000000000000000000000000000000000000000000000000000000000000000000000000000000000000000000000000000000000000000000000002D00000000F5000000000000000000002DF50000
310
F50000000000000000000000000000000000F5F50000F50000000000F5F5F5F5F5F5F5F5000000000000F500F5F50000002D00002D000000000000000000F5000000000000000000000028000000000000000000F500F500000000000000000000000000000000000000F50000000000000000F5F5F500F500F5F500000000
310
0000000000F5000000000000000000000000000000000000F500F5000000000000000000000000F50000000000000000000000000000000000000000000000000000000000000000000000000000000000000000000000000000000000000000000000000000000000000000002D00000000F5000000000000000000002DF5
310
0000F50000000000000000000000000000000000F5F500F5000000000000F5F5F5F5F5F5F5F500000000000000F5F5F500002D2D00002D000000000000000000F5000000000000000000000028000000000000000000F500F500000000000000000000000000000000000000F50000000000000000F5F5F5F5F5F5F5F5F500
310
00000000000000F5000000000000000000000000000000000000F500F5000000000000000000000000F50000000000000000000000000000000000000000000000000000000000000000000000000000000000000000000000000000000000000000000000000000000000000000002D00000000F500000000000000000000
310
2DF50000F50000000000000000000000000000000000F5F500F500000000000000F5F5F5F5F5F50000000000000000F5F5F500002D2D00002D000000000000000000F5000000000000000000000028000000000000000000F5F5F500000000000000000000000000000000000000F5000000000000000000F5F5F5F5F5F5F5
310
000000000000000000F5000000000000000000000000000000000000F500F5000000000000000000000000F500000000000000000000000000000000000000000000000000000000000000000000000000000000000000000000000000000000000000000000000000000000000000002D2D00000000F50000000000000000
310
00002DF50000F50000000000000000000000000000000000F5F5F50000000000000000000000280000000000000000000000F5F500002D2D00002D000000000000000000F5000000000000000000000028000000000000000000F5F5F500000000000000000000000000000000000000F50000000000000000000000002800
310
0000000000000000000000F5000000000000000000000000000000000000F500F5000000000000000000000000F500000000000000000000000000000000000000000000000000000000000000000000000000000000000000000000000000000000000000000000000000000000000000002D2D00282828F5282828282828
310
28282828282D2828F52828282828282828282828282828282828F5F52828282D2D2D2D000000000028F500000000000000000000F5F50000002D00002D000000000000282828F52828282828282828282828282828282828282828F5F5F5F528280000000000000000000000000000000000F5000000000000000000000000
310
F5F50000002828282828282828F5282828282828282828282828282828282828F528F5282828282828282828282828F52828000000000000000000000000000000000000000000000000000000000000000000000000000000000000000000000000000000000000000000000000000000000000002D00000000F500000000
310
000000000000002D0000F50000000000000000000000000000000000F5F50000002D2D00000000F5F5F52800F5F50000000000000000F5F50000002D00002D000000000000000000F5000000000000000000000028000000000000000000F5F5F500000000000000000000000000000000000000F5000000000000000000F5
310
F5F52800F5F5000000000000000000F5000000000000000000000000000000000000F500F5000000000000000000000000F50000000000000000000000000000000000000000000000000000000000000000000000000000000000000000000000000000000000000000000000000000000000000000002D00000000F50000
310
0000000000000000002D0000F50000000000000000000000000000000000F5F500002D2D2D000000F500000028000000F5F5000000000000F5F50000002D002D2D000000000000000000F5000000000000000000000028000000000000000000F5F5F500000000000000000000000000000000000000F50000000000000000
310
F500000028000000F5F500000000000000F5000000000000000000000000000000000000F500F5000000000000000000000000F50000000000000000000000000000000000000000000000000000000000000000000000000000000000000000000000000000000000000000000000000000000000000000002D00000000F5
310
00000000000000000000002D0000F50000000000000000000000000000000000F5F500002D2D2D0000F5000000002800000000F5000000000000F5F50000002D002D2D000000000000000000F5000000000000000000000028000000000000000000F5F5F500000000000000000000000000000000000000F5000000000000
310
00F5000000002800000000F500000000000000F5000000000000000000000000000000000000F500F5000000000000000000000000F50000000000000000000000000000000000000000000000000000000000000000000000000000000000000000000000000000000000000000000000000000000000000000002D000000
310
00F50000000000000000000000F52D00F50000000000000000000000000000000000F5F500002D2D2D00F5000000BEBEBEBEBE000000F50000000000F5F50000002D002D2D000000000000000000F5000000000000000000000028000000000000000000F5F5F5F5F5F5F5F5F52D2D2D2D2D2D00000000000000F500000000
310
0000F50000000000F50000000000F5000000000000F5000000000000000000000000000000000000F500F5000000000000000000000000F50000000000000000000000000000000000000000000000000000000000000000000000000000000000000000000000000000000000000000000000000000000000000000002D00
310
000000F50000000000000000000000F52D00F50000000000000000000000000000000000F5F50000002D2D00F5000000BE00280000000000F50000000000F5F50000002D00002D000000000000000000F5000000000000000000000028000000000000000000F5F5F5F50000000000F50000002D2D00000000000000F50000
310
00000000F5000000F5F528F5F5000000F5000000000000F5000000000000000000000000000000000000F500F5000000000000000000000000F5000000000000000000000000000000000000000000000000000000000000000000000000000000000000000000000000000000000000000000000000000000000000000000
310
2D00000000F50000000000000000000000F52D00F50000000000000000000000000000000000F5F50000002D2D2828282828BE2828BEBEBE282828282D2D2D2D2D2D2D2D2D2D2D002D000000000000282828F5282828282828282828282828282828282828282828F5F52DF5F5F5F5F5F5F52828002D2D00000000000000F5
310
000000282828282828F5F5282828F528282828282828000000F5000000000000000000000000000000000000F500F5000000000000000000000000F500000000000000000000000000000000000000000000000000000000000000000000000000000000000000000000000000000000000000000000000000000000000000
310
00002D00000000F5F5F5F5F5F5F5F5F5F5F5F5F5F500F50000000000000000000000000000000000F5F5F50000000000F5000000BE00BEBEBEBE0000F50000000000F5F50000002D00002D000000000000000000F5000000000000000000000028000000000000000000F5F52DF5F5F5F5F5F5F50000002D2D000000000000
310
00F5000000000000F50000F5F5002800F5000000F5000000000000F5000000000000000000000000000000000000F500F5F5F5F5F5F5F5F5F5F5F5F5F5F50000000000000000000000000000000000000000000000000000000000000000000000000000000000000000000000000000000000000000000000000000000000
310
000000002D00000000F50000000000000000000000F50000F50000000000000000000000000000000000F5F500F500000000F500000000BEBE0000000000F500000000F5F5F50000002D00002D000000000000000000F5000000000000000000000028000000000000000000F5F52D000000000000F50000002D2D00000000
310
000000F5000000000000F500000000F5F5F500000000F5000000000000F5000000000000000000000000000000000000F500F5000000000000000000000000F5000000000000000000000000000000000000000000000000000000000000000000000000000000000000000000000000000000000000000000000000000000
310
0000000000002D00000000F50000000000000000000000F5F5F5F5F5F5F5F5F5F5F5F5F5F5F5F5F5F5F5F5F5F5F500F50000000000F5000000002800000000F50000000000F5F5F50000002D00002D000000000000000000F5000000000000000000000028000000000000000000F5F52DF5F5F5F5F5F52D2D2D2D2D2D0000
310
0000000000F500000000000000F5000000002800000000F500000000000000F5F5F5F5F5F5F5F5F5F5F5F5F5F5F5F5F5F5F5F5F5F5000000000000000000000000F500000000000000000000000000000000000000000000000000000000000000000000000000000000000000000000000000000000000000000000000000
310
00000000000000002D00000000F50000000000000000000000F50000F50000002800000000000000000000000000F500F500F50000000000F50000002800000000F500000000F500F52D00002D2D00002D000000000000000000F50000F5F5F5F5F5F5F5F5F528F5F5F5F5F5F5F5F5F5F5F52D0000000000002D0000000000
310
00000000000000F50000000000000000F50000002800000000F500000000000000F5000000000000000000000000000028000000F500F5000000000000000000000000F50000000000000000000000000000000000000000000000000000000000000000000000000000000000000000000000000000000000000000000000
310
000000000000000000002D000000002D0000000000000000000000F5F5F5F5F5F5F528F5F5F5F5F5F52D2D2D2D2DF5F5F5F5F500F5000000000000F5F500280000F5F50000000000F500F52D00002D2D00002D000000000000000000F500F500F50000000000000028000000000000000000F5F52D0000000000002D000000
310
000000000000000000F5F5F500000000000000F5F500280000F5F5000000000000F5F5F5F5F5F5F5F5F5F5F5F5F5F5F5F5F528F5F5F5F5F5F50000000000000000000000F5F5000000000000000000000000000000000000000000000000000000000000000000000000000000000000000000000000000000000000000000
310
0000000000000000000000002D2D2D2D2D2D2DF5F5F5F5F5F5F5F5F5F5F5F5F5F5F5F5F5F5F5F5F5F5F5F50000002D000000F500F50000F500000000000000F528F5F5000000000000F500F5F52D00002D2D00002D000000000000000000F500F5F5000000000000000028000000000000000000F5F52D0000000000002D00
310
0000000000000000000000F50000F50000000000000000F5F5F5F500000000000000F5F500F500000000000000F5F5F5F5F5F5F528F5F5F5F5F5F5F5F5F5F5F5F5F5F5F5F5F5000000000000000000000000000000000000000000000000000000000000000000000000000000000000000000000000000000000000000000
310
000000000000000000000000000000000000002D0000000000000000000000F5000000000000280000000000F50000002D000000F50000F50000F5F500000000000028000000000000F5F500F500F52D0000002D00002D000000000000000000F500F5000000000000000000280000000000000000F5F5F52D000000000000
310
2D000000000000000000000000F5000000F50000000000000000280000000000000000F5000000F500000000000000F5000000000000280000000000F5000000000000000000000000000000000000000000000000000000000000000000000000000000000000000000000000000000000000000000000000000000000000
310
0000000000000000000000000000000000000000002D0000000000000000000000F5000000000000280000000000F50000002D00000000F500F5F5000000F5F5000000002800000000F5F50000F52800F52D0000002D00002D000000000000000000BEBEBE000000000000000000280000000000000000F5F5002D00000000
310
00002D000000000000000000000000F500280000F5F50000000000002800000000000000F500280000F500000000000000F5000000000000280000000000F500000000000000000000000000000000000000000000000000000000000000000000000000000000000000000000000000000000000000000000000000000000
310
00000000000000000000000000000000000000000000002D0000000000000000000000F5F5F5F5F5F5F5F5F5F5F5F5F5F50000002D00000000F528282828F5000000F5F5F5F528F5F5F5F50000F5282828282D2D2D2D2D2D2D002D0000000000000028282828282800000000000000002800000000000000F500F5002D0000
310
000000002D000000000000000000000000F5282828280000F50000000000280000000000F5F52828282828F500000000000000F5F5F5F5F5F5F528F5F5F5F5F5F50000000000000000000000000000000000000000000000000000000000000000000000000000000000000000000000000000000000000000000000000000
310
000000000000000000000000000000000000000000000000002D000000002D2D2D2D2D2D2DF5000000000000280000000000F500002D2D00000000F5F5F5000000F50000F5000000280000F50000F500000028F5F52D0000000000002D000000000000000000BEBEF5F50000F5000000000028F5F5F5F5F5F5F5F5F500002D
310
0000000000002D000000000000000000000000F5F5280000000000F5F5F5F5F5F5F5F5F5F5F50000000028F500F500000000000000F5000000000000280000000000F5000000000000000000000000000000000000000000000000000000000000000000000000000000000000000000000000000000000000000000000000
310
0000000000000000000000000000000000000000000000000000002D00000000002D0000000000F5000000000000280000000000F500002D2D000000000000F5000000F5F5F5F5F5F5F528F5F5F5F5F5F5000000F500002D0000000000002D000000000000000000F5F5F5F5F5F5F5F5F5F5F5F528000000000000F5000000
310
002D0000000000002D00000000000000000000000000002800000000000000000000280000000000000000002800000000000000000000F5000000000000280000000000F500000000000000000000000000000000000000000000000000000000000000000000000000000000000000000000000000000000000000000000
310
00000000000000000000000000000000000000000000000000000000002D0000002D2D2D0000000000F5000000000000280000000000F500002D2D000000000000F5F5F5F5F5F5F5F5F5F5F528F5F5F5F5F5F5F5F5F52D2D2D2D2D2D2D2D2D2D2D2D00000000000000002DF5F5F50000F5000000000028000000000000F500
310
0000002D0000000000002D0000000000000000000000000000F5F5F5F5F5F5F5F5F5F5F5F5F5F5F5F5F5F5F5F5F5F500000000000000000000F5000000000000280000000000F50000000000000000000000000000000000000000000000000000000000000000000000000000000000000000000000000000000000000000
310
000000000000000000000000000000000000000000000000000000000000002D0000002D2D2D0000000028F5282828282828282828282828F528282D2D0000000000000000000000000000000000280000000000000000000000002D000000000000000000000000000000002D0000002828F5282828282828282828282828
310
F5000000002D0000000000002D00000000000000000000000000000000000000000000000000280000000000000000000000000000000000000028F5282828282828282828282828F5282800000000000000000000000000000000000000000000000000000000000000000000000000000000000000000000000000000000
310
0000000000000000000000000000000000000000000000000000000000000000002D0000002D2D2D0000000000F5000000000000280000000000F50000002D00000000000000000000000000000000002D0000000000000000000000002D000000000000000000000000000000002D0000000000F500000000002800000000
310
0000F5000000002D0000000000002D00000000000000000000000000000000000000000000000000280000000000000000000000000000000000000000F5000000000000280000000000F500000000000000000000000000000000000000000000000000000000000000000000000000000000000000000000000000000000
310
00000000000000000000000000000000000000000000000000000000000000000000002D00000000002D0000000000F5000000000000280000000000F50000002D00000000000000000000000000000000002D0000000000000000000000002D000000000000000000000000000000002D0000000000F50000000000280000
310
00000000F5000000002D0000000000002D00000000000000000000000000000000000000000000000000000000000000000000000000000000000000000000F5000000000000280000000000F50000000000000000000000000000000000000000000000000000000000000000000000000000000000000000000000000000
310
000000000000000000000000000000000000000000000000000000000000000000000000002D000000002D2D2D2D2D2D2DF5F5F5000000002800000000F5F50000002D00000000000000000000000000000000002D0000000000000000000000002D000000000000000000000000000000002D0000000000F5F50000000028
310
00000000F5F5F5000000002D0000000000002D00000000000000000000000000000000000000000000000000000000000000000000000000000000000000000000F5F5F5000000002800000000F5F5000000000000000000000000000000000000000000000000000000000000000000000000000000000000000000000000
310
0000000000000000000000000000000000000000000000000000000000000000000000000000002D0000000000000000000000F5F5F5F5F5F5F5F5F5F5F5F5F5F5F52D2D2D2D000000000000000000000000000000002D0000000000000000000000002D000000000000000000000000000000002D00000000F5F5F5F5F5F5
310
F5F5F5F5F5F5F5F5F5000000002D0000000000002D00000000000000000000000000000000000000000000000000000000000000000000000000000000000000000000F5F5F5F5F5F5F528F5F5F5F5F5F5F5000000000000000000000000000000000000000000000000000000000000000000000000000000000000000000
310
00000000000000000000000000000000000000000000000000000000000000000000000000000000002D00000000000000000000002DF5F5000000002800000000F5F50000000000000000000000000000000000000000002D0000000000000000000000002D000000000000000000000000000000002D0000000000F5F500
310
0000002800000000F5F500000000002D2D2D2D2D2D2D2D0000000000000000000000000000000000000000000000000000000000000000000000000000000000000000000000F5F5000000002800000000F5F50000000000000000000000000000000000000000000000000000000000000000000000000000000000000000
310
000000000000000000000000000000000000000000000000000000000000000000000000000000000000002D00000000000000000000002D0000000000002800000000002D0000000000000000000000000000000000000000002D0000000000000000000000002D000000000000000000000000000000002D000000000000
310
00000000002D00000000000000000000002D2D002D2D002D2D000000000000000000000000000000000000000000000000000000000000000000000000000000000000000000000000000000000028000000000000000000000000000000000000000000000000000000000000000000000000000000000000000000000000
310
0000000000000000000000000000000000000000000000000000000000000000000000000000000000000000002D00000000000000000000002D0000000000000000000000002D0000000000000000000000000000000000000000002D0000000000000000000000002D000000000000000000000000000000002D00000000
310
000000000000002D00000000000000000000002D00002D2D2D002D00000000000000000000000000000000000000000000000000000000000000000000000000000000000000000000000000000000000000000000000000000000000000000000000000000000000000000000000000000000000000000000000000000000
310
00000000000000000000000000000000000000000000000000000000000000000000000000000000000000000000002D2D2D2D2D2D2D2D2D2D2D2D2D2D2D2D2D2D2D2D2D2D2D2D2D2D0000000000000000000000000000000000000000002D0000000000000000000000002D000000000000000000000000000000002D0000
310
0000000000000000002D00000000000000000000002D2D2D2D2D2D2D2D0000000000000000000000000000000000000000000000000000000000000000000000000000000000000000000000000000000000000000000000000000000000000000000000000000000000000000000000000000000000000000000000000000
310
000000000000000000000000000000000000000000000000000000000000000000000000000000000000000000000000002D2D0000002D2D2D0000002D2D2D0000002D2D2D2D0000002D2D0000000000000000000000000000000000000000002D0000000000000000000000002D000000000000000000000000000000002D
310
00000000000000000000002D00000000000000000000002D2D002D2D002D2D000000000000000000000000000000000000000000000000000000000000000000000000000000000000000000000000000000000000000000000000000000000000000000000000000000000000000000000000000000000000000000000000
310
0000000000000000000000000000000000000000000000000000000000000000000000000000000000000000000000000000002D00000000002D2D0000000000000000002D2D2D2D00000000000000000000000000000000000000000000000000002D0000000000000000000000002D000000000000000000000000000000
310
002D00000000000000000000002D00000000000000000000000000002D2D00002D00000000000000000000000000000000000000000000000000000000000000000000000000000000000000000000000000000000000000000000000000000000000000000000000000000000000000000000000000000000000000000000
310
00000000000000000000000000000000000000000000000000000000000000000000000000000000000000000000000000000000002D2D00000000000000000000000000000000000000000000000000000000000000000000000000000000000000002D2D2D000000000000000000002D2D00000000000000000000000000
310
0000002D2D0000000000000000002D2D2D000000000000000000000000000000002D2D0000000000000000000000000000000000000000000000000000000000000000000000000000000000000000000000000000000000000000000000000000000000000000000000000000000000000000000000000000000000000000
310
000000000000000000000000000000000000000000000000000000000000000000000000000000000000000000000000000000000000002D2D2D2D2D2D2D2D2D2D2D2D2D2D2D2D2D2D2D2D2D2D2D2D2D2D2D2D2D2D2D2D2D2D2D2D2D2D2D2D2D2D2D2D2D2D2D2D2D2D2D2D2D2D2D2D2D2D2D2D2D0000000000000000000000
310
00000000002D2D2D2D2D2D2D2D2D2D2D2D2D2D2D2D2D2D2D2D2D2D2D2D2D2D2D2D2D2D2D2D000000000000000000000000000000000000000000000000000000000000000000000000000000000000000000000000000000000000000000000000000000000000000000000000000000000000000000000000000000000000
310
0000000000000000000000000000000000000000000000000000000000000000000000000000000000000000000000000000000000000000002D0000000000000000000000000000000000000000002D2D2D0000000000000000000000000000000000000000000000000000002D2D2D00000000002D000000000000000000
310
000000000000002D00000000002D2D000000000000000000000000002D2D00000000000000002D00000000000000000000000000000000000000000000000000000000000000000000000000000000000000000000000000000000000000000000000000000000000000000000000000000000000000000000000000000000
310
00000000000000000000000000000000000000000000000000000000000000000000000000000000000000000000000000000000000000000000002D2D0000000000000000000000000000000000000000000000000000000000000000000000000000000000000000000000000000000000000000002D2D00000000000000
310
0000000000000000002D2D000000000000000000000000000000000000000000000000000000002D2D0000000000000000000000000000000000000000000000000000000000000000000000000000000000000000000000000000000000000000000000000000000000000000000000000000000000000000000000000000
310
000000000000000000000000000000000000000000000000000000000000000000000000000000000000000000000000000000000000000000000000002D2D2D2D2D2D2D2D2D2D2D2D2D2D2D2D2D2D2D2D2D2D2D2D2D2D2D2D2D2D2D2D2D2D2D2D2D2D2D2D2D2D2D2D2D2D2D2D2D2D2D2D2D2D2D2D2D2D2D2D2D0000000000
310
00000000000000000000002D2D2D2D2D2D2D2D2D2D2D2D2D2D2D2D2D2D2D2D2D2D2D2D2D2D2D2D2D2D2D2D000000000000000000000000000000000000000000000000000000000000000000000000000000000000000000000000000000000000000000000000000000000000000000000000000000000000000000000000
310
000000000000000000000000000000000000000000000000000000000000000000000000000000000000000000000000000000000000000000000000000000000000000000000000000000000000000000000000000000000000002D2D2D2D0000000000000000000000000000000000000000000000000000000000000000
310
0000000000000000000000000000000000000000000000000000002D2D2D2D000000000000000000000000000000000000000000000000000000000000000000000000000000000000000000000000000000000000000000000000000000000000000000000000000000000000000000000000000000000000000000000000
310
00000000000000000000000000000000000000000000000000000000000000000000000000000000000000000000000000000000000000000000000000000000000000000000000000000000000000000000000000000000000000000000000000000000000000000000000000000000000000000000000000000000000000
310
00000000000000000000000000000000000000000000000000000000000000000000000000000000000000000000000000000000000000000000000000000000000000000000000000000000000000000000000000000000000000000000000000000000000000000000000000000000000000000000000000000000000000
310
00000000000000000000000000000000000000000000000000000000000000000000000000000000000000000000000000000000000000000000000000000000000000000000000000000000000000000000000000000000000000000000000000000000000000000000000000000000000000000000000000000000000000
310
00000000000000000000000000000000000000000000000000000000000000000000000000000000000000000000000000000000000000000000000000000000000000000000000000000000000000000000000000000000000000000000000000000000000000000000000000000000000000000000000000000000000000
310
00000000000000000000000000000000000000000000000000000000000000000000000000000000000000000000000000000000000000000000000000000000000000000000000000000000000000000000000000000000000000000000000000000000000000000000000000000000000000000000000000000000000000
310
00000000000000000000000000000000000000000000000000000000000000000000000000000000000000000000000000000000000000000000000000000000000000000000000000000000000000000000000000000000000000000000000000000000000000000000000000000000000000000000000000000000000000
310
00000000000000000000000000000000000000000000000000000000000000000000000000000000000000000000000000000000000000000000000000000000000000000000000000000000000000000000000000000000000000000000000000000000000000000000000000000000000000000000000000000000000000
310
00000000000000000000000000000000000000000000000000000000000000000000000000000000000000000000000000000000000000000000000000000000000000000000000000000000000000000000000000000000000000000000000000000000000000000000000000000000000000000000000000000000000000
310
00000000000000000000000000000000000000000000000000000000000000000000000000000000000000000000000000000000000000000000000000000000000000000000000000000000000000000000000000000000000000000000000000000000000000000000000000000000000000000000000000000000000000
310
00000000000000000000000000000000000000000000000000000000000000000000000000000000000000000000000000000000000000000000000000000000000000000000000000000000000000000000000000000000000000000000000000000000000000000000000000000000000000000000000000000000000000
310
00000000000000000000000000000000000000000000000000000000000000000000000000000000000000000000000000000000000000000000000000000000000000000000000000000000000000000000000000000000000000000000000000000000000000000000000000000000000000000000000000000000000000
310
00000000000000000000000000000000000000000000000000000000000000000000000000000000000000000000000000000000000000000000000000000000000000000000000000000000000000000000000000000000000000000000000000000000000000000000000000000000000000000000000000000000000000
310
00000000000000000000000000000000000000000000000000000000000000000000000000000000000000000000000000000000000000000000000000000000000000000000000000000000000000000000000000000000000000000000000000000000000000000000000000000000000000000000000000000000280000
310
00000000000000000000000000000000000000000000000000000000000000000000000000000000000000000000000000000000000000000000000000000000000000000000000000000000000000000000000000000000000000000000000000000000000000000000000000000000000000000000000000000000000000
310
00000000000000000000000000000000000000000000000000000000000000000000000000000000000000000000000000000000000000000000000000000000000000000000000000000000000000000000000000000000000000000000000000000000000000000000000000000000000000280000000000000000000028
310
00000000000000000028000000000000000000000000000000000000000000000000000000000000000000000000000000000000000000000000000000000000000000000000000000000000000000000000000000000000000000000000000000000000000000000000000000000000000000000000000000000000000000
310
000000000000000000000000000000000000000000000000000000000000000000000000000000000000000000000000000000000000000000000000000000000000000000000000000000000000000000000000000000000000000000000000000000000000000000000000000000000000F5000028000000000000000000
310
00280000000000000000002800000000000000000000000000000000000000000000000000000000000000000000000000000000000000000000000000000000000000000000000000000000000000000000000000000000000000000000000000000000000000000000000000000000000000000000000000000000000000
310
000000000000000000000000000000000000000000000000000000000000000000000000000000000000000000000000000000000000000000000000000000000000000000000000000000000000000000000000F5F5F5F5F5F5F5F5F5F5F5F5F5F5F5F5F5F5F5F5F5F5F5F5F5F5F5F5F5F5F5F5F5F5BE28BEF5F5F5F5F5F5
310
F5F5F5F5F5F5F5F5F5F5F5F5BE28BEF5F50000000000000000000000000000000000000000000000000000000000000000000000000000000000000000000000000000000000000000000000000000000000000000000000000000000000000000000000000000000000000000000000000000000000000000000000000000
310
00000000000000000000000000000000000000000000000000000000000000000000000000000000000000000000000000000000000000000000000000000000000000000000000000000000000000000000000000F500000000000000000000002D2D00F50000000000000000000000000000000000F5F5BE28BE00000000
310
0000000000280000000000000000BE28BEF5F5000000000000000000000000000000000000000000000000000000000000000000000000000000000000000000000000000000000000000000000000000000000000000000000000000000000000000000000000000000000000000000000000000000000000000000000000
310
000000000000000000000000000000000000000000000000000000000000000000000000000000000000000000000000000000000000000000000000000000000000000000000000000000000000000000000000000000F500000000000000000000F5F5F500F50000000000000000000000000000000000F5F5F528BEF5F5
310
F5F5F5F5F5F5F5F5F5F5F5F5F5F5F5F5BE28F5F5F500000000000000000000000000000000000000000000000000000000000000000000000000000000000000000000000000000000000000000000000000000000000000000000000000000000000000000000000000000000000000000000000000000000000000000000
310
0000000000000000000000000000000000000000000000000000000000000000000000000000000000000000000000000000000000000000000000000000000000000000000000000000000000000000000000000000000000F50000000000000000000000F50000F50000000000000000000000000000000000F5F5F52800
310
000000F5F5F5F5F5F5F5F5F5F5F500F50000002800F5F50000000000000000000000000000000000000000000000000000000000000000000000000000000000000000000000000000000000000000000000000000000000000000000000000000000000000000000000000000000000000000000000000000000000000000
310
00000000000000000000000000000000000000000000000000000000000000000000000000000000000000000000000000000000000000000000000000000000000000000000000000000000000000000000000000000000000000F50000000000000000000000F50000F50000002800000000000000000000000000F500F5
310
280000000000F50000000028000000F5F500000000280000F5000000000000000000000000000000000000000000000000000000000000000000000000000000000000000000000000000000000000000000000000000000000000000000000000000000000000000000000000000000000000000000000000000000000000
310
000000000000000000000000000000000000000000000000000000000000000000000000000000000000000000000000000000000000000000000000000000000000000000000000000000000000000000000000000000000000000000F5F5F5F5F5F5F5F5F5F5F5F5F5F5F5F5F5F5F528F5F5F5F5F5F5F5F5F5F5F5F5F5F5
310
00F5000000000000F50000000028000000F50000000000000000F500000000000000000000000000000000000000000000000000000000000000000000000000000000000000000000000000000000000000000000000000000000000000000000000000000000000000000000000000000000000000000000000000000000
310
0000000000000000000000000000000000000000000000000000000000000000000000000000000000000000000000000000000000000000000000000000000000000000000000000000000000000000000000000000000000000000000000F50000000000000000000000F5F5F5F5F5F5F5F5F5F5F5F5F5F5F50000000000
310
00F500F5000000000000F50000000028000000F50000000000000000F50000000000000000000000000000000000000000000000000000000000000000000000000000000000000000000000000000000000000000000000000000000000000000000000000000000000000000000000000000000000000000000000000000
310
00000000000000000000000000000000000000000000000000000000000000000000000000000000000000000000000000000000000000000000000000000000000000000000000000000000000000000000000000000000000000000000000000F50000000000000000000000F5F5F5F500000028000000F5F5F5F5000000
310
000000F500F5000000000000F50000000028000000F50000000000000000F5000000000000000000000000000000000000000000000000000000000000000000000000000000000000000000000000000000000000000000000000000000000000000000000000000000000000000000000000000000000000000000000000
310
000000000000000000000000000000000000000000000000000000000000000000000000000000000000000000000000000000000000000000000000000000000000000000000000000000000000000000000000000000000000000000000000000000F50000000000000000000000F5F5F5000000002800000000F5F50000
310
0000000000F500F5000000000000F50000000028000000F50000000000000000F500000000000000000000000000000000000000000000000000000000000000000000000000000000000000000000000000000000000000000000000000000000000000000000000000000000000000000000000000000000000000000000
310
0000000000000000000000000000000000000000000000000000000000000000000000000000000000000000000000000000000000000000000000000000000000000000000000000000000000000000000000000000000000000000000000000000000000F50000000000000000000000F5F50000000000280000000000F5
310
00000000000000F500F5000000000000F50000000028000000F50000000000000000F50000000000000000000000000000000000000000000000000000000000000000000000000000000000000000000000000000000000000000000000000000000000000000000000000000000000000000000000000000000000000000
310
00000000000000000000000000000000000000000000000000000000000000000000000000000000000000000000000000000000000000000000000000000000000000000000000000000000000000000000000000000000000000000000000000000000000000F50000000000000000000000F5F500000000002800000000
310
00F500000000000000F500F5000000000000F50000000028000000F50000000000000000F50000000000000000002D2D2D2D2D2D2D2D2D2D2D2D2D002D2D2D2D2D2D2D2D0000002D2D2D2D2D2D2D2D2D2D2D2D002D2D2D2D2D2D2D2D0000000000000000000000000000000000000000000000000000000000000000000000
310
000000000000000000000000000000000000000000000000000000000000000000000000000000000000000000000000000000000000000000000000000000000000000000000000000000000000000000000000000000000000000000000000000000000000000000F50000000000000000000000F5F50000000000280000
310
000000F500000000000000F500F5000000000000F50000000028000000F500000000000000F5000000000000000000002D2D2D2D2D2D2D2D2D2D2D2D2D2D2D2D2D2D2D2D2D2D0000002D2D2D2D2D2D2D2D2D2D2D2D2D2D2D2D2D2D2D2D2D000000000000000000000000000000000000000000000000000000000000000000
310
0000000000000000000000000000000000000000000000000000000000000000000000000000000000000000000000000000000000000000000000000000000000000000000000000000000000000000000000000000000000000000000000000000000000000000282828F52828282828282828282828F5F5282828282828
310
2828282828F528282828282828F528F5282828282828F52828282828282828F528282828282828F5282800000000000000002D2D2D2D2D2D2D2D2D2D2D2D2D2D2D2D2D2D2D2D2D2D0000002D2D2D2D2D2D2D2D2D2D2D2D002D2D2D2D2D2D2D2D00000000000000000000000000000000000000000000000000000000000000
310
00000000000000000000000000000000000000000000000000000000000000000000000000000000000000000000000000000000000000000000000000000000000000000000000000000000000000000000000000000000000000000000000000000000000000000000000000F50000000000000000000000F5F500000000
310
00280000000000F5000000000000000000F5000000000000F50000000028000000F500000000000000F5000000000000000000002D2D2D2D2D2D2D2D2D2D2D2D2D2D2D2D2D2D2D2D2D2D0000002D2D2D2D2D2D2D2D2D2D2D2D2D2D2D2D2D2D2D2D2D0000000000000000000000000000000000000000000000000000000000
310
000000000000000000000000000000000000000000000000000000000000000000000000000000000000000000000000000000000000000000000000000000000000000000000000000000000000000000000000000000000000000000000000000000000000000000000000000000F50000000000000000000000F5F50000
310
000000280000000000F5000000000000000000F5000000000000F50000000028000000F500000000000000F5000000000000000000002D2D2D2D2D2D2D2D2D2D2D2D2D002D2D2D2D2D2D2D2D0000002D2D2D2D2D2D2D2D2D2D2D2D002D2D2D2D2D2D2D2D000000000000000000000000000000000000000000000000000000
310
0000000000000000000000000000000000000000000000000000000000000000000000000000000000000000000000000000000000000000000000000000000000000000000000000000000000000000000000000000000000000000000000000000000000000000000000000000000000F50000000000000000000000F5F5
310
0000000000280000000000F5000000000000000000F5000000000000F50000000028000000F500000000000000F5000000000000000000002D2D2D2D2D2D2D2D2D2D2D2D2D2D2D2D2D2D2D2D2D2D0000002D2D2D2D2D2D2D2D2D2D2D2D2D2D2D2D2D2D2D2D2D00000000000000000000000000000000000000000000000000
310
00000000000000000000000000000000000000000000000000000000000000000000000000000000000000000000000000000000000000000000000000000000000000000000000000000000000000000000000000000000000000000000000000000000000000000000000000000000000000F50000000000000000000000
310
F5F5F5000000002800000000F5F5000000000000000000F5000000000000F50000000028000000F500000000000000F5000000000000000000002D2D2D2D2D2D2D2D2D2D2D2D2D002D2D2D2D2D2D2D2D0000002D2D2D2D2D2D2D2D2D2D2D2D002D2D2D2D2D2D2D2D0000000000000000000000000000000000000000000000
310
000000000000000000000000000000000000000000000000000000000000000000000000000000000000000000000000000000000000000000000000000000000000000000000000000000000000000000000000000000000000000000000000000000000000000000000000000000000000000000F5000000000000000000
310
0000F5F5F5F500000028000000F5F5F5F50000000000000000F5000000000000F50000000028000000F500000000000000F5000000000000000000002D2D2D2D2D2D2D2D2D2D2D2D2D2D2D2D2D2D2D2D2D2D0000002D2D2D2D2D2D2D2D2D2D2D2D2D2D2D2D2D2D2D2D2D000000000000000000000000000000000000000000
310
0000000000000000000000000000000000000000000000000000000000000000000000000000000000000000000000000000000000000000000000000000000000000000000000000000000000000000000000000000000000000000000000000000000000000000000000000000000000000000000000F500000000000000
310
00000000F5F5F5F5F5F5F5F5F5F5F5F5F5F5F50000000000000000F5000000000000F50000000028000000F500000000000000F5000000000000000000002D2D2D2D2D2D2D2D2D2D2D2D2D002D2D2D2D2D2D2D2D0000002D2D2D2D2D2D2D2D2D2D2D2D002D2D2D2D2D2D2D2D00000000000000000000000000000000000000
310
00000000000000000000000000000000000000000000000000000000000000000000000000000000000000000000000000000000000000000000000000000000000000000000000000000000000000000000000000000000000000000000000000000000000000000000000000000000000000000000000000F5F5F5F5F5F5
310
F5F5F5F5F5F5F5F5F5F5F5F5F528F5F5F5F5F5F5F5F5F5F5F5F5F5F5F5F5000000000000F50000000028000000F500000000000000F5000000000000000000002D2D2D2D2D2D2D2D2D2D2D2D2D2D2D2D2D2D2D2D2D2D0000002D2D2D2D2D2D2D2D2D2D2D2D2D2D2D2D2D2D2D2D2D0000000000000000000000000000000000
310
000000000000000000000000000000000000000000000000000000000000000000000000000000000000000000000000000000000000000000000000000000000000000000000000000000000000000000000000000000000000000000000000000000000000000000000000000000000000000000000000000000F5000000
310
0000000000000000F50000F50000000000000000000000000000000000F5F500000000000000F50000000028000000F500000000000000F5000000000000000000002D2D2D2D2D2D2D2D2D2D2D2D2D002D2D2D2D2D2D2D2D0000002D2D2D2D2D2D2D2D2D2D2D2D002D2D2D2D2D2D2D2D000000000000000000000000000000
310
0000000000000000000000000000000000000000000000000000000000000000000000000000000000000000000000000000000000000000000000000000000000000000000000000000000000000000000000000000000000000000000000000000000000000000000000000000000000000000000000000000000000F500
310
00000000000000000000F50000F50000000000000000000000000000000000F5F5F500000000F5000000000000280000000000F500000000F5F5F50000000000000000002D2D2D2D2D2D2D2D2D2D2D2D2D2D2D2D2D2D2D2D2D2D0000002D2D2D2D2D2D2D2D2D2D2D2D2D2D2D2D2D2D2D2D2D00000000000000000000000000
310
00000000000000000000000000000000000000000000000000000000000000000000000000000000000000000000000000000000000000000000000000000000000000000000000000000000000000000000000000000000000000000000000000000000000000000000000000000000000000000000000000000000000000
310
F50000000000000000000000F50000F50000000000000000000000000000000000F5F5F5F5F5F5F5F5F5F5F5F5F5F5F5F5F5F5F5F5F5F5F5F5F5F5F500000000000000000000000000000000000000000000000000000000000000000000000000000000000000000000000000000000000000000000000000000000000000
310
00000000000000000000000000000000000000000000000000000000000000000000000000000000000000000000000000000000000000000000000000000000000000000000000000000000000000000000000000000000000000000000000000000000000000000000000000000000000000000000000000000000000000
310
0000F50000000000000000000000F50000F500000000000000000000000000000000F5F5F50000000000F5F5F5F5F5F5F5F5F5F5F5F5F5F50000000000000000000000000000000000000000000000000000000000000000000000000000000000000000000000000000000000000000000000000000000000000000000000
310
00000000000000000000000000000000000000000000000000000000000000000000000000000000000000000000000000000000000000000000000000000000000000000000000000000000000000000000000000000000000000000000000000000000000000000000000000000000000000000000000000000000000000
310
0000000000F5F5F5F5F5F5F5F5F5F5F5F5F5F5F5F5F5F5F5F5F5F5F5F5F5F5F5F5F5F5F5F5F500000000000000F50000F500002800F5F500F500000000000000000000000000000000000000000000000000000000000000000000000000000000000000000000000000000000000000000000000000000000000000000000
310
00000000000000000000000000000000000000000000000000000000000000000000000000000000000000000000000000000000000000000000000000000000000000000000000000000000000000000000000000000000000000000000000000000000000000000000000000000000000000000000000000000000000000
310
0000000000000000000000000000000000000000000000000000000000000000000000000000000000000000000000000000F500002800F5F5000000000000000000000000000000000000002D2D2D2D2D002D2D2D002D2D2D2D2D2D2D002D2D2D2D2D00002D2D2D2D002D2D2D002D2D2D2D2D2D2D2D2D2D2D2D2D00000000
310
00000000000000000000000000000000000000000000000000000000000000000000000000000000000000000000000000000000000000000000000000000000000000000000000000000000000000000000000000000000000000000000000000000000000000000000000000000000000000000000000000000000000000
310
00000000000000000000000000000000000000000000000000000000000000000000000000000000000000000000000000000000F500002800F5F5000000000000000000000000000000000000002D2D2D2D2D2D2D2D2D2D2D2D2D2D2D2D2D2D2D2D2D2D2D00002D2D2D2D2D2D2D2D2D2D2D2D2D2D2D2D2D2D2D2D2D2D0000
310
00000000000000000000000000000000000000000000000000000000000000000000000000000000000000000000000000000000000000000000000000000000000000000000000000000000000000000000000000000000000000000000000000000000000000000000000000000000000000000000000000000000000000
310
000000000000000000000000000000000000000000000000000000000000000000000000000000000000000000000000000000000000F500002800F5F5000000000000000000000000000000000000002D2D2D2D2D002D2D2D002D2D2D2D2D2D2D002D2D2D2D0000002D2D2D2D002D2D2D002D2D2D2D2D2D2D2D2D2D2D2D00
310
00000000000000000000000000000000000000000000000000000000000000000000000000000000000000000000000000000000000000000000000000000000000000000000000000000000000000000000000000000000000000000000000000000000000000000000000000000000000000000000000000000000000000
310
0000000000000000000000000000000000000000000000000000000000000000000000000000000000000000000000000000000000000000F500002800F5F5000000000000000000000000000000000000002D2D2D2D2D2D2D2D2D2D2D2D2D2D2D2D2D2D2D2D2D2D0000002D2D2D2D2D2D2D2D2D2D2D2D2D2D2D2D2D2D2D2D
310
2D000000000000000000000000000000000000000000000000000000000000000000000000000000000000000000000000000000000000000000000000000000000000000000000000000000000000000000000000000000000000000000000000000000000000000000000000000000000000000000000000000000000000
310
00000000000000000000000000000000000000000000000000000000000000000000000000000000000000000000000000000000000000000000F500002800F5F5000000000000000000000000000000000000002D2D2D2D2D002D2D2D002D2D2D2D2D2D2D002D2D2D2D2D00002D2D2D2D002D2D2D002D2D2D2D2D2D2D2D2D
310
2D2D2D2D000000000000000000000000000000000000000000000000000000000000000000000000000000000000000000000000000000000000000000000000000000000000000000000000000000000000000000000000000000000000000000000000000000000000000000000000000000000000000000000000000000
310
000000000000000000000000000000000000000000000000000000000000000000000000000000000000000000000000000000000000000000000000F500002800F5F5000000000000000000000000000000000000002D2D2D2D2D2D2D2D2D2D2D2D2D2D2D2D2D2D2D2D2D2D2D00002D2D2D2D2D2D2D2D2D2D2D2D2D2D2D2D
310
2D2D2D2D2D2D00000000000000000000000000000000000000000000000000000000000000000000000000000000000000000000000000000000000000000000000000000000000000000000000000000000000000000000000000000000000000000000000000000000000000000000000000000000000000000000000000
310
0000000000000000000000000000000000000000000000000000000000000000000000000000000000000000000000000000000000000000000000000000F5F5F5F5F5F5F5000000000000000000000000000000000000002D2D2D2D2D002D2D2D002D2D2D2D2D2D2D002D2D2D2D0000002D2D2D2D002D2D2D002D2D002D2D
310
2D2D2D2D2D2D2D000000000000000000000000000000000000000000000000000000000000000000000000000000000000000000000000000000000000000000000000000000000000000000000000000000000000000000000000000000000000000000000000000000000000000000000000000000000000000000000000
310
0000000000000000000000000000000000000000000000000000000000000000000000000000000000000000000000000000000000000000000000000000000000000028000000000000000000000000000000000000000000002D2D2D2D2D2D2D2D2D2D2D2D2D2D2D2D2D2D2D2D2D2D0000002D2D2D2D2D2D2D2D2D2D2D2D
310
2D2D2D2D2D2D2D2D2D00000000000000000000000000000000000000000000000000000000000000000000000000000000000000000000000000000000000000000000000000000000000000000000000000000000000000000000000000000000000000000000000000000000000000000000000000000000000000000000
310
00000000000000000000000000000000000000000000000000000000000000000000000000000000000000000000000000000000000000000000000000000000000000000028000000000000000000000000000000000000000000002D2D2D2D2D002D2D2D002D2D2D002D2D2D2D002D2D2D2D2D002D2D2D2D002D2D2D002D
310
2D2D002D2D2D2D2D2D2D2D2D2D000000000000000000000000000000000000000000000000000000000000000000000000000000000000000000000000000000000000000000000000000000000000000000000000000000000000000000000000000000000000000000000000000000000000000000000000000000000000
310
000000000000000000000000000000000000000000000000000000000000000000000000000000000000000000000000000000000000000000000000000000000000000000000028000000000000000000000000000000000000000000002D2D2D2D2D2D2D2D2D2D2D2D2D2D2D2D2D2D2D2D2D2D2D2D002D2D2D2D2D2D2D2D
310
2D2D2D2D2D2D2D2D2D2D2D2D2D2D2D00000000000000000000000000000000000000000000000000000000000000000000000000000000000000000000000000000000000000000000000000000000000000000000000000000000000000000000000000000000000000000000000000000000000000000000000000000000
310
0000000000000000000000000000000000000000000000000000000000000000000000000000000000000000000000000000000000000000000000000000000000000000000000000000000000000000000000000000000000000000000000002D2D2D2D2D002D2D2D002D2D2D002D2D2D2D2D2D2D2D2D2D002D2D2D2D002D
310
2D2D002D2D2D002D2D2D2D2D2D2D2D2D2D0000000000000000000000000000000000000000000000000000000000000000000000000000000000000000000000000000000000000000000000000000000000000000000000000000000000000000000000000000000000000000000000000000000000000000000000000000
310
00000000000000000000000000000000000000000000000000000000000000000000000000000000000000000000000000000000000000000000000000000000000000000000000000000000000000000000000000000000000000000000000000002D2D2D2D2D2D2D2D2D2D2D2D2D2D2D2D2D2D2D2D2D2D0000002D2D2D2D
310
2D2D2D2D2D2D2D2D2D2D2D2D2D2D2D2D2D2D00000000000000000000000000000000000000000000000000000000000000000000000000000000000000000000000000000000000000000000000000000000000000000000000000000000000000000000000000000000000000000000000000000000000000000000000000
310
000000000000000000000000000000000000000000000000000000000000000000000000000000000000000000000000000000000000000000000000000000000000000000000000000000000000000000000000000000000000000000000000000000002D2D2D2D2D002D2D2D002D2D2D002D2D2D2D2D2D2D2D2D00002D2D
310
2D2D002D2D2D002D2D2D002D2D2D2D2D2D2D2D2D0000000000000000000000000000000000000000000000000000000000000000000000000000000000000000000000000000000000000000000000000000000000000000000000000000000000000000000000000000000000000000000000000000000000000000000000
310
0000
  0
XRECORD
  5
4CD4
102
{ACAD_REACTORS
330
4CD3
102
}
330
4CD3
100
AcDbXrecord
280
     1
102
SHADEPLOT
 70
     0
102
SHADEPLOTRESLEVEL
 70
     2
102
SHADEPLOTCUSTOMDPI
 70
   300
  0
XRECORD
  5
4C68
102
{ACAD_REACTORS
330
1F54
102
}
330
1F54
100
AcDbXrecord
280
     1
102
MATERIAL
148
0.0
149
0.0
149
0.0
 93
        0
 94
      127
282
     0
 72
     0
 77
     0
171
     0
175
     0
179
     0
273
     0
  0
XRECORD
  5
1F56
102
{ACAD_REACTORS
330
1F54
102
}
330
1F54
100
AcDbXrecord
280
     1
270
     1
271
     1
  0
XRECORD
  5
1F55
102
{ACAD_REACTORS
330
1F54
102
}
330
1F54
100
AcDbXrecord
280
     1
270
     1
271
     1
  0
XRECORD
  5
1F59
102
{ACAD_REACTORS
330
1F54
102
}
330
1F54
100
AcDbXrecord
280
     1
270
     1
271
     1
  0
XRECORD
  5
1F58
102
{ACAD_REACTORS
330
1F54
102
}
330
1F54
100
AcDbXrecord
280
     1
270
     1
271
     1
  0
XRECORD
  5
1F5A
102
{ACAD_REACTORS
330
1F54
102
}
330
1F54
100
AcDbXrecord
280
     1
270
     1
271
     1
  0
XRECORD
  5
1F57
102
{ACAD_REACTORS
330
1F54
102
}
330
1F54
100
AcDbXrecord
280
     1
270
     1
271
     1
  0
XRECORD
  5
4C67
102
{ACAD_REACTORS
330
1F4C
102
}
330
1F4C
100
AcDbXrecord
280
     1
102
MATERIAL
148
0.0
149
0.0
149
0.0
 93
        0
 94
      127
282
     0
 72
     0
 77
     0
171
     0
175
     0
179
     0
273
     0
  0
XRECORD
  5
1F4E
102
{ACAD_REACTORS
330
1F4C
102
}
330
1F4C
100
AcDbXrecord
280
     1
270
     1
271
     1
  0
XRECORD
  5
1F4D
102
{ACAD_REACTORS
330
1F4C
102
}
330
1F4C
100
AcDbXrecord
280
     1
270
     1
271
     1
  0
XRECORD
  5
1F51
102
{ACAD_REACTORS
330
1F4C
102
}
330
1F4C
100
AcDbXrecord
280
     1
270
     1
271
     1
  0
XRECORD
  5
1F50
102
{ACAD_REACTORS
330
1F4C
102
}
330
1F4C
100
AcDbXrecord
280
     1
270
     1
271
     1
  0
XRECORD
  5
1F52
102
{ACAD_REACTORS
330
1F4C
102
}
330
1F4C
100
AcDbXrecord
280
     1
270
     1
271
     1
  0
XRECORD
  5
1F4F
102
{ACAD_REACTORS
330
1F4C
102
}
330
1F4C
100
AcDbXrecord
280
     1
270
     1
271
     1
  0
XRECORD
  5
4C69
102
{ACAD_REACTORS
330
1F5C
102
}
330
1F5C
100
AcDbXrecord
280
     1
102
MATERIAL
148
0.0
149
0.0
149
0.0
 93
        0
 94
      127
282
     0
 72
     0
 77
     0
171
     0
175
     0
179
     0
273
     0
  0
XRECORD
  5
1F5E
102
{ACAD_REACTORS
330
1F5C
102
}
330
1F5C
100
AcDbXrecord
280
     1
270
     1
271
     1
  0
XRECORD
  5
1F5D
102
{ACAD_REACTORS
330
1F5C
102
}
330
1F5C
100
AcDbXrecord
280
     1
270
     1
271
     1
  0
XRECORD
  5
1F61
102
{ACAD_REACTORS
330
1F5C
102
}
330
1F5C
100
AcDbXrecord
280
     1
270
     1
271
     1
  0
XRECORD
  5
1F60
102
{ACAD_REACTORS
330
1F5C
102
}
330
1F5C
100
AcDbXrecord
280
     1
270
     1
271
     1
  0
XRECORD
  5
1F62
102
{ACAD_REACTORS
330
1F5C
102
}
330
1F5C
100
AcDbXrecord
280
     1
270
     1
271
     1
  0
XRECORD
  5
1F5F
102
{ACAD_REACTORS
330
1F5C
102
}
330
1F5C
100
AcDbXrecord
280
     1
270
     1
271
     1
  0
XRECORD
  5
4CC4
102
{ACAD_REACTORS
330
4CC3
102
}
330
4CC3
100
AcDbXrecord
280
     1
102
DISPLAYNAME
  1
Imperial24
102
FLAGS
 90
        0
  0
CELLSTYLEMAP
  5
4C63
102
{ACAD_REACTORS
330
2504
102
}
330
2504
100
AcDbCellStyleMap
 90
        3
300
CELLSTYLE
  1
TABLEFORMAT_BEGIN
 90
        5
170
     1
 91
        0
 92
    32768
 62
   257
 93
        1
300
CONTENTFORMAT
  1
CONTENTFORMAT_BEGIN
 90
        0
 91
        0
 92
      512
 93
        0
300

 40
0.0
140
1.0
 94
        5
 62
     0
340
16
144
0.25
309
CONTENTFORMAT_END
171
     1
301
MARGIN
  1
CELLMARGIN_BEGIN
 40
0.06
 40
0.06
 40
0.06
 40
0.06
 40
0.18
 40
0.18
309
CELLMARGIN_END
 94
        6
 95
        1
302
GRIDFORMAT
  1
GRIDFORMAT_BEGIN
 90
        0
 91
        1
 62
     0
 92
       -2
340
0
 93
        0
 40
0.045
309
GRIDFORMAT_END
 95
        2
302
GRIDFORMAT
  1
GRIDFORMAT_BEGIN
 90
        0
 91
        1
 62
     0
 92
       -2
340
0
 93
        0
 40
0.045
309
GRIDFORMAT_END
 95
        4
302
GRIDFORMAT
  1
GRIDFORMAT_BEGIN
 90
        0
 91
        1
 62
     0
 92
       -2
340
0
 93
        0
 40
0.045
309
GRIDFORMAT_END
 95
        8
302
GRIDFORMAT
  1
GRIDFORMAT_BEGIN
 90
        0
 91
        1
 62
     0
 92
       -2
340
0
 93
        0
 40
0.045
309
GRIDFORMAT_END
 95
       16
302
GRIDFORMAT
  1
GRIDFORMAT_BEGIN
 90
        0
 91
        1
 62
     0
 92
       -2
340
0
 93
        0
 40
0.045
309
GRIDFORMAT_END
 95
       32
302
GRIDFORMAT
  1
GRIDFORMAT_BEGIN
 90
        0
 91
        1
 62
     0
 92
       -2
340
0
 93
        0
 40
0.045
309
GRIDFORMAT_END
309
TABLEFORMAT_END
  1
CELLSTYLE_BEGIN
 90
        1
 91
        1
300
_TITLE
309
CELLSTYLE_END
300
CELLSTYLE
  1
TABLEFORMAT_BEGIN
 90
        5
170
     1
 91
        0
 92
        0
 62
   257
 93
        1
300
CONTENTFORMAT
  1
CONTENTFORMAT_BEGIN
 90
        0
 91
        0
 92
      512
 93
        0
300

 40
0.0
140
1.0
 94
        5
 62
     0
340
16
144
0.18
309
CONTENTFORMAT_END
171
     1
301
MARGIN
  1
CELLMARGIN_BEGIN
 40
0.06
 40
0.06
 40
0.06
 40
0.06
 40
0.18
 40
0.18
309
CELLMARGIN_END
 94
        6
 95
        1
302
GRIDFORMAT
  1
GRIDFORMAT_BEGIN
 90
        0
 91
        1
 62
     0
 92
       -2
340
0
 93
        0
 40
0.045
309
GRIDFORMAT_END
 95
        2
302
GRIDFORMAT
  1
GRIDFORMAT_BEGIN
 90
        0
 91
        1
 62
     0
 92
       -2
340
0
 93
        0
 40
0.045
309
GRIDFORMAT_END
 95
        4
302
GRIDFORMAT
  1
GRIDFORMAT_BEGIN
 90
        0
 91
        1
 62
     0
 92
       -2
340
0
 93
        0
 40
0.045
309
GRIDFORMAT_END
 95
        8
302
GRIDFORMAT
  1
GRIDFORMAT_BEGIN
 90
        0
 91
        1
 62
     0
 92
       -2
340
0
 93
        0
 40
0.045
309
GRIDFORMAT_END
 95
       16
302
GRIDFORMAT
  1
GRIDFORMAT_BEGIN
 90
        0
 91
        1
 62
     0
 92
       -2
340
0
 93
        0
 40
0.045
309
GRIDFORMAT_END
 95
       32
302
GRIDFORMAT
  1
GRIDFORMAT_BEGIN
 90
        0
 91
        1
 62
     0
 92
       -2
340
0
 93
        0
 40
0.045
309
GRIDFORMAT_END
309
TABLEFORMAT_END
  1
CELLSTYLE_BEGIN
 90
        2
 91
        1
300
_HEADER
309
CELLSTYLE_END
300
CELLSTYLE
  1
TABLEFORMAT_BEGIN
 90
        5
170
     1
 91
        0
 92
        0
 62
   257
 93
        1
300
CONTENTFORMAT
  1
CONTENTFORMAT_BEGIN
 90
        0
 91
        0
 92
      512
 93
        0
300

 40
0.0
140
1.0
 94
        2
 62
     0
340
16
144
0.18
309
CONTENTFORMAT_END
171
     1
301
MARGIN
  1
CELLMARGIN_BEGIN
 40
0.06
 40
0.06
 40
0.06
 40
0.06
 40
0.18
 40
0.18
309
CELLMARGIN_END
 94
        6
 95
        1
302
GRIDFORMAT
  1
GRIDFORMAT_BEGIN
 90
        0
 91
        1
 62
     0
 92
       -2
340
0
 93
        0
 40
0.045
309
GRIDFORMAT_END
 95
        2
302
GRIDFORMAT
  1
GRIDFORMAT_BEGIN
 90
        0
 91
        1
 62
     0
 92
       -2
340
0
 93
        0
 40
0.045
309
GRIDFORMAT_END
 95
        4
302
GRIDFORMAT
  1
GRIDFORMAT_BEGIN
 90
        0
 91
        1
 62
     0
 92
       -2
340
0
 93
        0
 40
0.045
309
GRIDFORMAT_END
 95
        8
302
GRIDFORMAT
  1
GRIDFORMAT_BEGIN
 90
        0
 91
        1
 62
     0
 92
       -2
340
0
 93
        0
 40
0.045
309
GRIDFORMAT_END
 95
       16
302
GRIDFORMAT
  1
GRIDFORMAT_BEGIN
 90
        0
 91
        1
 62
     0
 92
       -2
340
0
 93
        0
 40
0.045
309
GRIDFORMAT_END
 95
       32
302
GRIDFORMAT
  1
GRIDFORMAT_BEGIN
 90
        0
 91
        1
 62
     0
 92
       -2
340
0
 93
        0
 40
0.045
309
GRIDFORMAT_END
309
TABLEFORMAT_END
  1
CELLSTYLE_BEGIN
 90
        3
 91
        2
300
_DATA
309
CELLSTYLE_END
  0
XRECORD
  5
4C90
102
{ACAD_REACTORS
330
2504
102
}
330
2504
100
AcDbXrecord
280
     1
102
ACAD_ROUNDTRIP_PRE2007_TABLESTYLE
 90
      512
 91
        0
  1

 92
      512
 93
        0
  2

 94
      512
 95
        0
  3

  0
XRECORD
  5
4C75
102
{ACAD_REACTORS
330
4C74
102
}
330
4C74
100
AcDbXrecord
280
     1
102
RTVSPost2010Prop28
280
     1
102
RTVSPost2010PropOp28
 70
     1
102
RTVSPost2010Prop29
280
     1
102
RTVSPost2010PropOp29
 70
     1
102
RTVSPost2010Prop30
280
     0
102
RTVSPost2010PropOp30
 70
     1
102
RTVSPost2010Prop31
280
     0
102
RTVSPost2010PropOp31
 70
     1
102
RTVSPost2010Prop32
280
     0
102
RTVSPost2010PropOp32
 70
     1
102
RTVSPost2010Prop33
280
     0
102
RTVSPost2010PropOp33
 70
     1
102
RTVSPost2010Prop34
280
     0
102
RTVSPost2010PropOp34
 70
     1
102
RTVSPost2010Prop35
280
     0
102
RTVSPost2010PropOp35
 70
     1
102
RTVSPost2010Prop36
280
     0
102
RTVSPost2010PropOp36
 70
     1
102
RTVSPost2010Prop37
 90
       50
102
RTVSPost2010PropOp37
 70
     1
102
RTVSPost2010Prop38
140
0.0
102
RTVSPost2010PropOp38
 70
     1
102
RTVSPost2010Prop39
140
1.0
102
RTVSPost2010PropOp39
 70
     1
102
RTVSPost2010Prop40
 90
        0
102
RTVSPost2010PropOp40
 70
     1
102
RTVSPost2010Prop41ColorIndex
 90
       18
102
RTVSPost2010Prop41ColorRGB
 90
        0
102
RTVSPost2010PropOp41
 70
     1
102
RTVSPost2010Prop42
 90
       50
102
RTVSPost2010PropOp42
 70
     1
102
RTVSPost2010Prop43
 90
        3
102
RTVSPost2010PropOp43
 70
     1
102
RTVSPost2010Prop44ColorIndex
 90
        5
102
RTVSPost2010Prop44ColorRGB
 90
      255
102
RTVSPost2010PropOp44
 70
     1
102
RTVSPost2010Prop45
280
     0
102
RTVSPost2010PropOp45
 70
     1
102
RTVSPost2010Prop46
 90
       50
102
RTVSPost2010PropOp46
 70
     1
102
RTVSPost2010Prop47
 90
       50
102
RTVSPost2010PropOp47
 70
     1
102
RTVSPost2010Prop48
 90
       50
102
RTVSPost2010PropOp48
 70
     1
102
RTVSPost2010Prop49
280
     0
102
RTVSPost2010PropOp49
 70
     1
102
RTVSPost2010Prop50
 90
       50
102
RTVSPost2010PropOp50
 70
     1
102
RTVSPost2010Prop51ColorIndex
 90
      256
102
RTVSPost2010Prop51ColorRGB
 90
-16777216
102
RTVSPost2010PropOp51
 70
     0
102
RTVSPost2010Prop52
140
1.0
102
RTVSPost2010PropOp52
 70
     0
102
RTVSPost2010Prop53
 90
        2
102
RTVSPost2010PropOp53
 70
     1
102
RTVSPost2010Prop54
  1
strokes_ogs.tif
102
RTVSPost2010PropOp54
 70
     1
102
RTVSPost2010Prop55
280
     0
102
RTVSPost2010PropOp55
 70
     1
102
RTVSPost2010Prop56
140
1.0
102
RTVSPost2010PropOp56
 70
     1
102
RTVSPost2010Prop57
140
1.0
102
RTVSPost2010PropOp57
 70
     1
102
RTVSPropertyOp0
 70
     1
102
RTVSPropertyOp1
 70
     1
102
RTVSPropertyOp2
 70
     1
102
RTVSPropertyOp3
 70
     1
102
RTVSPropertyOp4
 70
     1
102
RTVSPropertyOp5
 70
     1
102
RTVSPropertyOp6
 70
     1
102
RTVSPropertyOp7
 70
     1
102
RTVSPropertyOp8
 70
     1
102
RTVSPropertyOp9
 70
     1
102
RTVSPropertyOp10
 70
     1
102
RTVSPropertyOp11
 70
     1
102
RTVSPropertyOp12
 70
     1
102
RTVSPropertyOp13
 70
     1
102
RTVSPropertyOp14
 70
     1
102
RTVSPropertyOp15
 70
     1
102
RTVSPropertyOp16
 70
     1
102
RTVSPropertyOp17
 70
     1
102
RTVSPropertyOp18
 70
     1
102
RTVSPropertyOp19
 70
     1
102
RTVSPropertyOp20
 70
     1
102
RTVSPropertyOp21
 70
     1
102
RTVSPropertyOp22
 70
     1
102
RTVSPropertyOp23
 70
     1
102
RTVSPropertyOp24
 70
     1
102
RTVSPropertyOp25
 70
     1
102
RTVSPropertyOp26
 70
     1
102
RTVSPropertyOp27
 70
     1
102
RTVSPropertyOp28
 70
     1
102
RTVSPropertyOp29
 70
     1
102
RTVSPropertyOp30
 70
     1
102
RTVSPropertyOp31
 70
     1
102
RTVSPropertyOp32
 70
     1
102
RTVSPropertyOp33
 70
     1
102
RTVSPropertyOp34
 70
     1
102
RTVSPropertyOp35
 70
     1
102
RTVSPropertyOp36
 70
     1
102
RTVSPropertyOp37
 70
     1
102
RTVSPropertyOp38
 70
     1
102
RTVSPropertyOp39
 70
     1
102
RTVSPropertyOp40
 70
     1
102
RTVSPropertyOp41
 70
     1
102
RTVSPropertyOp42
 70
     1
102
RTVSPropertyOp43
 70
     1
102
RTVSPropertyOp44
 70
     1
102
RTVSPropertyOp45
 70
     1
102
RTVSPropertyOp46
 70
     1
102
RTVSPropertyOp47
 70
     1
102
RTVSPropertyOp48
 70
     1
102
RTVSPropertyOp49
 70
     1
102
RTVSPropertyOp50
 70
     1
102
RTVSPropertyOp51
 70
     0
102
RTVSPropertyOp52
 70
     0
102
RTVSPropertyOp53
 70
     1
102
RTVSPropertyOp54
 70
     1
102
RTVSPropertyOp55
 70
     1
102
RTVSPropertyOp56
 70
     1
102
RTVSPropertyOp57
 70
     1
102
RTVSPropertyOp58
 70
     1
102
RTVSPropertyOp59
 70
     1
102
RTVSPropertyOp60
 70
     1
102
RTVSPropertyOp61
 70
     1
102
RTVSPropertyOp62
 70
     1
  0
XRECORD
  5
4C79
102
{ACAD_REACTORS
330
4C78
102
}
330
4C78
100
AcDbXrecord
280
     1
102
RTVSPost2010Prop28
280
     0
102
RTVSPost2010PropOp28
 70
     1
102
RTVSPost2010Prop29
280
     1
102
RTVSPost2010PropOp29
 70
     1
102
RTVSPost2010Prop30
280
     1
102
RTVSPost2010PropOp30
 70
     1
102
RTVSPost2010Prop31
280
     0
102
RTVSPost2010PropOp31
 70
     1
102
RTVSPost2010Prop32
280
     0
102
RTVSPost2010PropOp32
 70
     1
102
RTVSPost2010Prop33
280
     0
102
RTVSPost2010PropOp33
 70
     1
102
RTVSPost2010Prop34
280
     0
102
RTVSPost2010PropOp34
 70
     1
102
RTVSPost2010Prop35
280
     0
102
RTVSPost2010PropOp35
 70
     1
102
RTVSPost2010Prop36
280
     0
102
RTVSPost2010PropOp36
 70
     1
102
RTVSPost2010Prop37
 90
       50
102
RTVSPost2010PropOp37
 70
     1
102
RTVSPost2010Prop38
140
0.0
102
RTVSPost2010PropOp38
 70
     1
102
RTVSPost2010Prop39
140
1.0
102
RTVSPost2010PropOp39
 70
     1
102
RTVSPost2010Prop40
 90
        0
102
RTVSPost2010PropOp40
 70
     1
102
RTVSPost2010Prop41ColorIndex
 90
       18
102
RTVSPost2010Prop41ColorRGB
 90
        0
102
RTVSPost2010PropOp41
 70
     1
102
RTVSPost2010Prop42
 90
       50
102
RTVSPost2010PropOp42
 70
     1
102
RTVSPost2010Prop43
 90
        3
102
RTVSPost2010PropOp43
 70
     1
102
RTVSPost2010Prop44ColorIndex
 90
        5
102
RTVSPost2010Prop44ColorRGB
 90
      255
102
RTVSPost2010PropOp44
 70
     1
102
RTVSPost2010Prop45
280
     0
102
RTVSPost2010PropOp45
 70
     1
102
RTVSPost2010Prop46
 90
       50
102
RTVSPost2010PropOp46
 70
     1
102
RTVSPost2010Prop47
 90
       50
102
RTVSPost2010PropOp47
 70
     1
102
RTVSPost2010Prop48
 90
       50
102
RTVSPost2010PropOp48
 70
     1
102
RTVSPost2010Prop49
280
     0
102
RTVSPost2010PropOp49
 70
     1
102
RTVSPost2010Prop50
 90
       50
102
RTVSPost2010PropOp50
 70
     1
102
RTVSPost2010Prop51ColorIndex
 90
      256
102
RTVSPost2010Prop51ColorRGB
 90
-16777216
102
RTVSPost2010PropOp51
 70
     0
102
RTVSPost2010Prop52
140
1.0
102
RTVSPost2010PropOp52
 70
     0
102
RTVSPost2010Prop53
 90
        2
102
RTVSPost2010PropOp53
 70
     1
102
RTVSPost2010Prop54
  1
strokes_ogs.tif
102
RTVSPost2010PropOp54
 70
     1
102
RTVSPost2010Prop55
280
     0
102
RTVSPost2010PropOp55
 70
     1
102
RTVSPost2010Prop56
140
1.0
102
RTVSPost2010PropOp56
 70
     1
102
RTVSPost2010Prop57
140
1.0
102
RTVSPost2010PropOp57
 70
     1
102
RTVSPropertyOp0
 70
     1
102
RTVSPropertyOp1
 70
     1
102
RTVSPropertyOp2
 70
     1
102
RTVSPropertyOp3
 70
     1
102
RTVSPropertyOp4
 70
     1
102
RTVSPropertyOp5
 70
     1
102
RTVSPropertyOp6
 70
     1
102
RTVSPropertyOp7
 70
     1
102
RTVSPropertyOp8
 70
     1
102
RTVSPropertyOp9
 70
     1
102
RTVSPropertyOp10
 70
     1
102
RTVSPropertyOp11
 70
     1
102
RTVSPropertyOp12
 70
     1
102
RTVSPropertyOp13
 70
     1
102
RTVSPropertyOp14
 70
     1
102
RTVSPropertyOp15
 70
     1
102
RTVSPropertyOp16
 70
     1
102
RTVSPropertyOp17
 70
     1
102
RTVSPropertyOp18
 70
     1
102
RTVSPropertyOp19
 70
     1
102
RTVSPropertyOp20
 70
     1
102
RTVSPropertyOp21
 70
     1
102
RTVSPropertyOp22
 70
     1
102
RTVSPropertyOp23
 70
     1
102
RTVSPropertyOp24
 70
     1
102
RTVSPropertyOp25
 70
     1
102
RTVSPropertyOp26
 70
     1
102
RTVSPropertyOp27
 70
     1
102
RTVSPropertyOp28
 70
     1
102
RTVSPropertyOp29
 70
     1
102
RTVSPropertyOp30
 70
     1
102
RTVSPropertyOp31
 70
     1
102
RTVSPropertyOp32
 70
     1
102
RTVSPropertyOp33
 70
     1
102
RTVSPropertyOp34
 70
     1
102
RTVSPropertyOp35
 70
     1
102
RTVSPropertyOp36
 70
     1
102
RTVSPropertyOp37
 70
     1
102
RTVSPropertyOp38
 70
     1
102
RTVSPropertyOp39
 70
     1
102
RTVSPropertyOp40
 70
     1
102
RTVSPropertyOp41
 70
     1
102
RTVSPropertyOp42
 70
     1
102
RTVSPropertyOp43
 70
     1
102
RTVSPropertyOp44
 70
     1
102
RTVSPropertyOp45
 70
     1
102
RTVSPropertyOp46
 70
     1
102
RTVSPropertyOp47
 70
     1
102
RTVSPropertyOp48
 70
     1
102
RTVSPropertyOp49
 70
     1
102
RTVSPropertyOp50
 70
     1
102
RTVSPropertyOp51
 70
     0
102
RTVSPropertyOp52
 70
     0
102
RTVSPropertyOp53
 70
     1
102
RTVSPropertyOp54
 70
     1
102
RTVSPropertyOp55
 70
     1
102
RTVSPropertyOp56
 70
     1
102
RTVSPropertyOp57
 70
     1
102
RTVSPropertyOp58
 70
     1
102
RTVSPropertyOp59
 70
     1
102
RTVSPropertyOp60
 70
     1
102
RTVSPropertyOp61
 70
     1
102
RTVSPropertyOp62
 70
     1
  0
XRECORD
  5
4C77
102
{ACAD_REACTORS
330
4C76
102
}
330
4C76
100
AcDbXrecord
280
     1
102
RTVSPost2010Prop28
280
     0
102
RTVSPost2010PropOp28
 70
     1
102
RTVSPost2010Prop29
280
     1
102
RTVSPost2010PropOp29
 70
     1
102
RTVSPost2010Prop30
280
     1
102
RTVSPost2010PropOp30
 70
     1
102
RTVSPost2010Prop31
280
     0
102
RTVSPost2010PropOp31
 70
     1
102
RTVSPost2010Prop32
280
     0
102
RTVSPost2010PropOp32
 70
     1
102
RTVSPost2010Prop33
280
     0
102
RTVSPost2010PropOp33
 70
     1
102
RTVSPost2010Prop34
280
     0
102
RTVSPost2010PropOp34
 70
     1
102
RTVSPost2010Prop35
280
     0
102
RTVSPost2010PropOp35
 70
     1
102
RTVSPost2010Prop36
280
     0
102
RTVSPost2010PropOp36
 70
     1
102
RTVSPost2010Prop37
 90
       50
102
RTVSPost2010PropOp37
 70
     1
102
RTVSPost2010Prop38
140
0.0
102
RTVSPost2010PropOp38
 70
     1
102
RTVSPost2010Prop39
140
1.0
102
RTVSPost2010PropOp39
 70
     1
102
RTVSPost2010Prop40
 90
        0
102
RTVSPost2010PropOp40
 70
     1
102
RTVSPost2010Prop41ColorIndex
 90
       18
102
RTVSPost2010Prop41ColorRGB
 90
        0
102
RTVSPost2010PropOp41
 70
     1
102
RTVSPost2010Prop42
 90
       50
102
RTVSPost2010PropOp42
 70
     1
102
RTVSPost2010Prop43
 90
        3
102
RTVSPost2010PropOp43
 70
     1
102
RTVSPost2010Prop44ColorIndex
 90
        5
102
RTVSPost2010Prop44ColorRGB
 90
      255
102
RTVSPost2010PropOp44
 70
     1
102
RTVSPost2010Prop45
280
     0
102
RTVSPost2010PropOp45
 70
     1
102
RTVSPost2010Prop46
 90
       50
102
RTVSPost2010PropOp46
 70
     1
102
RTVSPost2010Prop47
 90
       50
102
RTVSPost2010PropOp47
 70
     1
102
RTVSPost2010Prop48
 90
       50
102
RTVSPost2010PropOp48
 70
     1
102
RTVSPost2010Prop49
280
     0
102
RTVSPost2010PropOp49
 70
     1
102
RTVSPost2010Prop50
 90
       50
102
RTVSPost2010PropOp50
 70
     1
102
RTVSPost2010Prop51ColorIndex
 90
      256
102
RTVSPost2010Prop51ColorRGB
 90
-16777216
102
RTVSPost2010PropOp51
 70
     0
102
RTVSPost2010Prop52
140
1.0
102
RTVSPost2010PropOp52
 70
     0
102
RTVSPost2010Prop53
 90
        2
102
RTVSPost2010PropOp53
 70
     1
102
RTVSPost2010Prop54
  1
strokes_ogs.tif
102
RTVSPost2010PropOp54
 70
     1
102
RTVSPost2010Prop55
280
     0
102
RTVSPost2010PropOp55
 70
     1
102
RTVSPost2010Prop56
140
1.0
102
RTVSPost2010PropOp56
 70
     1
102
RTVSPost2010Prop57
140
1.0
102
RTVSPost2010PropOp57
 70
     1
102
RTVSPropertyOp0
 70
     1
102
RTVSPropertyOp1
 70
     1
102
RTVSPropertyOp2
 70
     1
102
RTVSPropertyOp3
 70
     1
102
RTVSPropertyOp4
 70
     1
102
RTVSPropertyOp5
 70
     1
102
RTVSPropertyOp6
 70
     1
102
RTVSPropertyOp7
 70
     1
102
RTVSPropertyOp8
 70
     1
102
RTVSPropertyOp9
 70
     1
102
RTVSPropertyOp10
 70
     1
102
RTVSPropertyOp11
 70
     1
102
RTVSPropertyOp12
 70
     1
102
RTVSPropertyOp13
 70
     1
102
RTVSPropertyOp14
 70
     1
102
RTVSPropertyOp15
 70
     1
102
RTVSPropertyOp16
 70
     1
102
RTVSPropertyOp17
 70
     1
102
RTVSPropertyOp18
 70
     1
102
RTVSPropertyOp19
 70
     1
102
RTVSPropertyOp20
 70
     1
102
RTVSPropertyOp21
 70
     1
102
RTVSPropertyOp22
 70
     1
102
RTVSPropertyOp23
 70
     1
102
RTVSPropertyOp24
 70
     1
102
RTVSPropertyOp25
 70
     1
102
RTVSPropertyOp26
 70
     1
102
RTVSPropertyOp27
 70
     1
102
RTVSPropertyOp28
 70
     1
102
RTVSPropertyOp29
 70
     1
102
RTVSPropertyOp30
 70
     1
102
RTVSPropertyOp31
 70
     1
102
RTVSPropertyOp32
 70
     1
102
RTVSPropertyOp33
 70
     1
102
RTVSPropertyOp34
 70
     1
102
RTVSPropertyOp35
 70
     1
102
RTVSPropertyOp36
 70
     1
102
RTVSPropertyOp37
 70
     1
102
RTVSPropertyOp38
 70
     1
102
RTVSPropertyOp39
 70
     1
102
RTVSPropertyOp40
 70
     1
102
RTVSPropertyOp41
 70
     1
102
RTVSPropertyOp42
 70
     1
102
RTVSPropertyOp43
 70
     1
102
RTVSPropertyOp44
 70
     1
102
RTVSPropertyOp45
 70
     1
102
RTVSPropertyOp46
 70
     1
102
RTVSPropertyOp47
 70
     1
102
RTVSPropertyOp48
 70
     1
102
RTVSPropertyOp49
 70
     1
102
RTVSPropertyOp50
 70
     1
102
RTVSPropertyOp51
 70
     0
102
RTVSPropertyOp52
 70
     0
102
RTVSPropertyOp53
 70
     1
102
RTVSPropertyOp54
 70
     1
102
RTVSPropertyOp55
 70
     1
102
RTVSPropertyOp56
 70
     1
102
RTVSPropertyOp57
 70
     1
102
RTVSPropertyOp58
 70
     1
102
RTVSPropertyOp59
 70
     1
102
RTVSPropertyOp60
 70
     1
102
RTVSPropertyOp61
 70
     1
102
RTVSPropertyOp62
 70
     1
  0
XRECORD
  5
4C73
102
{ACAD_REACTORS
330
4C72
102
}
330
4C72
100
AcDbXrecord
280
     1
102
RTVSPost2010Prop28
280
     0
102
RTVSPost2010PropOp28
 70
     1
102
RTVSPost2010Prop29
280
     1
102
RTVSPost2010PropOp29
 70
     1
102
RTVSPost2010Prop30
280
     1
102
RTVSPost2010PropOp30
 70
     1
102
RTVSPost2010Prop31
280
     0
102
RTVSPost2010PropOp31
 70
     1
102
RTVSPost2010Prop32
280
     0
102
RTVSPost2010PropOp32
 70
     1
102
RTVSPost2010Prop33
280
     0
102
RTVSPost2010PropOp33
 70
     1
102
RTVSPost2010Prop34
280
     0
102
RTVSPost2010PropOp34
 70
     1
102
RTVSPost2010Prop35
280
     0
102
RTVSPost2010PropOp35
 70
     1
102
RTVSPost2010Prop36
280
     0
102
RTVSPost2010PropOp36
 70
     1
102
RTVSPost2010Prop37
 90
       50
102
RTVSPost2010PropOp37
 70
     1
102
RTVSPost2010Prop38
140
0.0
102
RTVSPost2010PropOp38
 70
     1
102
RTVSPost2010Prop39
140
1.0
102
RTVSPost2010PropOp39
 70
     1
102
RTVSPost2010Prop40
 90
        0
102
RTVSPost2010PropOp40
 70
     1
102
RTVSPost2010Prop41ColorIndex
 90
       18
102
RTVSPost2010Prop41ColorRGB
 90
        0
102
RTVSPost2010PropOp41
 70
     1
102
RTVSPost2010Prop42
 90
       50
102
RTVSPost2010PropOp42
 70
     1
102
RTVSPost2010Prop43
 90
        3
102
RTVSPost2010PropOp43
 70
     1
102
RTVSPost2010Prop44ColorIndex
 90
        5
102
RTVSPost2010Prop44ColorRGB
 90
      255
102
RTVSPost2010PropOp44
 70
     1
102
RTVSPost2010Prop45
280
     0
102
RTVSPost2010PropOp45
 70
     1
102
RTVSPost2010Prop46
 90
       50
102
RTVSPost2010PropOp46
 70
     1
102
RTVSPost2010Prop47
 90
       50
102
RTVSPost2010PropOp47
 70
     1
102
RTVSPost2010Prop48
 90
       50
102
RTVSPost2010PropOp48
 70
     1
102
RTVSPost2010Prop49
280
     0
102
RTVSPost2010PropOp49
 70
     1
102
RTVSPost2010Prop50
 90
       50
102
RTVSPost2010PropOp50
 70
     1
102
RTVSPost2010Prop51ColorIndex
 90
      256
102
RTVSPost2010Prop51ColorRGB
 90
-16777216
102
RTVSPost2010PropOp51
 70
     0
102
RTVSPost2010Prop52
140
1.0
102
RTVSPost2010PropOp52
 70
     0
102
RTVSPost2010Prop53
 90
        2
102
RTVSPost2010PropOp53
 70
     1
102
RTVSPost2010Prop54
  1
strokes_ogs.tif
102
RTVSPost2010PropOp54
 70
     1
102
RTVSPost2010Prop55
280
     0
102
RTVSPost2010PropOp55
 70
     1
102
RTVSPost2010Prop56
140
1.0
102
RTVSPost2010PropOp56
 70
     1
102
RTVSPost2010Prop57
140
1.0
102
RTVSPost2010PropOp57
 70
     1
102
RTVSPropertyOp0
 70
     1
102
RTVSPropertyOp1
 70
     1
102
RTVSPropertyOp2
 70
     1
102
RTVSPropertyOp3
 70
     1
102
RTVSPropertyOp4
 70
     1
102
RTVSPropertyOp5
 70
     1
102
RTVSPropertyOp6
 70
     1
102
RTVSPropertyOp7
 70
     1
102
RTVSPropertyOp8
 70
     1
102
RTVSPropertyOp9
 70
     1
102
RTVSPropertyOp10
 70
     1
102
RTVSPropertyOp11
 70
     1
102
RTVSPropertyOp12
 70
     1
102
RTVSPropertyOp13
 70
     1
102
RTVSPropertyOp14
 70
     1
102
RTVSPropertyOp15
 70
     1
102
RTVSPropertyOp16
 70
     1
102
RTVSPropertyOp17
 70
     1
102
RTVSPropertyOp18
 70
     1
102
RTVSPropertyOp19
 70
     1
102
RTVSPropertyOp20
 70
     1
102
RTVSPropertyOp21
 70
     1
102
RTVSPropertyOp22
 70
     1
102
RTVSPropertyOp23
 70
     1
102
RTVSPropertyOp24
 70
     1
102
RTVSPropertyOp25
 70
     1
102
RTVSPropertyOp26
 70
     1
102
RTVSPropertyOp27
 70
     1
102
RTVSPropertyOp28
 70
     1
102
RTVSPropertyOp29
 70
     1
102
RTVSPropertyOp30
 70
     1
102
RTVSPropertyOp31
 70
     1
102
RTVSPropertyOp32
 70
     1
102
RTVSPropertyOp33
 70
     1
102
RTVSPropertyOp34
 70
     1
102
RTVSPropertyOp35
 70
     1
102
RTVSPropertyOp36
 70
     1
102
RTVSPropertyOp37
 70
     1
102
RTVSPropertyOp38
 70
     1
102
RTVSPropertyOp39
 70
     1
102
RTVSPropertyOp40
 70
     1
102
RTVSPropertyOp41
 70
     1
102
RTVSPropertyOp42
 70
     1
102
RTVSPropertyOp43
 70
     1
102
RTVSPropertyOp44
 70
     1
102
RTVSPropertyOp45
 70
     1
102
RTVSPropertyOp46
 70
     1
102
RTVSPropertyOp47
 70
     1
102
RTVSPropertyOp48
 70
     1
102
RTVSPropertyOp49
 70
     1
102
RTVSPropertyOp50
 70
     1
102
RTVSPropertyOp51
 70
     0
102
RTVSPropertyOp52
 70
     0
102
RTVSPropertyOp53
 70
     1
102
RTVSPropertyOp54
 70
     1
102
RTVSPropertyOp55
 70
     1
102
RTVSPropertyOp56
 70
     1
102
RTVSPropertyOp57
 70
     1
102
RTVSPropertyOp58
 70
     1
102
RTVSPropertyOp59
 70
     1
102
RTVSPropertyOp60
 70
     1
102
RTVSPropertyOp61
 70
     1
102
RTVSPropertyOp62
 70
     1
  0
XRECORD
  5
4C81
102
{ACAD_REACTORS
330
4C80
102
}
330
4C80
100
AcDbXrecord
280
     1
102
RTVSPost2010Prop28
280
     0
102
RTVSPost2010PropOp28
 70
     1
102
RTVSPost2010Prop29
280
     1
102
RTVSPost2010PropOp29
 70
     1
102
RTVSPost2010Prop30
280
     1
102
RTVSPost2010PropOp30
 70
     1
102
RTVSPost2010Prop31
280
     0
102
RTVSPost2010PropOp31
 70
     1
102
RTVSPost2010Prop32
280
     0
102
RTVSPost2010PropOp32
 70
     1
102
RTVSPost2010Prop33
280
     0
102
RTVSPost2010PropOp33
 70
     1
102
RTVSPost2010Prop34
280
     0
102
RTVSPost2010PropOp34
 70
     1
102
RTVSPost2010Prop35
280
     0
102
RTVSPost2010PropOp35
 70
     1
102
RTVSPost2010Prop36
280
     0
102
RTVSPost2010PropOp36
 70
     1
102
RTVSPost2010Prop37
 90
       50
102
RTVSPost2010PropOp37
 70
     1
102
RTVSPost2010Prop38
140
0.0
102
RTVSPost2010PropOp38
 70
     1
102
RTVSPost2010Prop39
140
1.0
102
RTVSPost2010PropOp39
 70
     1
102
RTVSPost2010Prop40
 90
        0
102
RTVSPost2010PropOp40
 70
     1
102
RTVSPost2010Prop41ColorIndex
 90
       18
102
RTVSPost2010Prop41ColorRGB
 90
        0
102
RTVSPost2010PropOp41
 70
     1
102
RTVSPost2010Prop42
 90
       50
102
RTVSPost2010PropOp42
 70
     1
102
RTVSPost2010Prop43
 90
        3
102
RTVSPost2010PropOp43
 70
     1
102
RTVSPost2010Prop44ColorIndex
 90
        5
102
RTVSPost2010Prop44ColorRGB
 90
      255
102
RTVSPost2010PropOp44
 70
     1
102
RTVSPost2010Prop45
280
     0
102
RTVSPost2010PropOp45
 70
     1
102
RTVSPost2010Prop46
 90
       50
102
RTVSPost2010PropOp46
 70
     1
102
RTVSPost2010Prop47
 90
       50
102
RTVSPost2010PropOp47
 70
     1
102
RTVSPost2010Prop48
 90
       50
102
RTVSPost2010PropOp48
 70
     1
102
RTVSPost2010Prop49
280
     0
102
RTVSPost2010PropOp49
 70
     1
102
RTVSPost2010Prop50
 90
       50
102
RTVSPost2010PropOp50
 70
     1
102
RTVSPost2010Prop51ColorIndex
 90
      256
102
RTVSPost2010Prop51ColorRGB
 90
-16777216
102
RTVSPost2010PropOp51
 70
     0
102
RTVSPost2010Prop52
140
1.0
102
RTVSPost2010PropOp52
 70
     0
102
RTVSPost2010Prop53
 90
        2
102
RTVSPost2010PropOp53
 70
     1
102
RTVSPost2010Prop54
  1
strokes_ogs.tif
102
RTVSPost2010PropOp54
 70
     1
102
RTVSPost2010Prop55
280
     0
102
RTVSPost2010PropOp55
 70
     1
102
RTVSPost2010Prop56
140
1.0
102
RTVSPost2010PropOp56
 70
     1
102
RTVSPost2010Prop57
140
1.0
102
RTVSPost2010PropOp57
 70
     1
102
RTVSPropertyOp0
 70
     1
102
RTVSPropertyOp1
 70
     1
102
RTVSPropertyOp2
 70
     1
102
RTVSPropertyOp3
 70
     1
102
RTVSPropertyOp4
 70
     1
102
RTVSPropertyOp5
 70
     1
102
RTVSPropertyOp6
 70
     1
102
RTVSPropertyOp7
 70
     1
102
RTVSPropertyOp8
 70
     1
102
RTVSPropertyOp9
 70
     1
102
RTVSPropertyOp10
 70
     1
102
RTVSPropertyOp11
 70
     1
102
RTVSPropertyOp12
 70
     1
102
RTVSPropertyOp13
 70
     1
102
RTVSPropertyOp14
 70
     1
102
RTVSPropertyOp15
 70
     1
102
RTVSPropertyOp16
 70
     1
102
RTVSPropertyOp17
 70
     1
102
RTVSPropertyOp18
 70
     1
102
RTVSPropertyOp19
 70
     1
102
RTVSPropertyOp20
 70
     1
102
RTVSPropertyOp21
 70
     1
102
RTVSPropertyOp22
 70
     1
102
RTVSPropertyOp23
 70
     1
102
RTVSPropertyOp24
 70
     1
102
RTVSPropertyOp25
 70
     1
102
RTVSPropertyOp26
 70
     1
102
RTVSPropertyOp27
 70
     1
102
RTVSPropertyOp28
 70
     1
102
RTVSPropertyOp29
 70
     1
102
RTVSPropertyOp30
 70
     1
102
RTVSPropertyOp31
 70
     1
102
RTVSPropertyOp32
 70
     1
102
RTVSPropertyOp33
 70
     1
102
RTVSPropertyOp34
 70
     1
102
RTVSPropertyOp35
 70
     1
102
RTVSPropertyOp36
 70
     1
102
RTVSPropertyOp37
 70
     1
102
RTVSPropertyOp38
 70
     1
102
RTVSPropertyOp39
 70
     1
102
RTVSPropertyOp40
 70
     1
102
RTVSPropertyOp41
 70
     1
102
RTVSPropertyOp42
 70
     1
102
RTVSPropertyOp43
 70
     1
102
RTVSPropertyOp44
 70
     1
102
RTVSPropertyOp45
 70
     1
102
RTVSPropertyOp46
 70
     1
102
RTVSPropertyOp47
 70
     1
102
RTVSPropertyOp48
 70
     1
102
RTVSPropertyOp49
 70
     1
102
RTVSPropertyOp50
 70
     1
102
RTVSPropertyOp51
 70
     0
102
RTVSPropertyOp52
 70
     0
102
RTVSPropertyOp53
 70
     1
102
RTVSPropertyOp54
 70
     1
102
RTVSPropertyOp55
 70
     1
102
RTVSPropertyOp56
 70
     1
102
RTVSPropertyOp57
 70
     1
102
RTVSPropertyOp58
 70
     1
102
RTVSPropertyOp59
 70
     1
102
RTVSPropertyOp60
 70
     1
102
RTVSPropertyOp61
 70
     1
102
RTVSPropertyOp62
 70
     1
  0
XRECORD
  5
4C89
102
{ACAD_REACTORS
330
4C88
102
}
330
4C88
100
AcDbXrecord
280
     1
102
RTVSPost2010Prop28
280
     0
102
RTVSPost2010PropOp28
 70
     1
102
RTVSPost2010Prop29
280
     1
102
RTVSPost2010PropOp29
 70
     1
102
RTVSPost2010Prop30
280
     1
102
RTVSPost2010PropOp30
 70
     1
102
RTVSPost2010Prop31
280
     0
102
RTVSPost2010PropOp31
 70
     1
102
RTVSPost2010Prop32
280
     0
102
RTVSPost2010PropOp32
 70
     1
102
RTVSPost2010Prop33
280
     0
102
RTVSPost2010PropOp33
 70
     1
102
RTVSPost2010Prop34
280
     0
102
RTVSPost2010PropOp34
 70
     1
102
RTVSPost2010Prop35
280
     0
102
RTVSPost2010PropOp35
 70
     1
102
RTVSPost2010Prop36
280
     0
102
RTVSPost2010PropOp36
 70
     1
102
RTVSPost2010Prop37
 90
       50
102
RTVSPost2010PropOp37
 70
     1
102
RTVSPost2010Prop38
140
0.0
102
RTVSPost2010PropOp38
 70
     1
102
RTVSPost2010Prop39
140
1.0
102
RTVSPost2010PropOp39
 70
     1
102
RTVSPost2010Prop40
 90
        0
102
RTVSPost2010PropOp40
 70
     1
102
RTVSPost2010Prop41ColorIndex
 90
       18
102
RTVSPost2010Prop41ColorRGB
 90
        0
102
RTVSPost2010PropOp41
 70
     1
102
RTVSPost2010Prop42
 90
       50
102
RTVSPost2010PropOp42
 70
     1
102
RTVSPost2010Prop43
 90
        3
102
RTVSPost2010PropOp43
 70
     1
102
RTVSPost2010Prop44ColorIndex
 90
        5
102
RTVSPost2010Prop44ColorRGB
 90
      255
102
RTVSPost2010PropOp44
 70
     1
102
RTVSPost2010Prop45
280
     0
102
RTVSPost2010PropOp45
 70
     1
102
RTVSPost2010Prop46
 90
       50
102
RTVSPost2010PropOp46
 70
     1
102
RTVSPost2010Prop47
 90
       50
102
RTVSPost2010PropOp47
 70
     1
102
RTVSPost2010Prop48
 90
       50
102
RTVSPost2010PropOp48
 70
     1
102
RTVSPost2010Prop49
280
     0
102
RTVSPost2010PropOp49
 70
     1
102
RTVSPost2010Prop50
 90
       50
102
RTVSPost2010PropOp50
 70
     1
102
RTVSPost2010Prop51ColorIndex
 90
      256
102
RTVSPost2010Prop51ColorRGB
 90
-16777216
102
RTVSPost2010PropOp51
 70
     0
102
RTVSPost2010Prop52
140
1.0
102
RTVSPost2010PropOp52
 70
     0
102
RTVSPost2010Prop53
 90
        2
102
RTVSPost2010PropOp53
 70
     1
102
RTVSPost2010Prop54
  1
strokes_ogs.tif
102
RTVSPost2010PropOp54
 70
     1
102
RTVSPost2010Prop55
280
     0
102
RTVSPost2010PropOp55
 70
     1
102
RTVSPost2010Prop56
140
1.0
102
RTVSPost2010PropOp56
 70
     1
102
RTVSPost2010Prop57
140
1.0
102
RTVSPost2010PropOp57
 70
     1
102
RTVSPropertyOp0
 70
     1
102
RTVSPropertyOp1
 70
     1
102
RTVSPropertyOp2
 70
     1
102
RTVSPropertyOp3
 70
     1
102
RTVSPropertyOp4
 70
     1
102
RTVSPropertyOp5
 70
     1
102
RTVSPropertyOp6
 70
     1
102
RTVSPropertyOp7
 70
     1
102
RTVSPropertyOp8
 70
     1
102
RTVSPropertyOp9
 70
     1
102
RTVSPropertyOp10
 70
     1
102
RTVSPropertyOp11
 70
     1
102
RTVSPropertyOp12
 70
     1
102
RTVSPropertyOp13
 70
     1
102
RTVSPropertyOp14
 70
     1
102
RTVSPropertyOp15
 70
     1
102
RTVSPropertyOp16
 70
     1
102
RTVSPropertyOp17
 70
     1
102
RTVSPropertyOp18
 70
     1
102
RTVSPropertyOp19
 70
     1
102
RTVSPropertyOp20
 70
     1
102
RTVSPropertyOp21
 70
     1
102
RTVSPropertyOp22
 70
     1
102
RTVSPropertyOp23
 70
     1
102
RTVSPropertyOp24
 70
     1
102
RTVSPropertyOp25
 70
     1
102
RTVSPropertyOp26
 70
     1
102
RTVSPropertyOp27
 70
     1
102
RTVSPropertyOp28
 70
     1
102
RTVSPropertyOp29
 70
     1
102
RTVSPropertyOp30
 70
     1
102
RTVSPropertyOp31
 70
     1
102
RTVSPropertyOp32
 70
     1
102
RTVSPropertyOp33
 70
     1
102
RTVSPropertyOp34
 70
     1
102
RTVSPropertyOp35
 70
     1
102
RTVSPropertyOp36
 70
     1
102
RTVSPropertyOp37
 70
     1
102
RTVSPropertyOp38
 70
     1
102
RTVSPropertyOp39
 70
     1
102
RTVSPropertyOp40
 70
     1
102
RTVSPropertyOp41
 70
     1
102
RTVSPropertyOp42
 70
     1
102
RTVSPropertyOp43
 70
     1
102
RTVSPropertyOp44
 70
     1
102
RTVSPropertyOp45
 70
     1
102
RTVSPropertyOp46
 70
     1
102
RTVSPropertyOp47
 70
     1
102
RTVSPropertyOp48
 70
     1
102
RTVSPropertyOp49
 70
     1
102
RTVSPropertyOp50
 70
     1
102
RTVSPropertyOp51
 70
     0
102
RTVSPropertyOp52
 70
     0
102
RTVSPropertyOp53
 70
     1
102
RTVSPropertyOp54
 70
     1
102
RTVSPropertyOp55
 70
     1
102
RTVSPropertyOp56
 70
     1
102
RTVSPropertyOp57
 70
     1
102
RTVSPropertyOp58
 70
     1
102
RTVSPropertyOp59
 70
     1
102
RTVSPropertyOp60
 70
     1
102
RTVSPropertyOp61
 70
     1
102
RTVSPropertyOp62
 70
     1
  0
XRECORD
  5
4C7B
102
{ACAD_REACTORS
330
4C7A
102
}
330
4C7A
100
AcDbXrecord
280
     1
102
RTVSPost2010Prop28
280
     0
102
RTVSPost2010PropOp28
 70
     1
102
RTVSPost2010Prop29
280
     1
102
RTVSPost2010PropOp29
 70
     1
102
RTVSPost2010Prop30
280
     1
102
RTVSPost2010PropOp30
 70
     1
102
RTVSPost2010Prop31
280
     0
102
RTVSPost2010PropOp31
 70
     1
102
RTVSPost2010Prop32
280
     0
102
RTVSPost2010PropOp32
 70
     1
102
RTVSPost2010Prop33
280
     0
102
RTVSPost2010PropOp33
 70
     1
102
RTVSPost2010Prop34
280
     0
102
RTVSPost2010PropOp34
 70
     1
102
RTVSPost2010Prop35
280
     0
102
RTVSPost2010PropOp35
 70
     1
102
RTVSPost2010Prop36
280
     0
102
RTVSPost2010PropOp36
 70
     1
102
RTVSPost2010Prop37
 90
       50
102
RTVSPost2010PropOp37
 70
     1
102
RTVSPost2010Prop38
140
0.0
102
RTVSPost2010PropOp38
 70
     1
102
RTVSPost2010Prop39
140
1.0
102
RTVSPost2010PropOp39
 70
     1
102
RTVSPost2010Prop40
 90
        0
102
RTVSPost2010PropOp40
 70
     1
102
RTVSPost2010Prop41ColorIndex
 90
       18
102
RTVSPost2010Prop41ColorRGB
 90
        0
102
RTVSPost2010PropOp41
 70
     1
102
RTVSPost2010Prop42
 90
       50
102
RTVSPost2010PropOp42
 70
     1
102
RTVSPost2010Prop43
 90
        3
102
RTVSPost2010PropOp43
 70
     1
102
RTVSPost2010Prop44ColorIndex
 90
        5
102
RTVSPost2010Prop44ColorRGB
 90
      255
102
RTVSPost2010PropOp44
 70
     1
102
RTVSPost2010Prop45
280
     0
102
RTVSPost2010PropOp45
 70
     1
102
RTVSPost2010Prop46
 90
       50
102
RTVSPost2010PropOp46
 70
     1
102
RTVSPost2010Prop47
 90
       50
102
RTVSPost2010PropOp47
 70
     1
102
RTVSPost2010Prop48
 90
       50
102
RTVSPost2010PropOp48
 70
     1
102
RTVSPost2010Prop49
280
     0
102
RTVSPost2010PropOp49
 70
     1
102
RTVSPost2010Prop50
 90
       50
102
RTVSPost2010PropOp50
 70
     1
102
RTVSPost2010Prop51ColorIndex
 90
      256
102
RTVSPost2010Prop51ColorRGB
 90
-16777216
102
RTVSPost2010PropOp51
 70
     0
102
RTVSPost2010Prop52
140
1.0
102
RTVSPost2010PropOp52
 70
     0
102
RTVSPost2010Prop53
 90
        2
102
RTVSPost2010PropOp53
 70
     1
102
RTVSPost2010Prop54
  1
strokes_ogs.tif
102
RTVSPost2010PropOp54
 70
     1
102
RTVSPost2010Prop55
280
     0
102
RTVSPost2010PropOp55
 70
     1
102
RTVSPost2010Prop56
140
1.0
102
RTVSPost2010PropOp56
 70
     1
102
RTVSPost2010Prop57
140
1.0
102
RTVSPost2010PropOp57
 70
     1
102
RTVSPropertyOp0
 70
     1
102
RTVSPropertyOp1
 70
     1
102
RTVSPropertyOp2
 70
     1
102
RTVSPropertyOp3
 70
     1
102
RTVSPropertyOp4
 70
     1
102
RTVSPropertyOp5
 70
     1
102
RTVSPropertyOp6
 70
     1
102
RTVSPropertyOp7
 70
     1
102
RTVSPropertyOp8
 70
     1
102
RTVSPropertyOp9
 70
     1
102
RTVSPropertyOp10
 70
     1
102
RTVSPropertyOp11
 70
     1
102
RTVSPropertyOp12
 70
     1
102
RTVSPropertyOp13
 70
     1
102
RTVSPropertyOp14
 70
     1
102
RTVSPropertyOp15
 70
     1
102
RTVSPropertyOp16
 70
     1
102
RTVSPropertyOp17
 70
     1
102
RTVSPropertyOp18
 70
     1
102
RTVSPropertyOp19
 70
     1
102
RTVSPropertyOp20
 70
     1
102
RTVSPropertyOp21
 70
     1
102
RTVSPropertyOp22
 70
     1
102
RTVSPropertyOp23
 70
     1
102
RTVSPropertyOp24
 70
     1
102
RTVSPropertyOp25
 70
     1
102
RTVSPropertyOp26
 70
     1
102
RTVSPropertyOp27
 70
     1
102
RTVSPropertyOp28
 70
     1
102
RTVSPropertyOp29
 70
     1
102
RTVSPropertyOp30
 70
     1
102
RTVSPropertyOp31
 70
     1
102
RTVSPropertyOp32
 70
     1
102
RTVSPropertyOp33
 70
     1
102
RTVSPropertyOp34
 70
     1
102
RTVSPropertyOp35
 70
     1
102
RTVSPropertyOp36
 70
     1
102
RTVSPropertyOp37
 70
     1
102
RTVSPropertyOp38
 70
     1
102
RTVSPropertyOp39
 70
     1
102
RTVSPropertyOp40
 70
     1
102
RTVSPropertyOp41
 70
     1
102
RTVSPropertyOp42
 70
     1
102
RTVSPropertyOp43
 70
     1
102
RTVSPropertyOp44
 70
     1
102
RTVSPropertyOp45
 70
     1
102
RTVSPropertyOp46
 70
     1
102
RTVSPropertyOp47
 70
     1
102
RTVSPropertyOp48
 70
     1
102
RTVSPropertyOp49
 70
     1
102
RTVSPropertyOp50
 70
     1
102
RTVSPropertyOp51
 70
     0
102
RTVSPropertyOp52
 70
     0
102
RTVSPropertyOp53
 70
     1
102
RTVSPropertyOp54
 70
     1
102
RTVSPropertyOp55
 70
     1
102
RTVSPropertyOp56
 70
     1
102
RTVSPropertyOp57
 70
     1
102
RTVSPropertyOp58
 70
     1
102
RTVSPropertyOp59
 70
     1
102
RTVSPropertyOp60
 70
     1
102
RTVSPropertyOp61
 70
     1
102
RTVSPropertyOp62
 70
     1
  0
XRECORD
  5
4C7F
102
{ACAD_REACTORS
330
4C7E
102
}
330
4C7E
100
AcDbXrecord
280
     1
102
RTVSPost2010Prop28
280
     0
102
RTVSPost2010PropOp28
 70
     1
102
RTVSPost2010Prop29
280
     1
102
RTVSPost2010PropOp29
 70
     1
102
RTVSPost2010Prop30
280
     1
102
RTVSPost2010PropOp30
 70
     1
102
RTVSPost2010Prop31
280
     0
102
RTVSPost2010PropOp31
 70
     1
102
RTVSPost2010Prop32
280
     0
102
RTVSPost2010PropOp32
 70
     1
102
RTVSPost2010Prop33
280
     0
102
RTVSPost2010PropOp33
 70
     1
102
RTVSPost2010Prop34
280
     0
102
RTVSPost2010PropOp34
 70
     1
102
RTVSPost2010Prop35
280
     0
102
RTVSPost2010PropOp35
 70
     1
102
RTVSPost2010Prop36
280
     0
102
RTVSPost2010PropOp36
 70
     1
102
RTVSPost2010Prop37
 90
       50
102
RTVSPost2010PropOp37
 70
     1
102
RTVSPost2010Prop38
140
0.0
102
RTVSPost2010PropOp38
 70
     1
102
RTVSPost2010Prop39
140
1.0
102
RTVSPost2010PropOp39
 70
     1
102
RTVSPost2010Prop40
 90
        0
102
RTVSPost2010PropOp40
 70
     1
102
RTVSPost2010Prop41ColorIndex
 90
       18
102
RTVSPost2010Prop41ColorRGB
 90
        0
102
RTVSPost2010PropOp41
 70
     1
102
RTVSPost2010Prop42
 90
       50
102
RTVSPost2010PropOp42
 70
     1
102
RTVSPost2010Prop43
 90
        3
102
RTVSPost2010PropOp43
 70
     1
102
RTVSPost2010Prop44ColorIndex
 90
        5
102
RTVSPost2010Prop44ColorRGB
 90
      255
102
RTVSPost2010PropOp44
 70
     1
102
RTVSPost2010Prop45
280
     0
102
RTVSPost2010PropOp45
 70
     1
102
RTVSPost2010Prop46
 90
       50
102
RTVSPost2010PropOp46
 70
     1
102
RTVSPost2010Prop47
 90
       50
102
RTVSPost2010PropOp47
 70
     1
102
RTVSPost2010Prop48
 90
       50
102
RTVSPost2010PropOp48
 70
     1
102
RTVSPost2010Prop49
280
     0
102
RTVSPost2010PropOp49
 70
     1
102
RTVSPost2010Prop50
 90
       50
102
RTVSPost2010PropOp50
 70
     1
102
RTVSPost2010Prop51ColorIndex
 90
      256
102
RTVSPost2010Prop51ColorRGB
 90
-16777216
102
RTVSPost2010PropOp51
 70
     0
102
RTVSPost2010Prop52
140
1.0
102
RTVSPost2010PropOp52
 70
     0
102
RTVSPost2010Prop53
 90
        2
102
RTVSPost2010PropOp53
 70
     1
102
RTVSPost2010Prop54
  1
strokes_ogs.tif
102
RTVSPost2010PropOp54
 70
     1
102
RTVSPost2010Prop55
280
     0
102
RTVSPost2010PropOp55
 70
     1
102
RTVSPost2010Prop56
140
1.0
102
RTVSPost2010PropOp56
 70
     1
102
RTVSPost2010Prop57
140
1.0
102
RTVSPost2010PropOp57
 70
     1
102
RTVSPropertyOp0
 70
     1
102
RTVSPropertyOp1
 70
     1
102
RTVSPropertyOp2
 70
     1
102
RTVSPropertyOp3
 70
     1
102
RTVSPropertyOp4
 70
     1
102
RTVSPropertyOp5
 70
     1
102
RTVSPropertyOp6
 70
     1
102
RTVSPropertyOp7
 70
     1
102
RTVSPropertyOp8
 70
     1
102
RTVSPropertyOp9
 70
     1
102
RTVSPropertyOp10
 70
     1
102
RTVSPropertyOp11
 70
     1
102
RTVSPropertyOp12
 70
     1
102
RTVSPropertyOp13
 70
     1
102
RTVSPropertyOp14
 70
     1
102
RTVSPropertyOp15
 70
     1
102
RTVSPropertyOp16
 70
     1
102
RTVSPropertyOp17
 70
     1
102
RTVSPropertyOp18
 70
     1
102
RTVSPropertyOp19
 70
     1
102
RTVSPropertyOp20
 70
     1
102
RTVSPropertyOp21
 70
     1
102
RTVSPropertyOp22
 70
     1
102
RTVSPropertyOp23
 70
     1
102
RTVSPropertyOp24
 70
     1
102
RTVSPropertyOp25
 70
     1
102
RTVSPropertyOp26
 70
     1
102
RTVSPropertyOp27
 70
     1
102
RTVSPropertyOp28
 70
     1
102
RTVSPropertyOp29
 70
     1
102
RTVSPropertyOp30
 70
     1
102
RTVSPropertyOp31
 70
     1
102
RTVSPropertyOp32
 70
     1
102
RTVSPropertyOp33
 70
     1
102
RTVSPropertyOp34
 70
     1
102
RTVSPropertyOp35
 70
     1
102
RTVSPropertyOp36
 70
     1
102
RTVSPropertyOp37
 70
     1
102
RTVSPropertyOp38
 70
     1
102
RTVSPropertyOp39
 70
     1
102
RTVSPropertyOp40
 70
     1
102
RTVSPropertyOp41
 70
     1
102
RTVSPropertyOp42
 70
     1
102
RTVSPropertyOp43
 70
     1
102
RTVSPropertyOp44
 70
     1
102
RTVSPropertyOp45
 70
     1
102
RTVSPropertyOp46
 70
     1
102
RTVSPropertyOp47
 70
     1
102
RTVSPropertyOp48
 70
     1
102
RTVSPropertyOp49
 70
     1
102
RTVSPropertyOp50
 70
     1
102
RTVSPropertyOp51
 70
     0
102
RTVSPropertyOp52
 70
     0
102
RTVSPropertyOp53
 70
     1
102
RTVSPropertyOp54
 70
     1
102
RTVSPropertyOp55
 70
     1
102
RTVSPropertyOp56
 70
     1
102
RTVSPropertyOp57
 70
     1
102
RTVSPropertyOp58
 70
     1
102
RTVSPropertyOp59
 70
     1
102
RTVSPropertyOp60
 70
     1
102
RTVSPropertyOp61
 70
     1
102
RTVSPropertyOp62
 70
     1
  0
XRECORD
  5
4C8F
102
{ACAD_REACTORS
330
4C8E
102
}
330
4C8E
100
AcDbXrecord
280
     1
102
RTVSPost2010Prop28
280
     0
102
RTVSPost2010PropOp28
 70
     1
102
RTVSPost2010Prop29
280
     1
102
RTVSPost2010PropOp29
 70
     1
102
RTVSPost2010Prop30
280
     1
102
RTVSPost2010PropOp30
 70
     1
102
RTVSPost2010Prop31
280
     0
102
RTVSPost2010PropOp31
 70
     1
102
RTVSPost2010Prop32
280
     0
102
RTVSPost2010PropOp32
 70
     1
102
RTVSPost2010Prop33
280
     0
102
RTVSPost2010PropOp33
 70
     1
102
RTVSPost2010Prop34
280
     0
102
RTVSPost2010PropOp34
 70
     1
102
RTVSPost2010Prop35
280
     0
102
RTVSPost2010PropOp35
 70
     1
102
RTVSPost2010Prop36
280
     0
102
RTVSPost2010PropOp36
 70
     1
102
RTVSPost2010Prop37
 90
       50
102
RTVSPost2010PropOp37
 70
     1
102
RTVSPost2010Prop38
140
0.0
102
RTVSPost2010PropOp38
 70
     1
102
RTVSPost2010Prop39
140
1.0
102
RTVSPost2010PropOp39
 70
     1
102
RTVSPost2010Prop40
 90
        0
102
RTVSPost2010PropOp40
 70
     1
102
RTVSPost2010Prop41ColorIndex
 90
       18
102
RTVSPost2010Prop41ColorRGB
 90
        0
102
RTVSPost2010PropOp41
 70
     1
102
RTVSPost2010Prop42
 90
       50
102
RTVSPost2010PropOp42
 70
     1
102
RTVSPost2010Prop43
 90
        3
102
RTVSPost2010PropOp43
 70
     1
102
RTVSPost2010Prop44ColorIndex
 90
        5
102
RTVSPost2010Prop44ColorRGB
 90
      255
102
RTVSPost2010PropOp44
 70
     1
102
RTVSPost2010Prop45
280
     0
102
RTVSPost2010PropOp45
 70
     1
102
RTVSPost2010Prop46
 90
       50
102
RTVSPost2010PropOp46
 70
     1
102
RTVSPost2010Prop47
 90
       50
102
RTVSPost2010PropOp47
 70
     1
102
RTVSPost2010Prop48
 90
       50
102
RTVSPost2010PropOp48
 70
     1
102
RTVSPost2010Prop49
280
     0
102
RTVSPost2010PropOp49
 70
     1
102
RTVSPost2010Prop50
 90
       50
102
RTVSPost2010PropOp50
 70
     1
102
RTVSPost2010Prop51ColorIndex
 90
      256
102
RTVSPost2010Prop51ColorRGB
 90
-16777216
102
RTVSPost2010PropOp51
 70
     0
102
RTVSPost2010Prop52
140
1.0
102
RTVSPost2010PropOp52
 70
     0
102
RTVSPost2010Prop53
 90
        2
102
RTVSPost2010PropOp53
 70
     1
102
RTVSPost2010Prop54
  1
strokes_ogs.tif
102
RTVSPost2010PropOp54
 70
     1
102
RTVSPost2010Prop55
280
     0
102
RTVSPost2010PropOp55
 70
     1
102
RTVSPost2010Prop56
140
1.0
102
RTVSPost2010PropOp56
 70
     1
102
RTVSPost2010Prop57
140
1.0
102
RTVSPost2010PropOp57
 70
     1
102
RTVSPropertyOp0
 70
     0
102
RTVSPropertyOp1
 70
     0
102
RTVSPropertyOp2
 70
     0
102
RTVSPropertyOp3
 70
     0
102
RTVSPropertyOp4
 70
     0
102
RTVSPropertyOp5
 70
     0
102
RTVSPropertyOp6
 70
     0
102
RTVSPropertyOp7
 70
     0
102
RTVSPropertyOp8
 70
     0
102
RTVSPropertyOp9
 70
     0
102
RTVSPropertyOp10
 70
     0
102
RTVSPropertyOp11
 70
     0
102
RTVSPropertyOp12
 70
     0
102
RTVSPropertyOp13
 70
     0
102
RTVSPropertyOp14
 70
     2
102
RTVSPropertyOp15
 70
     0
102
RTVSPropertyOp16
 70
     0
102
RTVSPropertyOp17
 70
     0
102
RTVSPropertyOp18
 70
     0
102
RTVSPropertyOp19
 70
     0
102
RTVSPropertyOp20
 70
     0
102
RTVSPropertyOp21
 70
     0
102
RTVSPropertyOp22
 70
     0
102
RTVSPropertyOp23
 70
     0
102
RTVSPropertyOp24
 70
     0
102
RTVSPropertyOp25
 70
     0
102
RTVSPropertyOp26
 70
     0
102
RTVSPropertyOp27
 70
     0
102
RTVSPropertyOp28
 70
     1
102
RTVSPropertyOp29
 70
     1
102
RTVSPropertyOp30
 70
     1
102
RTVSPropertyOp31
 70
     1
102
RTVSPropertyOp32
 70
     1
102
RTVSPropertyOp33
 70
     1
102
RTVSPropertyOp34
 70
     1
102
RTVSPropertyOp35
 70
     1
102
RTVSPropertyOp36
 70
     1
102
RTVSPropertyOp37
 70
     1
102
RTVSPropertyOp38
 70
     1
102
RTVSPropertyOp39
 70
     1
102
RTVSPropertyOp40
 70
     1
102
RTVSPropertyOp41
 70
     1
102
RTVSPropertyOp42
 70
     1
102
RTVSPropertyOp43
 70
     1
102
RTVSPropertyOp44
 70
     1
102
RTVSPropertyOp45
 70
     1
102
RTVSPropertyOp46
 70
     1
102
RTVSPropertyOp47
 70
     1
102
RTVSPropertyOp48
 70
     1
102
RTVSPropertyOp49
 70
     1
102
RTVSPropertyOp50
 70
     1
102
RTVSPropertyOp51
 70
     0
102
RTVSPropertyOp52
 70
     0
102
RTVSPropertyOp53
 70
     1
102
RTVSPropertyOp54
 70
     1
102
RTVSPropertyOp55
 70
     1
102
RTVSPropertyOp56
 70
     1
102
RTVSPropertyOp57
 70
     1
102
RTVSPropertyOp58
 70
     1
102
RTVSPropertyOp59
 70
     1
102
RTVSPropertyOp60
 70
     1
102
RTVSPropertyOp61
 70
     1
102
RTVSPropertyOp62
 70
     1
  0
XRECORD
  5
4C87
102
{ACAD_REACTORS
330
4C86
102
}
330
4C86
100
AcDbXrecord
280
     1
102
RTVSPost2010Prop28
280
     0
102
RTVSPost2010PropOp28
 70
     1
102
RTVSPost2010Prop29
280
     1
102
RTVSPost2010PropOp29
 70
     1
102
RTVSPost2010Prop30
280
     1
102
RTVSPost2010PropOp30
 70
     1
102
RTVSPost2010Prop31
280
     0
102
RTVSPost2010PropOp31
 70
     1
102
RTVSPost2010Prop32
280
     0
102
RTVSPost2010PropOp32
 70
     1
102
RTVSPost2010Prop33
280
     0
102
RTVSPost2010PropOp33
 70
     1
102
RTVSPost2010Prop34
280
     0
102
RTVSPost2010PropOp34
 70
     1
102
RTVSPost2010Prop35
280
     0
102
RTVSPost2010PropOp35
 70
     1
102
RTVSPost2010Prop36
280
     0
102
RTVSPost2010PropOp36
 70
     1
102
RTVSPost2010Prop37
 90
       50
102
RTVSPost2010PropOp37
 70
     1
102
RTVSPost2010Prop38
140
0.0
102
RTVSPost2010PropOp38
 70
     1
102
RTVSPost2010Prop39
140
1.0
102
RTVSPost2010PropOp39
 70
     1
102
RTVSPost2010Prop40
 90
        0
102
RTVSPost2010PropOp40
 70
     1
102
RTVSPost2010Prop41ColorIndex
 90
       18
102
RTVSPost2010Prop41ColorRGB
 90
        0
102
RTVSPost2010PropOp41
 70
     1
102
RTVSPost2010Prop42
 90
       50
102
RTVSPost2010PropOp42
 70
     1
102
RTVSPost2010Prop43
 90
        3
102
RTVSPost2010PropOp43
 70
     1
102
RTVSPost2010Prop44ColorIndex
 90
        5
102
RTVSPost2010Prop44ColorRGB
 90
      255
102
RTVSPost2010PropOp44
 70
     1
102
RTVSPost2010Prop45
280
     0
102
RTVSPost2010PropOp45
 70
     1
102
RTVSPost2010Prop46
 90
       50
102
RTVSPost2010PropOp46
 70
     1
102
RTVSPost2010Prop47
 90
       50
102
RTVSPost2010PropOp47
 70
     1
102
RTVSPost2010Prop48
 90
       50
102
RTVSPost2010PropOp48
 70
     1
102
RTVSPost2010Prop49
280
     0
102
RTVSPost2010PropOp49
 70
     1
102
RTVSPost2010Prop50
 90
       50
102
RTVSPost2010PropOp50
 70
     1
102
RTVSPost2010Prop51ColorIndex
 90
      256
102
RTVSPost2010Prop51ColorRGB
 90
-16777216
102
RTVSPost2010PropOp51
 70
     0
102
RTVSPost2010Prop52
140
1.0
102
RTVSPost2010PropOp52
 70
     0
102
RTVSPost2010Prop53
 90
        2
102
RTVSPost2010PropOp53
 70
     1
102
RTVSPost2010Prop54
  1
strokes_ogs.tif
102
RTVSPost2010PropOp54
 70
     1
102
RTVSPost2010Prop55
280
     0
102
RTVSPost2010PropOp55
 70
     1
102
RTVSPost2010Prop56
140
1.0
102
RTVSPost2010PropOp56
 70
     1
102
RTVSPost2010Prop57
140
1.0
102
RTVSPost2010PropOp57
 70
     1
102
RTVSPropertyOp0
 70
     1
102
RTVSPropertyOp1
 70
     1
102
RTVSPropertyOp2
 70
     1
102
RTVSPropertyOp3
 70
     1
102
RTVSPropertyOp4
 70
     1
102
RTVSPropertyOp5
 70
     1
102
RTVSPropertyOp6
 70
     1
102
RTVSPropertyOp7
 70
     1
102
RTVSPropertyOp8
 70
     1
102
RTVSPropertyOp9
 70
     1
102
RTVSPropertyOp10
 70
     1
102
RTVSPropertyOp11
 70
     1
102
RTVSPropertyOp12
 70
     1
102
RTVSPropertyOp13
 70
     1
102
RTVSPropertyOp14
 70
     1
102
RTVSPropertyOp15
 70
     1
102
RTVSPropertyOp16
 70
     1
102
RTVSPropertyOp17
 70
     1
102
RTVSPropertyOp18
 70
     1
102
RTVSPropertyOp19
 70
     1
102
RTVSPropertyOp20
 70
     1
102
RTVSPropertyOp21
 70
     1
102
RTVSPropertyOp22
 70
     1
102
RTVSPropertyOp23
 70
     1
102
RTVSPropertyOp24
 70
     1
102
RTVSPropertyOp25
 70
     1
102
RTVSPropertyOp26
 70
     1
102
RTVSPropertyOp27
 70
     1
102
RTVSPropertyOp28
 70
     1
102
RTVSPropertyOp29
 70
     1
102
RTVSPropertyOp30
 70
     1
102
RTVSPropertyOp31
 70
     1
102
RTVSPropertyOp32
 70
     1
102
RTVSPropertyOp33
 70
     1
102
RTVSPropertyOp34
 70
     1
102
RTVSPropertyOp35
 70
     1
102
RTVSPropertyOp36
 70
     1
102
RTVSPropertyOp37
 70
     1
102
RTVSPropertyOp38
 70
     1
102
RTVSPropertyOp39
 70
     1
102
RTVSPropertyOp40
 70
     1
102
RTVSPropertyOp41
 70
     1
102
RTVSPropertyOp42
 70
     1
102
RTVSPropertyOp43
 70
     1
102
RTVSPropertyOp44
 70
     1
102
RTVSPropertyOp45
 70
     1
102
RTVSPropertyOp46
 70
     1
102
RTVSPropertyOp47
 70
     1
102
RTVSPropertyOp48
 70
     1
102
RTVSPropertyOp49
 70
     1
102
RTVSPropertyOp50
 70
     1
102
RTVSPropertyOp51
 70
     0
102
RTVSPropertyOp52
 70
     0
102
RTVSPropertyOp53
 70
     1
102
RTVSPropertyOp54
 70
     1
102
RTVSPropertyOp55
 70
     1
102
RTVSPropertyOp56
 70
     1
102
RTVSPropertyOp57
 70
     1
102
RTVSPropertyOp58
 70
     1
102
RTVSPropertyOp59
 70
     1
102
RTVSPropertyOp60
 70
     1
102
RTVSPropertyOp61
 70
     1
102
RTVSPropertyOp62
 70
     1
  0
XRECORD
  5
4C6B
102
{ACAD_REACTORS
330
4C6A
102
}
330
4C6A
100
AcDbXrecord
280
     1
102
RTVSPost2010Prop28
280
     0
102
RTVSPost2010PropOp28
 70
     1
102
RTVSPost2010Prop29
280
     1
102
RTVSPost2010PropOp29
 70
     1
102
RTVSPost2010Prop30
280
     1
102
RTVSPost2010PropOp30
 70
     1
102
RTVSPost2010Prop31
280
     0
102
RTVSPost2010PropOp31
 70
     1
102
RTVSPost2010Prop32
280
     0
102
RTVSPost2010PropOp32
 70
     1
102
RTVSPost2010Prop33
280
     0
102
RTVSPost2010PropOp33
 70
     1
102
RTVSPost2010Prop34
280
     0
102
RTVSPost2010PropOp34
 70
     1
102
RTVSPost2010Prop35
280
     0
102
RTVSPost2010PropOp35
 70
     1
102
RTVSPost2010Prop36
280
     0
102
RTVSPost2010PropOp36
 70
     1
102
RTVSPost2010Prop37
 90
       50
102
RTVSPost2010PropOp37
 70
     1
102
RTVSPost2010Prop38
140
0.0
102
RTVSPost2010PropOp38
 70
     1
102
RTVSPost2010Prop39
140
1.0
102
RTVSPost2010PropOp39
 70
     1
102
RTVSPost2010Prop40
 90
        0
102
RTVSPost2010PropOp40
 70
     1
102
RTVSPost2010Prop41ColorIndex
 90
       18
102
RTVSPost2010Prop41ColorRGB
 90
        0
102
RTVSPost2010PropOp41
 70
     1
102
RTVSPost2010Prop42
 90
       50
102
RTVSPost2010PropOp42
 70
     1
102
RTVSPost2010Prop43
 90
        3
102
RTVSPost2010PropOp43
 70
     1
102
RTVSPost2010Prop44ColorIndex
 90
        5
102
RTVSPost2010Prop44ColorRGB
 90
      255
102
RTVSPost2010PropOp44
 70
     1
102
RTVSPost2010Prop45
280
     0
102
RTVSPost2010PropOp45
 70
     1
102
RTVSPost2010Prop46
 90
       50
102
RTVSPost2010PropOp46
 70
     1
102
RTVSPost2010Prop47
 90
       50
102
RTVSPost2010PropOp47
 70
     1
102
RTVSPost2010Prop48
 90
       50
102
RTVSPost2010PropOp48
 70
     1
102
RTVSPost2010Prop49
280
     0
102
RTVSPost2010PropOp49
 70
     1
102
RTVSPost2010Prop50
 90
       50
102
RTVSPost2010PropOp50
 70
     1
102
RTVSPost2010Prop51ColorIndex
 90
      256
102
RTVSPost2010Prop51ColorRGB
 90
-16777216
102
RTVSPost2010PropOp51
 70
     0
102
RTVSPost2010Prop52
140
1.0
102
RTVSPost2010PropOp52
 70
     0
102
RTVSPost2010Prop53
 90
        2
102
RTVSPost2010PropOp53
 70
     1
102
RTVSPost2010Prop54
  1
strokes_ogs.tif
102
RTVSPost2010PropOp54
 70
     1
102
RTVSPost2010Prop55
280
     0
102
RTVSPost2010PropOp55
 70
     1
102
RTVSPost2010Prop56
140
1.0
102
RTVSPost2010PropOp56
 70
     1
102
RTVSPost2010Prop57
140
1.0
102
RTVSPost2010PropOp57
 70
     1
102
RTVSPropertyOp0
 70
     1
102
RTVSPropertyOp1
 70
     1
102
RTVSPropertyOp2
 70
     1
102
RTVSPropertyOp3
 70
     1
102
RTVSPropertyOp4
 70
     1
102
RTVSPropertyOp5
 70
     1
102
RTVSPropertyOp6
 70
     1
102
RTVSPropertyOp7
 70
     1
102
RTVSPropertyOp8
 70
     1
102
RTVSPropertyOp9
 70
     1
102
RTVSPropertyOp10
 70
     1
102
RTVSPropertyOp11
 70
     1
102
RTVSPropertyOp12
 70
     1
102
RTVSPropertyOp13
 70
     1
102
RTVSPropertyOp14
 70
     1
102
RTVSPropertyOp15
 70
     1
102
RTVSPropertyOp16
 70
     1
102
RTVSPropertyOp17
 70
     1
102
RTVSPropertyOp18
 70
     1
102
RTVSPropertyOp19
 70
     1
102
RTVSPropertyOp20
 70
     1
102
RTVSPropertyOp21
 70
     1
102
RTVSPropertyOp22
 70
     1
102
RTVSPropertyOp23
 70
     1
102
RTVSPropertyOp24
 70
     1
102
RTVSPropertyOp25
 70
     1
102
RTVSPropertyOp26
 70
     1
102
RTVSPropertyOp27
 70
     1
102
RTVSPropertyOp28
 70
     1
102
RTVSPropertyOp29
 70
     1
102
RTVSPropertyOp30
 70
     1
102
RTVSPropertyOp31
 70
     1
102
RTVSPropertyOp32
 70
     1
102
RTVSPropertyOp33
 70
     1
102
RTVSPropertyOp34
 70
     1
102
RTVSPropertyOp35
 70
     1
102
RTVSPropertyOp36
 70
     1
102
RTVSPropertyOp37
 70
     1
102
RTVSPropertyOp38
 70
     1
102
RTVSPropertyOp39
 70
     1
102
RTVSPropertyOp40
 70
     1
102
RTVSPropertyOp41
 70
     1
102
RTVSPropertyOp42
 70
     1
102
RTVSPropertyOp43
 70
     1
102
RTVSPropertyOp44
 70
     1
102
RTVSPropertyOp45
 70
     1
102
RTVSPropertyOp46
 70
     1
102
RTVSPropertyOp47
 70
     1
102
RTVSPropertyOp48
 70
     1
102
RTVSPropertyOp49
 70
     1
102
RTVSPropertyOp50
 70
     1
102
RTVSPropertyOp51
 70
     0
102
RTVSPropertyOp52
 70
     0
102
RTVSPropertyOp53
 70
     1
102
RTVSPropertyOp54
 70
     1
102
RTVSPropertyOp55
 70
     1
102
RTVSPropertyOp56
 70
     1
102
RTVSPropertyOp57
 70
     1
102
RTVSPropertyOp58
 70
     1
102
RTVSPropertyOp59
 70
     1
102
RTVSPropertyOp60
 70
     1
102
RTVSPropertyOp61
 70
     1
102
RTVSPropertyOp62
 70
     1
  0
XRECORD
  5
4C6D
102
{ACAD_REACTORS
330
4C6C
102
}
330
4C6C
100
AcDbXrecord
280
     1
102
RTVSPost2010Prop28
280
     0
102
RTVSPost2010PropOp28
 70
     1
102
RTVSPost2010Prop29
280
     1
102
RTVSPost2010PropOp29
 70
     1
102
RTVSPost2010Prop30
280
     1
102
RTVSPost2010PropOp30
 70
     1
102
RTVSPost2010Prop31
280
     0
102
RTVSPost2010PropOp31
 70
     1
102
RTVSPost2010Prop32
280
     0
102
RTVSPost2010PropOp32
 70
     1
102
RTVSPost2010Prop33
280
     0
102
RTVSPost2010PropOp33
 70
     1
102
RTVSPost2010Prop34
280
     0
102
RTVSPost2010PropOp34
 70
     1
102
RTVSPost2010Prop35
280
     0
102
RTVSPost2010PropOp35
 70
     1
102
RTVSPost2010Prop36
280
     0
102
RTVSPost2010PropOp36
 70
     1
102
RTVSPost2010Prop37
 90
       50
102
RTVSPost2010PropOp37
 70
     1
102
RTVSPost2010Prop38
140
0.0
102
RTVSPost2010PropOp38
 70
     1
102
RTVSPost2010Prop39
140
1.0
102
RTVSPost2010PropOp39
 70
     1
102
RTVSPost2010Prop40
 90
        0
102
RTVSPost2010PropOp40
 70
     1
102
RTVSPost2010Prop41ColorIndex
 90
       18
102
RTVSPost2010Prop41ColorRGB
 90
        0
102
RTVSPost2010PropOp41
 70
     1
102
RTVSPost2010Prop42
 90
       50
102
RTVSPost2010PropOp42
 70
     1
102
RTVSPost2010Prop43
 90
        3
102
RTVSPost2010PropOp43
 70
     1
102
RTVSPost2010Prop44ColorIndex
 90
        5
102
RTVSPost2010Prop44ColorRGB
 90
      255
102
RTVSPost2010PropOp44
 70
     1
102
RTVSPost2010Prop45
280
     0
102
RTVSPost2010PropOp45
 70
     1
102
RTVSPost2010Prop46
 90
       50
102
RTVSPost2010PropOp46
 70
     1
102
RTVSPost2010Prop47
 90
       50
102
RTVSPost2010PropOp47
 70
     1
102
RTVSPost2010Prop48
 90
       50
102
RTVSPost2010PropOp48
 70
     1
102
RTVSPost2010Prop49
280
     0
102
RTVSPost2010PropOp49
 70
     1
102
RTVSPost2010Prop50
 90
       50
102
RTVSPost2010PropOp50
 70
     1
102
RTVSPost2010Prop51ColorIndex
 90
      256
102
RTVSPost2010Prop51ColorRGB
 90
-16777216
102
RTVSPost2010PropOp51
 70
     0
102
RTVSPost2010Prop52
140
1.0
102
RTVSPost2010PropOp52
 70
     0
102
RTVSPost2010Prop53
 90
        2
102
RTVSPost2010PropOp53
 70
     1
102
RTVSPost2010Prop54
  1
strokes_ogs.tif
102
RTVSPost2010PropOp54
 70
     1
102
RTVSPost2010Prop55
280
     0
102
RTVSPost2010PropOp55
 70
     1
102
RTVSPost2010Prop56
140
1.0
102
RTVSPost2010PropOp56
 70
     1
102
RTVSPost2010Prop57
140
1.0
102
RTVSPost2010PropOp57
 70
     1
102
RTVSPropertyOp0
 70
     1
102
RTVSPropertyOp1
 70
     1
102
RTVSPropertyOp2
 70
     1
102
RTVSPropertyOp3
 70
     1
102
RTVSPropertyOp4
 70
     1
102
RTVSPropertyOp5
 70
     1
102
RTVSPropertyOp6
 70
     1
102
RTVSPropertyOp7
 70
     1
102
RTVSPropertyOp8
 70
     1
102
RTVSPropertyOp9
 70
     1
102
RTVSPropertyOp10
 70
     1
102
RTVSPropertyOp11
 70
     1
102
RTVSPropertyOp12
 70
     1
102
RTVSPropertyOp13
 70
     1
102
RTVSPropertyOp14
 70
     1
102
RTVSPropertyOp15
 70
     1
102
RTVSPropertyOp16
 70
     1
102
RTVSPropertyOp17
 70
     1
102
RTVSPropertyOp18
 70
     1
102
RTVSPropertyOp19
 70
     1
102
RTVSPropertyOp20
 70
     1
102
RTVSPropertyOp21
 70
     1
102
RTVSPropertyOp22
 70
     1
102
RTVSPropertyOp23
 70
     1
102
RTVSPropertyOp24
 70
     1
102
RTVSPropertyOp25
 70
     1
102
RTVSPropertyOp26
 70
     1
102
RTVSPropertyOp27
 70
     1
102
RTVSPropertyOp28
 70
     1
102
RTVSPropertyOp29
 70
     1
102
RTVSPropertyOp30
 70
     1
102
RTVSPropertyOp31
 70
     1
102
RTVSPropertyOp32
 70
     1
102
RTVSPropertyOp33
 70
     1
102
RTVSPropertyOp34
 70
     1
102
RTVSPropertyOp35
 70
     1
102
RTVSPropertyOp36
 70
     1
102
RTVSPropertyOp37
 70
     1
102
RTVSPropertyOp38
 70
     1
102
RTVSPropertyOp39
 70
     1
102
RTVSPropertyOp40
 70
     1
102
RTVSPropertyOp41
 70
     1
102
RTVSPropertyOp42
 70
     1
102
RTVSPropertyOp43
 70
     1
102
RTVSPropertyOp44
 70
     1
102
RTVSPropertyOp45
 70
     1
102
RTVSPropertyOp46
 70
     1
102
RTVSPropertyOp47
 70
     1
102
RTVSPropertyOp48
 70
     1
102
RTVSPropertyOp49
 70
     1
102
RTVSPropertyOp50
 70
     1
102
RTVSPropertyOp51
 70
     0
102
RTVSPropertyOp52
 70
     0
102
RTVSPropertyOp53
 70
     1
102
RTVSPropertyOp54
 70
     1
102
RTVSPropertyOp55
 70
     1
102
RTVSPropertyOp56
 70
     1
102
RTVSPropertyOp57
 70
     1
102
RTVSPropertyOp58
 70
     1
102
RTVSPropertyOp59
 70
     1
102
RTVSPropertyOp60
 70
     1
102
RTVSPropertyOp61
 70
     1
102
RTVSPropertyOp62
 70
     1
  0
XRECORD
  5
4C6F
102
{ACAD_REACTORS
330
4C6E
102
}
330
4C6E
100
AcDbXrecord
280
     1
102
RTVSPost2010Prop28
280
     0
102
RTVSPost2010PropOp28
 70
     1
102
RTVSPost2010Prop29
280
     1
102
RTVSPost2010PropOp29
 70
     1
102
RTVSPost2010Prop30
280
     1
102
RTVSPost2010PropOp30
 70
     1
102
RTVSPost2010Prop31
280
     0
102
RTVSPost2010PropOp31
 70
     1
102
RTVSPost2010Prop32
280
     0
102
RTVSPost2010PropOp32
 70
     1
102
RTVSPost2010Prop33
280
     0
102
RTVSPost2010PropOp33
 70
     1
102
RTVSPost2010Prop34
280
     0
102
RTVSPost2010PropOp34
 70
     1
102
RTVSPost2010Prop35
280
     0
102
RTVSPost2010PropOp35
 70
     1
102
RTVSPost2010Prop36
280
     0
102
RTVSPost2010PropOp36
 70
     1
102
RTVSPost2010Prop37
 90
       50
102
RTVSPost2010PropOp37
 70
     1
102
RTVSPost2010Prop38
140
0.0
102
RTVSPost2010PropOp38
 70
     1
102
RTVSPost2010Prop39
140
1.0
102
RTVSPost2010PropOp39
 70
     1
102
RTVSPost2010Prop40
 90
        0
102
RTVSPost2010PropOp40
 70
     1
102
RTVSPost2010Prop41ColorIndex
 90
       18
102
RTVSPost2010Prop41ColorRGB
 90
        0
102
RTVSPost2010PropOp41
 70
     1
102
RTVSPost2010Prop42
 90
       50
102
RTVSPost2010PropOp42
 70
     1
102
RTVSPost2010Prop43
 90
        3
102
RTVSPost2010PropOp43
 70
     1
102
RTVSPost2010Prop44ColorIndex
 90
        5
102
RTVSPost2010Prop44ColorRGB
 90
      255
102
RTVSPost2010PropOp44
 70
     1
102
RTVSPost2010Prop45
280
     0
102
RTVSPost2010PropOp45
 70
     1
102
RTVSPost2010Prop46
 90
       50
102
RTVSPost2010PropOp46
 70
     1
102
RTVSPost2010Prop47
 90
       50
102
RTVSPost2010PropOp47
 70
     1
102
RTVSPost2010Prop48
 90
       50
102
RTVSPost2010PropOp48
 70
     1
102
RTVSPost2010Prop49
280
     0
102
RTVSPost2010PropOp49
 70
     1
102
RTVSPost2010Prop50
 90
       50
102
RTVSPost2010PropOp50
 70
     1
102
RTVSPost2010Prop51ColorIndex
 90
      256
102
RTVSPost2010Prop51ColorRGB
 90
-16777216
102
RTVSPost2010PropOp51
 70
     0
102
RTVSPost2010Prop52
140
1.0
102
RTVSPost2010PropOp52
 70
     0
102
RTVSPost2010Prop53
 90
        2
102
RTVSPost2010PropOp53
 70
     1
102
RTVSPost2010Prop54
  1
strokes_ogs.tif
102
RTVSPost2010PropOp54
 70
     1
102
RTVSPost2010Prop55
280
     0
102
RTVSPost2010PropOp55
 70
     1
102
RTVSPost2010Prop56
140
1.0
102
RTVSPost2010PropOp56
 70
     1
102
RTVSPost2010Prop57
140
1.0
102
RTVSPost2010PropOp57
 70
     1
102
RTVSPropertyOp0
 70
     1
102
RTVSPropertyOp1
 70
     1
102
RTVSPropertyOp2
 70
     1
102
RTVSPropertyOp3
 70
     1
102
RTVSPropertyOp4
 70
     1
102
RTVSPropertyOp5
 70
     1
102
RTVSPropertyOp6
 70
     1
102
RTVSPropertyOp7
 70
     1
102
RTVSPropertyOp8
 70
     1
102
RTVSPropertyOp9
 70
     1
102
RTVSPropertyOp10
 70
     1
102
RTVSPropertyOp11
 70
     1
102
RTVSPropertyOp12
 70
     1
102
RTVSPropertyOp13
 70
     1
102
RTVSPropertyOp14
 70
     1
102
RTVSPropertyOp15
 70
     1
102
RTVSPropertyOp16
 70
     1
102
RTVSPropertyOp17
 70
     1
102
RTVSPropertyOp18
 70
     1
102
RTVSPropertyOp19
 70
     1
102
RTVSPropertyOp20
 70
     1
102
RTVSPropertyOp21
 70
     1
102
RTVSPropertyOp22
 70
     1
102
RTVSPropertyOp23
 70
     1
102
RTVSPropertyOp24
 70
     1
102
RTVSPropertyOp25
 70
     1
102
RTVSPropertyOp26
 70
     1
102
RTVSPropertyOp27
 70
     1
102
RTVSPropertyOp28
 70
     1
102
RTVSPropertyOp29
 70
     1
102
RTVSPropertyOp30
 70
     1
102
RTVSPropertyOp31
 70
     1
102
RTVSPropertyOp32
 70
     1
102
RTVSPropertyOp33
 70
     1
102
RTVSPropertyOp34
 70
     1
102
RTVSPropertyOp35
 70
     1
102
RTVSPropertyOp36
 70
     1
102
RTVSPropertyOp37
 70
     1
102
RTVSPropertyOp38
 70
     1
102
RTVSPropertyOp39
 70
     1
102
RTVSPropertyOp40
 70
     1
102
RTVSPropertyOp41
 70
     1
102
RTVSPropertyOp42
 70
     1
102
RTVSPropertyOp43
 70
     1
102
RTVSPropertyOp44
 70
     1
102
RTVSPropertyOp45
 70
     1
102
RTVSPropertyOp46
 70
     1
102
RTVSPropertyOp47
 70
     1
102
RTVSPropertyOp48
 70
     1
102
RTVSPropertyOp49
 70
     1
102
RTVSPropertyOp50
 70
     1
102
RTVSPropertyOp51
 70
     0
102
RTVSPropertyOp52
 70
     0
102
RTVSPropertyOp53
 70
     1
102
RTVSPropertyOp54
 70
     1
102
RTVSPropertyOp55
 70
     1
102
RTVSPropertyOp56
 70
     1
102
RTVSPropertyOp57
 70
     1
102
RTVSPropertyOp58
 70
     1
102
RTVSPropertyOp59
 70
     1
102
RTVSPropertyOp60
 70
     1
102
RTVSPropertyOp61
 70
     1
102
RTVSPropertyOp62
 70
     1
  0
XRECORD
  5
4C71
102
{ACAD_REACTORS
330
4C70
102
}
330
4C70
100
AcDbXrecord
280
     1
102
RTVSPost2010Prop28
280
     0
102
RTVSPost2010PropOp28
 70
     1
102
RTVSPost2010Prop29
280
     1
102
RTVSPost2010PropOp29
 70
     1
102
RTVSPost2010Prop30
280
     1
102
RTVSPost2010PropOp30
 70
     1
102
RTVSPost2010Prop31
280
     0
102
RTVSPost2010PropOp31
 70
     1
102
RTVSPost2010Prop32
280
     0
102
RTVSPost2010PropOp32
 70
     1
102
RTVSPost2010Prop33
280
     0
102
RTVSPost2010PropOp33
 70
     1
102
RTVSPost2010Prop34
280
     0
102
RTVSPost2010PropOp34
 70
     1
102
RTVSPost2010Prop35
280
     0
102
RTVSPost2010PropOp35
 70
     1
102
RTVSPost2010Prop36
280
     0
102
RTVSPost2010PropOp36
 70
     1
102
RTVSPost2010Prop37
 90
       50
102
RTVSPost2010PropOp37
 70
     1
102
RTVSPost2010Prop38
140
0.0
102
RTVSPost2010PropOp38
 70
     1
102
RTVSPost2010Prop39
140
1.0
102
RTVSPost2010PropOp39
 70
     1
102
RTVSPost2010Prop40
 90
        0
102
RTVSPost2010PropOp40
 70
     1
102
RTVSPost2010Prop41ColorIndex
 90
       18
102
RTVSPost2010Prop41ColorRGB
 90
        0
102
RTVSPost2010PropOp41
 70
     1
102
RTVSPost2010Prop42
 90
       50
102
RTVSPost2010PropOp42
 70
     1
102
RTVSPost2010Prop43
 90
        3
102
RTVSPost2010PropOp43
 70
     1
102
RTVSPost2010Prop44ColorIndex
 90
        5
102
RTVSPost2010Prop44ColorRGB
 90
      255
102
RTVSPost2010PropOp44
 70
     1
102
RTVSPost2010Prop45
280
     0
102
RTVSPost2010PropOp45
 70
     1
102
RTVSPost2010Prop46
 90
       50
102
RTVSPost2010PropOp46
 70
     1
102
RTVSPost2010Prop47
 90
       50
102
RTVSPost2010PropOp47
 70
     1
102
RTVSPost2010Prop48
 90
       50
102
RTVSPost2010PropOp48
 70
     1
102
RTVSPost2010Prop49
280
     0
102
RTVSPost2010PropOp49
 70
     1
102
RTVSPost2010Prop50
 90
       50
102
RTVSPost2010PropOp50
 70
     1
102
RTVSPost2010Prop51ColorIndex
 90
      256
102
RTVSPost2010Prop51ColorRGB
 90
-16777216
102
RTVSPost2010PropOp51
 70
     0
102
RTVSPost2010Prop52
140
1.0
102
RTVSPost2010PropOp52
 70
     0
102
RTVSPost2010Prop53
 90
        2
102
RTVSPost2010PropOp53
 70
     1
102
RTVSPost2010Prop54
  1
strokes_ogs.tif
102
RTVSPost2010PropOp54
 70
     1
102
RTVSPost2010Prop55
280
     0
102
RTVSPost2010PropOp55
 70
     1
102
RTVSPost2010Prop56
140
1.0
102
RTVSPost2010PropOp56
 70
     1
102
RTVSPost2010Prop57
140
1.0
102
RTVSPost2010PropOp57
 70
     1
102
RTVSPropertyOp0
 70
     1
102
RTVSPropertyOp1
 70
     1
102
RTVSPropertyOp2
 70
     1
102
RTVSPropertyOp3
 70
     1
102
RTVSPropertyOp4
 70
     1
102
RTVSPropertyOp5
 70
     1
102
RTVSPropertyOp6
 70
     1
102
RTVSPropertyOp7
 70
     1
102
RTVSPropertyOp8
 70
     1
102
RTVSPropertyOp9
 70
     1
102
RTVSPropertyOp10
 70
     1
102
RTVSPropertyOp11
 70
     1
102
RTVSPropertyOp12
 70
     1
102
RTVSPropertyOp13
 70
     1
102
RTVSPropertyOp14
 70
     1
102
RTVSPropertyOp15
 70
     1
102
RTVSPropertyOp16
 70
     1
102
RTVSPropertyOp17
 70
     1
102
RTVSPropertyOp18
 70
     1
102
RTVSPropertyOp19
 70
     1
102
RTVSPropertyOp20
 70
     1
102
RTVSPropertyOp21
 70
     1
102
RTVSPropertyOp22
 70
     1
102
RTVSPropertyOp23
 70
     1
102
RTVSPropertyOp24
 70
     1
102
RTVSPropertyOp25
 70
     1
102
RTVSPropertyOp26
 70
     1
102
RTVSPropertyOp27
 70
     1
102
RTVSPropertyOp28
 70
     1
102
RTVSPropertyOp29
 70
     1
102
RTVSPropertyOp30
 70
     1
102
RTVSPropertyOp31
 70
     1
102
RTVSPropertyOp32
 70
     1
102
RTVSPropertyOp33
 70
     1
102
RTVSPropertyOp34
 70
     1
102
RTVSPropertyOp35
 70
     1
102
RTVSPropertyOp36
 70
     1
102
RTVSPropertyOp37
 70
     1
102
RTVSPropertyOp38
 70
     1
102
RTVSPropertyOp39
 70
     1
102
RTVSPropertyOp40
 70
     1
102
RTVSPropertyOp41
 70
     1
102
RTVSPropertyOp42
 70
     1
102
RTVSPropertyOp43
 70
     1
102
RTVSPropertyOp44
 70
     1
102
RTVSPropertyOp45
 70
     1
102
RTVSPropertyOp46
 70
     1
102
RTVSPropertyOp47
 70
     1
102
RTVSPropertyOp48
 70
     1
102
RTVSPropertyOp49
 70
     1
102
RTVSPropertyOp50
 70
     1
102
RTVSPropertyOp51
 70
     0
102
RTVSPropertyOp52
 70
     0
102
RTVSPropertyOp53
 70
     1
102
RTVSPropertyOp54
 70
     1
102
RTVSPropertyOp55
 70
     1
102
RTVSPropertyOp56
 70
     1
102
RTVSPropertyOp57
 70
     1
102
RTVSPropertyOp58
 70
     1
102
RTVSPropertyOp59
 70
     1
102
RTVSPropertyOp60
 70
     1
102
RTVSPropertyOp61
 70
     1
102
RTVSPropertyOp62
 70
     1
  0
XRECORD
  5
4CB8
102
{ACAD_REACTORS
330
4CB7
102
}
330
4CB7
100
AcDbXrecord
280
     1
102
RTVSPost2010Prop28
280
     0
102
RTVSPost2010PropOp28
 70
     1
102
RTVSPost2010Prop29
280
     1
102
RTVSPost2010PropOp29
 70
     1
102
RTVSPost2010Prop30
280
     1
102
RTVSPost2010PropOp30
 70
     1
102
RTVSPost2010Prop31
280
     0
102
RTVSPost2010PropOp31
 70
     1
102
RTVSPost2010Prop32
280
     0
102
RTVSPost2010PropOp32
 70
     1
102
RTVSPost2010Prop33
280
     0
102
RTVSPost2010PropOp33
 70
     1
102
RTVSPost2010Prop34
280
     0
102
RTVSPost2010PropOp34
 70
     1
102
RTVSPost2010Prop35
280
     0
102
RTVSPost2010PropOp35
 70
     1
102
RTVSPost2010Prop36
280
     0
102
RTVSPost2010PropOp36
 70
     1
102
RTVSPost2010Prop37
 90
       50
102
RTVSPost2010PropOp37
 70
     1
102
RTVSPost2010Prop38
140
0.0
102
RTVSPost2010PropOp38
 70
     1
102
RTVSPost2010Prop39
140
1.0
102
RTVSPost2010PropOp39
 70
     1
102
RTVSPost2010Prop40
 90
        0
102
RTVSPost2010PropOp40
 70
     1
102
RTVSPost2010Prop41ColorIndex
 90
       18
102
RTVSPost2010Prop41ColorRGB
 90
        0
102
RTVSPost2010PropOp41
 70
     1
102
RTVSPost2010Prop42
 90
       50
102
RTVSPost2010PropOp42
 70
     1
102
RTVSPost2010Prop43
 90
        3
102
RTVSPost2010PropOp43
 70
     1
102
RTVSPost2010Prop44ColorIndex
 90
        5
102
RTVSPost2010Prop44ColorRGB
 90
      255
102
RTVSPost2010PropOp44
 70
     1
102
RTVSPost2010Prop45
280
     0
102
RTVSPost2010PropOp45
 70
     1
102
RTVSPost2010Prop46
 90
       50
102
RTVSPost2010PropOp46
 70
     1
102
RTVSPost2010Prop47
 90
       50
102
RTVSPost2010PropOp47
 70
     1
102
RTVSPost2010Prop48
 90
       50
102
RTVSPost2010PropOp48
 70
     1
102
RTVSPost2010Prop49
280
     0
102
RTVSPost2010PropOp49
 70
     1
102
RTVSPost2010Prop50
 90
       50
102
RTVSPost2010PropOp50
 70
     1
102
RTVSPost2010Prop51ColorIndex
 90
      256
102
RTVSPost2010Prop51ColorRGB
 90
-16777216
102
RTVSPost2010PropOp51
 70
     0
102
RTVSPost2010Prop52
140
1.0
102
RTVSPost2010PropOp52
 70
     0
102
RTVSPost2010Prop53
 90
        2
102
RTVSPost2010PropOp53
 70
     1
102
RTVSPost2010Prop54
  1
strokes_ogs.tif
102
RTVSPost2010PropOp54
 70
     1
102
RTVSPost2010Prop55
280
     0
102
RTVSPost2010PropOp55
 70
     1
102
RTVSPost2010Prop56
140
1.0
102
RTVSPost2010PropOp56
 70
     1
102
RTVSPost2010Prop57
140
1.0
102
RTVSPost2010PropOp57
 70
     1
102
RTVSPropertyOp0
 70
     1
102
RTVSPropertyOp1
 70
     1
102
RTVSPropertyOp2
 70
     1
102
RTVSPropertyOp3
 70
     1
102
RTVSPropertyOp4
 70
     1
102
RTVSPropertyOp5
 70
     1
102
RTVSPropertyOp6
 70
     1
102
RTVSPropertyOp7
 70
     1
102
RTVSPropertyOp8
 70
     1
102
RTVSPropertyOp9
 70
     1
102
RTVSPropertyOp10
 70
     1
102
RTVSPropertyOp11
 70
     1
102
RTVSPropertyOp12
 70
     1
102
RTVSPropertyOp13
 70
     1
102
RTVSPropertyOp14
 70
     1
102
RTVSPropertyOp15
 70
     1
102
RTVSPropertyOp16
 70
     1
102
RTVSPropertyOp17
 70
     1
102
RTVSPropertyOp18
 70
     1
102
RTVSPropertyOp19
 70
     1
102
RTVSPropertyOp20
 70
     1
102
RTVSPropertyOp21
 70
     1
102
RTVSPropertyOp22
 70
     1
102
RTVSPropertyOp23
 70
     1
102
RTVSPropertyOp24
 70
     1
102
RTVSPropertyOp25
 70
     1
102
RTVSPropertyOp26
 70
     1
102
RTVSPropertyOp27
 70
     1
102
RTVSPropertyOp28
 70
     1
102
RTVSPropertyOp29
 70
     1
102
RTVSPropertyOp30
 70
     1
102
RTVSPropertyOp31
 70
     1
102
RTVSPropertyOp32
 70
     1
102
RTVSPropertyOp33
 70
     1
102
RTVSPropertyOp34
 70
     1
102
RTVSPropertyOp35
 70
     1
102
RTVSPropertyOp36
 70
     1
102
RTVSPropertyOp37
 70
     1
102
RTVSPropertyOp38
 70
     1
102
RTVSPropertyOp39
 70
     1
102
RTVSPropertyOp40
 70
     1
102
RTVSPropertyOp41
 70
     1
102
RTVSPropertyOp42
 70
     1
102
RTVSPropertyOp43
 70
     1
102
RTVSPropertyOp44
 70
     1
102
RTVSPropertyOp45
 70
     1
102
RTVSPropertyOp46
 70
     1
102
RTVSPropertyOp47
 70
     1
102
RTVSPropertyOp48
 70
     1
102
RTVSPropertyOp49
 70
     1
102
RTVSPropertyOp50
 70
     1
102
RTVSPropertyOp51
 70
     0
102
RTVSPropertyOp52
 70
     0
102
RTVSPropertyOp53
 70
     1
102
RTVSPropertyOp54
 70
     1
102
RTVSPropertyOp55
 70
     1
102
RTVSPropertyOp56
 70
     1
102
RTVSPropertyOp57
 70
     1
102
RTVSPropertyOp58
 70
     1
102
RTVSPropertyOp59
 70
     1
102
RTVSPropertyOp60
 70
     1
102
RTVSPropertyOp61
 70
     1
102
RTVSPropertyOp62
 70
     1
  0
XRECORD
  5
4C8B
102
{ACAD_REACTORS
330
4C8A
102
}
330
4C8A
100
AcDbXrecord
280
     1
102
RTVSPost2010Prop28
280
     0
102
RTVSPost2010PropOp28
 70
     1
102
RTVSPost2010Prop29
280
     1
102
RTVSPost2010PropOp29
 70
     1
102
RTVSPost2010Prop30
280
     1
102
RTVSPost2010PropOp30
 70
     1
102
RTVSPost2010Prop31
280
     0
102
RTVSPost2010PropOp31
 70
     1
102
RTVSPost2010Prop32
280
     0
102
RTVSPost2010PropOp32
 70
     1
102
RTVSPost2010Prop33
280
     0
102
RTVSPost2010PropOp33
 70
     1
102
RTVSPost2010Prop34
280
     0
102
RTVSPost2010PropOp34
 70
     1
102
RTVSPost2010Prop35
280
     0
102
RTVSPost2010PropOp35
 70
     1
102
RTVSPost2010Prop36
280
     0
102
RTVSPost2010PropOp36
 70
     1
102
RTVSPost2010Prop37
 90
       50
102
RTVSPost2010PropOp37
 70
     1
102
RTVSPost2010Prop38
140
0.0
102
RTVSPost2010PropOp38
 70
     1
102
RTVSPost2010Prop39
140
1.0
102
RTVSPost2010PropOp39
 70
     1
102
RTVSPost2010Prop40
 90
        0
102
RTVSPost2010PropOp40
 70
     1
102
RTVSPost2010Prop41ColorIndex
 90
       18
102
RTVSPost2010Prop41ColorRGB
 90
        0
102
RTVSPost2010PropOp41
 70
     1
102
RTVSPost2010Prop42
 90
       50
102
RTVSPost2010PropOp42
 70
     1
102
RTVSPost2010Prop43
 90
        3
102
RTVSPost2010PropOp43
 70
     1
102
RTVSPost2010Prop44ColorIndex
 90
        5
102
RTVSPost2010Prop44ColorRGB
 90
      255
102
RTVSPost2010PropOp44
 70
     1
102
RTVSPost2010Prop45
280
     0
102
RTVSPost2010PropOp45
 70
     1
102
RTVSPost2010Prop46
 90
       50
102
RTVSPost2010PropOp46
 70
     1
102
RTVSPost2010Prop47
 90
       50
102
RTVSPost2010PropOp47
 70
     1
102
RTVSPost2010Prop48
 90
       50
102
RTVSPost2010PropOp48
 70
     1
102
RTVSPost2010Prop49
280
     0
102
RTVSPost2010PropOp49
 70
     1
102
RTVSPost2010Prop50
 90
       50
102
RTVSPost2010PropOp50
 70
     1
102
RTVSPost2010Prop51ColorIndex
 90
      256
102
RTVSPost2010Prop51ColorRGB
 90
-16777216
102
RTVSPost2010PropOp51
 70
     0
102
RTVSPost2010Prop52
140
1.0
102
RTVSPost2010PropOp52
 70
     0
102
RTVSPost2010Prop53
 90
        2
102
RTVSPost2010PropOp53
 70
     1
102
RTVSPost2010Prop54
  1
strokes_ogs.tif
102
RTVSPost2010PropOp54
 70
     1
102
RTVSPost2010Prop55
280
     0
102
RTVSPost2010PropOp55
 70
     1
102
RTVSPost2010Prop56
140
1.0
102
RTVSPost2010PropOp56
 70
     1
102
RTVSPost2010Prop57
140
1.0
102
RTVSPost2010PropOp57
 70
     1
102
RTVSPropertyOp0
 70
     0
102
RTVSPropertyOp1
 70
     0
102
RTVSPropertyOp2
 70
     0
102
RTVSPropertyOp3
 70
     0
102
RTVSPropertyOp4
 70
     0
102
RTVSPropertyOp5
 70
     0
102
RTVSPropertyOp6
 70
     0
102
RTVSPropertyOp7
 70
     0
102
RTVSPropertyOp8
 70
     0
102
RTVSPropertyOp9
 70
     0
102
RTVSPropertyOp10
 70
     0
102
RTVSPropertyOp11
 70
     0
102
RTVSPropertyOp12
 70
     0
102
RTVSPropertyOp13
 70
     0
102
RTVSPropertyOp14
 70
     2
102
RTVSPropertyOp15
 70
     0
102
RTVSPropertyOp16
 70
     0
102
RTVSPropertyOp17
 70
     0
102
RTVSPropertyOp18
 70
     0
102
RTVSPropertyOp19
 70
     0
102
RTVSPropertyOp20
 70
     0
102
RTVSPropertyOp21
 70
     0
102
RTVSPropertyOp22
 70
     0
102
RTVSPropertyOp23
 70
     0
102
RTVSPropertyOp24
 70
     0
102
RTVSPropertyOp25
 70
     0
102
RTVSPropertyOp26
 70
     0
102
RTVSPropertyOp27
 70
     0
102
RTVSPropertyOp28
 70
     1
102
RTVSPropertyOp29
 70
     1
102
RTVSPropertyOp30
 70
     1
102
RTVSPropertyOp31
 70
     1
102
RTVSPropertyOp32
 70
     1
102
RTVSPropertyOp33
 70
     1
102
RTVSPropertyOp34
 70
     1
102
RTVSPropertyOp35
 70
     1
102
RTVSPropertyOp36
 70
     1
102
RTVSPropertyOp37
 70
     1
102
RTVSPropertyOp38
 70
     1
102
RTVSPropertyOp39
 70
     1
102
RTVSPropertyOp40
 70
     1
102
RTVSPropertyOp41
 70
     1
102
RTVSPropertyOp42
 70
     1
102
RTVSPropertyOp43
 70
     1
102
RTVSPropertyOp44
 70
     1
102
RTVSPropertyOp45
 70
     1
102
RTVSPropertyOp46
 70
     1
102
RTVSPropertyOp47
 70
     1
102
RTVSPropertyOp48
 70
     1
102
RTVSPropertyOp49
 70
     1
102
RTVSPropertyOp50
 70
     1
102
RTVSPropertyOp51
 70
     0
102
RTVSPropertyOp52
 70
     0
102
RTVSPropertyOp53
 70
     1
102
RTVSPropertyOp54
 70
     1
102
RTVSPropertyOp55
 70
     1
102
RTVSPropertyOp56
 70
     1
102
RTVSPropertyOp57
 70
     1
102
RTVSPropertyOp58
 70
     1
102
RTVSPropertyOp59
 70
     1
102
RTVSPropertyOp60
 70
     1
102
RTVSPropertyOp61
 70
     1
102
RTVSPropertyOp62
 70
     1
  0
XRECORD
  5
4C85
102
{ACAD_REACTORS
330
4C84
102
}
330
4C84
100
AcDbXrecord
280
     1
102
RTVSPost2010Prop28
280
     0
102
RTVSPost2010PropOp28
 70
     1
102
RTVSPost2010Prop29
280
     1
102
RTVSPost2010PropOp29
 70
     1
102
RTVSPost2010Prop30
280
     1
102
RTVSPost2010PropOp30
 70
     1
102
RTVSPost2010Prop31
280
     0
102
RTVSPost2010PropOp31
 70
     1
102
RTVSPost2010Prop32
280
     0
102
RTVSPost2010PropOp32
 70
     1
102
RTVSPost2010Prop33
280
     0
102
RTVSPost2010PropOp33
 70
     1
102
RTVSPost2010Prop34
280
     0
102
RTVSPost2010PropOp34
 70
     1
102
RTVSPost2010Prop35
280
     0
102
RTVSPost2010PropOp35
 70
     1
102
RTVSPost2010Prop36
280
     0
102
RTVSPost2010PropOp36
 70
     1
102
RTVSPost2010Prop37
 90
       50
102
RTVSPost2010PropOp37
 70
     1
102
RTVSPost2010Prop38
140
0.0
102
RTVSPost2010PropOp38
 70
     1
102
RTVSPost2010Prop39
140
1.0
102
RTVSPost2010PropOp39
 70
     1
102
RTVSPost2010Prop40
 90
        0
102
RTVSPost2010PropOp40
 70
     1
102
RTVSPost2010Prop41ColorIndex
 90
       18
102
RTVSPost2010Prop41ColorRGB
 90
        0
102
RTVSPost2010PropOp41
 70
     1
102
RTVSPost2010Prop42
 90
       50
102
RTVSPost2010PropOp42
 70
     1
102
RTVSPost2010Prop43
 90
        3
102
RTVSPost2010PropOp43
 70
     1
102
RTVSPost2010Prop44ColorIndex
 90
        5
102
RTVSPost2010Prop44ColorRGB
 90
      255
102
RTVSPost2010PropOp44
 70
     1
102
RTVSPost2010Prop45
280
     0
102
RTVSPost2010PropOp45
 70
     1
102
RTVSPost2010Prop46
 90
       50
102
RTVSPost2010PropOp46
 70
     1
102
RTVSPost2010Prop47
 90
       50
102
RTVSPost2010PropOp47
 70
     1
102
RTVSPost2010Prop48
 90
       50
102
RTVSPost2010PropOp48
 70
     1
102
RTVSPost2010Prop49
280
     0
102
RTVSPost2010PropOp49
 70
     1
102
RTVSPost2010Prop50
 90
       50
102
RTVSPost2010PropOp50
 70
     1
102
RTVSPost2010Prop51ColorIndex
 90
      256
102
RTVSPost2010Prop51ColorRGB
 90
-16777216
102
RTVSPost2010PropOp51
 70
     0
102
RTVSPost2010Prop52
140
1.0
102
RTVSPost2010PropOp52
 70
     0
102
RTVSPost2010Prop53
 90
        2
102
RTVSPost2010PropOp53
 70
     1
102
RTVSPost2010Prop54
  1
strokes_ogs.tif
102
RTVSPost2010PropOp54
 70
     1
102
RTVSPost2010Prop55
280
     0
102
RTVSPost2010PropOp55
 70
     1
102
RTVSPost2010Prop56
140
1.0
102
RTVSPost2010PropOp56
 70
     1
102
RTVSPost2010Prop57
140
1.0
102
RTVSPost2010PropOp57
 70
     1
102
RTVSPropertyOp0
 70
     1
102
RTVSPropertyOp1
 70
     1
102
RTVSPropertyOp2
 70
     1
102
RTVSPropertyOp3
 70
     1
102
RTVSPropertyOp4
 70
     1
102
RTVSPropertyOp5
 70
     1
102
RTVSPropertyOp6
 70
     1
102
RTVSPropertyOp7
 70
     1
102
RTVSPropertyOp8
 70
     1
102
RTVSPropertyOp9
 70
     1
102
RTVSPropertyOp10
 70
     1
102
RTVSPropertyOp11
 70
     1
102
RTVSPropertyOp12
 70
     1
102
RTVSPropertyOp13
 70
     1
102
RTVSPropertyOp14
 70
     1
102
RTVSPropertyOp15
 70
     1
102
RTVSPropertyOp16
 70
     1
102
RTVSPropertyOp17
 70
     1
102
RTVSPropertyOp18
 70
     1
102
RTVSPropertyOp19
 70
     1
102
RTVSPropertyOp20
 70
     1
102
RTVSPropertyOp21
 70
     1
102
RTVSPropertyOp22
 70
     1
102
RTVSPropertyOp23
 70
     1
102
RTVSPropertyOp24
 70
     1
102
RTVSPropertyOp25
 70
     1
102
RTVSPropertyOp26
 70
     1
102
RTVSPropertyOp27
 70
     1
102
RTVSPropertyOp28
 70
     1
102
RTVSPropertyOp29
 70
     1
102
RTVSPropertyOp30
 70
     1
102
RTVSPropertyOp31
 70
     1
102
RTVSPropertyOp32
 70
     1
102
RTVSPropertyOp33
 70
     1
102
RTVSPropertyOp34
 70
     1
102
RTVSPropertyOp35
 70
     1
102
RTVSPropertyOp36
 70
     1
102
RTVSPropertyOp37
 70
     1
102
RTVSPropertyOp38
 70
     1
102
RTVSPropertyOp39
 70
     1
102
RTVSPropertyOp40
 70
     1
102
RTVSPropertyOp41
 70
     1
102
RTVSPropertyOp42
 70
     1
102
RTVSPropertyOp43
 70
     1
102
RTVSPropertyOp44
 70
     1
102
RTVSPropertyOp45
 70
     1
102
RTVSPropertyOp46
 70
     1
102
RTVSPropertyOp47
 70
     1
102
RTVSPropertyOp48
 70
     1
102
RTVSPropertyOp49
 70
     1
102
RTVSPropertyOp50
 70
     1
102
RTVSPropertyOp51
 70
     0
102
RTVSPropertyOp52
 70
     0
102
RTVSPropertyOp53
 70
     1
102
RTVSPropertyOp54
 70
     1
102
RTVSPropertyOp55
 70
     1
102
RTVSPropertyOp56
 70
     1
102
RTVSPropertyOp57
 70
     1
102
RTVSPropertyOp58
 70
     1
102
RTVSPropertyOp59
 70
     1
102
RTVSPropertyOp60
 70
     1
102
RTVSPropertyOp61
 70
     1
102
RTVSPropertyOp62
 70
     1
  0
XRECORD
  5
4C8D
102
{ACAD_REACTORS
330
4C8C
102
}
330
4C8C
100
AcDbXrecord
280
     1
102
RTVSPost2010Prop28
280
     0
102
RTVSPost2010PropOp28
 70
     1
102
RTVSPost2010Prop29
280
     1
102
RTVSPost2010PropOp29
 70
     1
102
RTVSPost2010Prop30
280
     1
102
RTVSPost2010PropOp30
 70
     1
102
RTVSPost2010Prop31
280
     0
102
RTVSPost2010PropOp31
 70
     1
102
RTVSPost2010Prop32
280
     0
102
RTVSPost2010PropOp32
 70
     1
102
RTVSPost2010Prop33
280
     0
102
RTVSPost2010PropOp33
 70
     1
102
RTVSPost2010Prop34
280
     0
102
RTVSPost2010PropOp34
 70
     1
102
RTVSPost2010Prop35
280
     0
102
RTVSPost2010PropOp35
 70
     1
102
RTVSPost2010Prop36
280
     0
102
RTVSPost2010PropOp36
 70
     1
102
RTVSPost2010Prop37
 90
       50
102
RTVSPost2010PropOp37
 70
     1
102
RTVSPost2010Prop38
140
0.0
102
RTVSPost2010PropOp38
 70
     1
102
RTVSPost2010Prop39
140
1.0
102
RTVSPost2010PropOp39
 70
     1
102
RTVSPost2010Prop40
 90
        0
102
RTVSPost2010PropOp40
 70
     1
102
RTVSPost2010Prop41ColorIndex
 90
       18
102
RTVSPost2010Prop41ColorRGB
 90
        0
102
RTVSPost2010PropOp41
 70
     1
102
RTVSPost2010Prop42
 90
       50
102
RTVSPost2010PropOp42
 70
     1
102
RTVSPost2010Prop43
 90
        3
102
RTVSPost2010PropOp43
 70
     1
102
RTVSPost2010Prop44ColorIndex
 90
        5
102
RTVSPost2010Prop44ColorRGB
 90
      255
102
RTVSPost2010PropOp44
 70
     1
102
RTVSPost2010Prop45
280
     0
102
RTVSPost2010PropOp45
 70
     1
102
RTVSPost2010Prop46
 90
       50
102
RTVSPost2010PropOp46
 70
     1
102
RTVSPost2010Prop47
 90
       50
102
RTVSPost2010PropOp47
 70
     1
102
RTVSPost2010Prop48
 90
       50
102
RTVSPost2010PropOp48
 70
     1
102
RTVSPost2010Prop49
280
     0
102
RTVSPost2010PropOp49
 70
     1
102
RTVSPost2010Prop50
 90
       50
102
RTVSPost2010PropOp50
 70
     1
102
RTVSPost2010Prop51ColorIndex
 90
      256
102
RTVSPost2010Prop51ColorRGB
 90
-16777216
102
RTVSPost2010PropOp51
 70
     0
102
RTVSPost2010Prop52
140
1.0
102
RTVSPost2010PropOp52
 70
     0
102
RTVSPost2010Prop53
 90
        2
102
RTVSPost2010PropOp53
 70
     1
102
RTVSPost2010Prop54
  1
strokes_ogs.tif
102
RTVSPost2010PropOp54
 70
     1
102
RTVSPost2010Prop55
280
     0
102
RTVSPost2010PropOp55
 70
     1
102
RTVSPost2010Prop56
140
1.0
102
RTVSPost2010PropOp56
 70
     1
102
RTVSPost2010Prop57
140
1.0
102
RTVSPost2010PropOp57
 70
     1
102
RTVSPropertyOp0
 70
     0
102
RTVSPropertyOp1
 70
     0
102
RTVSPropertyOp2
 70
     0
102
RTVSPropertyOp3
 70
     0
102
RTVSPropertyOp4
 70
     0
102
RTVSPropertyOp5
 70
     0
102
RTVSPropertyOp6
 70
     0
102
RTVSPropertyOp7
 70
     0
102
RTVSPropertyOp8
 70
     0
102
RTVSPropertyOp9
 70
     0
102
RTVSPropertyOp10
 70
     0
102
RTVSPropertyOp11
 70
     0
102
RTVSPropertyOp12
 70
     0
102
RTVSPropertyOp13
 70
     0
102
RTVSPropertyOp14
 70
     2
102
RTVSPropertyOp15
 70
     0
102
RTVSPropertyOp16
 70
     0
102
RTVSPropertyOp17
 70
     0
102
RTVSPropertyOp18
 70
     0
102
RTVSPropertyOp19
 70
     0
102
RTVSPropertyOp20
 70
     0
102
RTVSPropertyOp21
 70
     0
102
RTVSPropertyOp22
 70
     0
102
RTVSPropertyOp23
 70
     0
102
RTVSPropertyOp24
 70
     0
102
RTVSPropertyOp25
 70
     0
102
RTVSPropertyOp26
 70
     0
102
RTVSPropertyOp27
 70
     0
102
RTVSPropertyOp28
 70
     1
102
RTVSPropertyOp29
 70
     1
102
RTVSPropertyOp30
 70
     1
102
RTVSPropertyOp31
 70
     1
102
RTVSPropertyOp32
 70
     1
102
RTVSPropertyOp33
 70
     1
102
RTVSPropertyOp34
 70
     1
102
RTVSPropertyOp35
 70
     1
102
RTVSPropertyOp36
 70
     1
102
RTVSPropertyOp37
 70
     1
102
RTVSPropertyOp38
 70
     1
102
RTVSPropertyOp39
 70
     1
102
RTVSPropertyOp40
 70
     1
102
RTVSPropertyOp41
 70
     1
102
RTVSPropertyOp42
 70
     1
102
RTVSPropertyOp43
 70
     1
102
RTVSPropertyOp44
 70
     1
102
RTVSPropertyOp45
 70
     1
102
RTVSPropertyOp46
 70
     1
102
RTVSPropertyOp47
 70
     1
102
RTVSPropertyOp48
 70
     1
102
RTVSPropertyOp49
 70
     1
102
RTVSPropertyOp50
 70
     1
102
RTVSPropertyOp51
 70
     0
102
RTVSPropertyOp52
 70
     0
102
RTVSPropertyOp53
 70
     1
102
RTVSPropertyOp54
 70
     1
102
RTVSPropertyOp55
 70
     1
102
RTVSPropertyOp56
 70
     1
102
RTVSPropertyOp57
 70
     1
102
RTVSPropertyOp58
 70
     1
102
RTVSPropertyOp59
 70
     1
102
RTVSPropertyOp60
 70
     1
102
RTVSPropertyOp61
 70
     1
102
RTVSPropertyOp62
 70
     1
  0
XRECORD
  5
4C7D
102
{ACAD_REACTORS
330
4C7C
102
}
330
4C7C
100
AcDbXrecord
280
     1
102
RTVSPost2010Prop28
280
     0
102
RTVSPost2010PropOp28
 70
     1
102
RTVSPost2010Prop29
280
     1
102
RTVSPost2010PropOp29
 70
     1
102
RTVSPost2010Prop30
280
     1
102
RTVSPost2010PropOp30
 70
     1
102
RTVSPost2010Prop31
280
     0
102
RTVSPost2010PropOp31
 70
     1
102
RTVSPost2010Prop32
280
     0
102
RTVSPost2010PropOp32
 70
     1
102
RTVSPost2010Prop33
280
     0
102
RTVSPost2010PropOp33
 70
     1
102
RTVSPost2010Prop34
280
     0
102
RTVSPost2010PropOp34
 70
     1
102
RTVSPost2010Prop35
280
     0
102
RTVSPost2010PropOp35
 70
     1
102
RTVSPost2010Prop36
280
     0
102
RTVSPost2010PropOp36
 70
     1
102
RTVSPost2010Prop37
 90
       50
102
RTVSPost2010PropOp37
 70
     1
102
RTVSPost2010Prop38
140
0.0
102
RTVSPost2010PropOp38
 70
     1
102
RTVSPost2010Prop39
140
1.0
102
RTVSPost2010PropOp39
 70
     1
102
RTVSPost2010Prop40
 90
        0
102
RTVSPost2010PropOp40
 70
     1
102
RTVSPost2010Prop41ColorIndex
 90
       18
102
RTVSPost2010Prop41ColorRGB
 90
        0
102
RTVSPost2010PropOp41
 70
     1
102
RTVSPost2010Prop42
 90
       50
102
RTVSPost2010PropOp42
 70
     1
102
RTVSPost2010Prop43
 90
        3
102
RTVSPost2010PropOp43
 70
     1
102
RTVSPost2010Prop44ColorIndex
 90
        5
102
RTVSPost2010Prop44ColorRGB
 90
      255
102
RTVSPost2010PropOp44
 70
     1
102
RTVSPost2010Prop45
280
     0
102
RTVSPost2010PropOp45
 70
     1
102
RTVSPost2010Prop46
 90
       50
102
RTVSPost2010PropOp46
 70
     1
102
RTVSPost2010Prop47
 90
       50
102
RTVSPost2010PropOp47
 70
     1
102
RTVSPost2010Prop48
 90
       50
102
RTVSPost2010PropOp48
 70
     1
102
RTVSPost2010Prop49
280
     0
102
RTVSPost2010PropOp49
 70
     1
102
RTVSPost2010Prop50
 90
       50
102
RTVSPost2010PropOp50
 70
     1
102
RTVSPost2010Prop51ColorIndex
 90
      256
102
RTVSPost2010Prop51ColorRGB
 90
-16777216
102
RTVSPost2010PropOp51
 70
     0
102
RTVSPost2010Prop52
140
1.0
102
RTVSPost2010PropOp52
 70
     0
102
RTVSPost2010Prop53
 90
        2
102
RTVSPost2010PropOp53
 70
     1
102
RTVSPost2010Prop54
  1
strokes_ogs.tif
102
RTVSPost2010PropOp54
 70
     1
102
RTVSPost2010Prop55
280
     0
102
RTVSPost2010PropOp55
 70
     1
102
RTVSPost2010Prop56
140
1.0
102
RTVSPost2010PropOp56
 70
     1
102
RTVSPost2010Prop57
140
1.0
102
RTVSPost2010PropOp57
 70
     1
102
RTVSPropertyOp0
 70
     1
102
RTVSPropertyOp1
 70
     1
102
RTVSPropertyOp2
 70
     1
102
RTVSPropertyOp3
 70
     1
102
RTVSPropertyOp4
 70
     1
102
RTVSPropertyOp5
 70
     1
102
RTVSPropertyOp6
 70
     1
102
RTVSPropertyOp7
 70
     1
102
RTVSPropertyOp8
 70
     1
102
RTVSPropertyOp9
 70
     1
102
RTVSPropertyOp10
 70
     1
102
RTVSPropertyOp11
 70
     1
102
RTVSPropertyOp12
 70
     1
102
RTVSPropertyOp13
 70
     1
102
RTVSPropertyOp14
 70
     1
102
RTVSPropertyOp15
 70
     1
102
RTVSPropertyOp16
 70
     1
102
RTVSPropertyOp17
 70
     1
102
RTVSPropertyOp18
 70
     1
102
RTVSPropertyOp19
 70
     1
102
RTVSPropertyOp20
 70
     1
102
RTVSPropertyOp21
 70
     1
102
RTVSPropertyOp22
 70
     1
102
RTVSPropertyOp23
 70
     1
102
RTVSPropertyOp24
 70
     1
102
RTVSPropertyOp25
 70
     1
102
RTVSPropertyOp26
 70
     1
102
RTVSPropertyOp27
 70
     1
102
RTVSPropertyOp28
 70
     1
102
RTVSPropertyOp29
 70
     1
102
RTVSPropertyOp30
 70
     1
102
RTVSPropertyOp31
 70
     1
102
RTVSPropertyOp32
 70
     1
102
RTVSPropertyOp33
 70
     1
102
RTVSPropertyOp34
 70
     1
102
RTVSPropertyOp35
 70
     1
102
RTVSPropertyOp36
 70
     1
102
RTVSPropertyOp37
 70
     1
102
RTVSPropertyOp38
 70
     1
102
RTVSPropertyOp39
 70
     1
102
RTVSPropertyOp40
 70
     1
102
RTVSPropertyOp41
 70
     1
102
RTVSPropertyOp42
 70
     1
102
RTVSPropertyOp43
 70
     1
102
RTVSPropertyOp44
 70
     1
102
RTVSPropertyOp45
 70
     1
102
RTVSPropertyOp46
 70
     1
102
RTVSPropertyOp47
 70
     1
102
RTVSPropertyOp48
 70
     1
102
RTVSPropertyOp49
 70
     1
102
RTVSPropertyOp50
 70
     1
102
RTVSPropertyOp51
 70
     0
102
RTVSPropertyOp52
 70
     0
102
RTVSPropertyOp53
 70
     1
102
RTVSPropertyOp54
 70
     1
102
RTVSPropertyOp55
 70
     1
102
RTVSPropertyOp56
 70
     1
102
RTVSPropertyOp57
 70
     1
102
RTVSPropertyOp58
 70
     1
102
RTVSPropertyOp59
 70
     1
102
RTVSPropertyOp60
 70
     1
102
RTVSPropertyOp61
 70
     1
102
RTVSPropertyOp62
 70
     1
  0
XRECORD
  5
4CC2
102
{ACAD_REACTORS
330
4CC1
102
}
330
4CC1
100
AcDbXrecord
280
     1
102
RTVSPost2010Prop28
280
     0
102
RTVSPost2010PropOp28
 70
     1
102
RTVSPost2010Prop29
280
     1
102
RTVSPost2010PropOp29
 70
     1
102
RTVSPost2010Prop30
280
     1
102
RTVSPost2010PropOp30
 70
     1
102
RTVSPost2010Prop31
280
     0
102
RTVSPost2010PropOp31
 70
     1
102
RTVSPost2010Prop32
280
     0
102
RTVSPost2010PropOp32
 70
     1
102
RTVSPost2010Prop33
280
     0
102
RTVSPost2010PropOp33
 70
     1
102
RTVSPost2010Prop34
280
     0
102
RTVSPost2010PropOp34
 70
     1
102
RTVSPost2010Prop35
280
     0
102
RTVSPost2010PropOp35
 70
     1
102
RTVSPost2010Prop36
280
     0
102
RTVSPost2010PropOp36
 70
     1
102
RTVSPost2010Prop37
 90
       50
102
RTVSPost2010PropOp37
 70
     1
102
RTVSPost2010Prop38
140
0.0
102
RTVSPost2010PropOp38
 70
     1
102
RTVSPost2010Prop39
140
1.0
102
RTVSPost2010PropOp39
 70
     1
102
RTVSPost2010Prop40
 90
        0
102
RTVSPost2010PropOp40
 70
     1
102
RTVSPost2010Prop41ColorIndex
 90
       18
102
RTVSPost2010Prop41ColorRGB
 90
        0
102
RTVSPost2010PropOp41
 70
     1
102
RTVSPost2010Prop42
 90
       50
102
RTVSPost2010PropOp42
 70
     1
102
RTVSPost2010Prop43
 90
        3
102
RTVSPost2010PropOp43
 70
     1
102
RTVSPost2010Prop44ColorIndex
 90
        5
102
RTVSPost2010Prop44ColorRGB
 90
      255
102
RTVSPost2010PropOp44
 70
     1
102
RTVSPost2010Prop45
280
     0
102
RTVSPost2010PropOp45
 70
     1
102
RTVSPost2010Prop46
 90
       50
102
RTVSPost2010PropOp46
 70
     1
102
RTVSPost2010Prop47
 90
       50
102
RTVSPost2010PropOp47
 70
     1
102
RTVSPost2010Prop48
 90
       50
102
RTVSPost2010PropOp48
 70
     1
102
RTVSPost2010Prop49
280
     0
102
RTVSPost2010PropOp49
 70
     1
102
RTVSPost2010Prop50
 90
       50
102
RTVSPost2010PropOp50
 70
     1
102
RTVSPost2010Prop51ColorIndex
 90
      256
102
RTVSPost2010Prop51ColorRGB
 90
-16777216
102
RTVSPost2010PropOp51
 70
     0
102
RTVSPost2010Prop52
140
1.0
102
RTVSPost2010PropOp52
 70
     0
102
RTVSPost2010Prop53
 90
        2
102
RTVSPost2010PropOp53
 70
     1
102
RTVSPost2010Prop54
  1
strokes_ogs.tif
102
RTVSPost2010PropOp54
 70
     1
102
RTVSPost2010Prop55
280
     0
102
RTVSPost2010PropOp55
 70
     1
102
RTVSPost2010Prop56
140
1.0
102
RTVSPost2010PropOp56
 70
     1
102
RTVSPost2010Prop57
140
1.0
102
RTVSPost2010PropOp57
 70
     1
102
RTVSPropertyOp0
 70
     1
102
RTVSPropertyOp1
 70
     1
102
RTVSPropertyOp2
 70
     1
102
RTVSPropertyOp3
 70
     1
102
RTVSPropertyOp4
 70
     1
102
RTVSPropertyOp5
 70
     1
102
RTVSPropertyOp6
 70
     1
102
RTVSPropertyOp7
 70
     1
102
RTVSPropertyOp8
 70
     1
102
RTVSPropertyOp9
 70
     1
102
RTVSPropertyOp10
 70
     1
102
RTVSPropertyOp11
 70
     1
102
RTVSPropertyOp12
 70
     1
102
RTVSPropertyOp13
 70
     1
102
RTVSPropertyOp14
 70
     1
102
RTVSPropertyOp15
 70
     1
102
RTVSPropertyOp16
 70
     1
102
RTVSPropertyOp17
 70
     1
102
RTVSPropertyOp18
 70
     1
102
RTVSPropertyOp19
 70
     1
102
RTVSPropertyOp20
 70
     1
102
RTVSPropertyOp21
 70
     1
102
RTVSPropertyOp22
 70
     1
102
RTVSPropertyOp23
 70
     1
102
RTVSPropertyOp24
 70
     1
102
RTVSPropertyOp25
 70
     1
102
RTVSPropertyOp26
 70
     1
102
RTVSPropertyOp27
 70
     1
102
RTVSPropertyOp28
 70
     1
102
RTVSPropertyOp29
 70
     1
102
RTVSPropertyOp30
 70
     1
102
RTVSPropertyOp31
 70
     1
102
RTVSPropertyOp32
 70
     1
102
RTVSPropertyOp33
 70
     1
102
RTVSPropertyOp34
 70
     1
102
RTVSPropertyOp35
 70
     1
102
RTVSPropertyOp36
 70
     1
102
RTVSPropertyOp37
 70
     1
102
RTVSPropertyOp38
 70
     1
102
RTVSPropertyOp39
 70
     1
102
RTVSPropertyOp40
 70
     1
102
RTVSPropertyOp41
 70
     1
102
RTVSPropertyOp42
 70
     1
102
RTVSPropertyOp43
 70
     1
102
RTVSPropertyOp44
 70
     1
102
RTVSPropertyOp45
 70
     1
102
RTVSPropertyOp46
 70
     1
102
RTVSPropertyOp47
 70
     1
102
RTVSPropertyOp48
 70
     1
102
RTVSPropertyOp49
 70
     1
102
RTVSPropertyOp50
 70
     1
102
RTVSPropertyOp51
 70
     0
102
RTVSPropertyOp52
 70
     0
102
RTVSPropertyOp53
 70
     1
102
RTVSPropertyOp54
 70
     1
102
RTVSPropertyOp55
 70
     1
102
RTVSPropertyOp56
 70
     1
102
RTVSPropertyOp57
 70
     1
102
RTVSPropertyOp58
 70
     1
102
RTVSPropertyOp59
 70
     1
102
RTVSPropertyOp60
 70
     1
102
RTVSPropertyOp61
 70
     1
102
RTVSPropertyOp62
 70
     1
  0
XRECORD
  5
4CC0
102
{ACAD_REACTORS
330
4CBF
102
}
330
4CBF
100
AcDbXrecord
280
     1
102
RTVSPost2010Prop28
280
     0
102
RTVSPost2010PropOp28
 70
     1
102
RTVSPost2010Prop29
280
     1
102
RTVSPost2010PropOp29
 70
     1
102
RTVSPost2010Prop30
280
     1
102
RTVSPost2010PropOp30
 70
     1
102
RTVSPost2010Prop31
280
     0
102
RTVSPost2010PropOp31
 70
     1
102
RTVSPost2010Prop32
280
     0
102
RTVSPost2010PropOp32
 70
     1
102
RTVSPost2010Prop33
280
     0
102
RTVSPost2010PropOp33
 70
     1
102
RTVSPost2010Prop34
280
     0
102
RTVSPost2010PropOp34
 70
     1
102
RTVSPost2010Prop35
280
     0
102
RTVSPost2010PropOp35
 70
     1
102
RTVSPost2010Prop36
280
     0
102
RTVSPost2010PropOp36
 70
     1
102
RTVSPost2010Prop37
 90
       50
102
RTVSPost2010PropOp37
 70
     1
102
RTVSPost2010Prop38
140
0.0
102
RTVSPost2010PropOp38
 70
     1
102
RTVSPost2010Prop39
140
1.0
102
RTVSPost2010PropOp39
 70
     1
102
RTVSPost2010Prop40
 90
        0
102
RTVSPost2010PropOp40
 70
     1
102
RTVSPost2010Prop41ColorIndex
 90
       18
102
RTVSPost2010Prop41ColorRGB
 90
        0
102
RTVSPost2010PropOp41
 70
     1
102
RTVSPost2010Prop42
 90
       50
102
RTVSPost2010PropOp42
 70
     1
102
RTVSPost2010Prop43
 90
        3
102
RTVSPost2010PropOp43
 70
     1
102
RTVSPost2010Prop44ColorIndex
 90
        5
102
RTVSPost2010Prop44ColorRGB
 90
      255
102
RTVSPost2010PropOp44
 70
     1
102
RTVSPost2010Prop45
280
     0
102
RTVSPost2010PropOp45
 70
     1
102
RTVSPost2010Prop46
 90
       50
102
RTVSPost2010PropOp46
 70
     1
102
RTVSPost2010Prop47
 90
       50
102
RTVSPost2010PropOp47
 70
     1
102
RTVSPost2010Prop48
 90
       50
102
RTVSPost2010PropOp48
 70
     1
102
RTVSPost2010Prop49
280
     0
102
RTVSPost2010PropOp49
 70
     1
102
RTVSPost2010Prop50
 90
       50
102
RTVSPost2010PropOp50
 70
     1
102
RTVSPost2010Prop51ColorIndex
 90
      256
102
RTVSPost2010Prop51ColorRGB
 90
-16777216
102
RTVSPost2010PropOp51
 70
     0
102
RTVSPost2010Prop52
140
1.0
102
RTVSPost2010PropOp52
 70
     0
102
RTVSPost2010Prop53
 90
        2
102
RTVSPost2010PropOp53
 70
     1
102
RTVSPost2010Prop54
  1
strokes_ogs.tif
102
RTVSPost2010PropOp54
 70
     1
102
RTVSPost2010Prop55
280
     0
102
RTVSPost2010PropOp55
 70
     1
102
RTVSPost2010Prop56
140
1.0
102
RTVSPost2010PropOp56
 70
     1
102
RTVSPost2010Prop57
140
1.0
102
RTVSPost2010PropOp57
 70
     1
102
RTVSPropertyOp0
 70
     1
102
RTVSPropertyOp1
 70
     1
102
RTVSPropertyOp2
 70
     1
102
RTVSPropertyOp3
 70
     1
102
RTVSPropertyOp4
 70
     1
102
RTVSPropertyOp5
 70
     1
102
RTVSPropertyOp6
 70
     1
102
RTVSPropertyOp7
 70
     1
102
RTVSPropertyOp8
 70
     1
102
RTVSPropertyOp9
 70
     1
102
RTVSPropertyOp10
 70
     1
102
RTVSPropertyOp11
 70
     1
102
RTVSPropertyOp12
 70
     1
102
RTVSPropertyOp13
 70
     1
102
RTVSPropertyOp14
 70
     1
102
RTVSPropertyOp15
 70
     1
102
RTVSPropertyOp16
 70
     1
102
RTVSPropertyOp17
 70
     1
102
RTVSPropertyOp18
 70
     1
102
RTVSPropertyOp19
 70
     1
102
RTVSPropertyOp20
 70
     1
102
RTVSPropertyOp21
 70
     1
102
RTVSPropertyOp22
 70
     1
102
RTVSPropertyOp23
 70
     1
102
RTVSPropertyOp24
 70
     1
102
RTVSPropertyOp25
 70
     1
102
RTVSPropertyOp26
 70
     1
102
RTVSPropertyOp27
 70
     1
102
RTVSPropertyOp28
 70
     1
102
RTVSPropertyOp29
 70
     1
102
RTVSPropertyOp30
 70
     1
102
RTVSPropertyOp31
 70
     1
102
RTVSPropertyOp32
 70
     1
102
RTVSPropertyOp33
 70
     1
102
RTVSPropertyOp34
 70
     1
102
RTVSPropertyOp35
 70
     1
102
RTVSPropertyOp36
 70
     1
102
RTVSPropertyOp37
 70
     1
102
RTVSPropertyOp38
 70
     1
102
RTVSPropertyOp39
 70
     1
102
RTVSPropertyOp40
 70
     1
102
RTVSPropertyOp41
 70
     1
102
RTVSPropertyOp42
 70
     1
102
RTVSPropertyOp43
 70
     1
102
RTVSPropertyOp44
 70
     1
102
RTVSPropertyOp45
 70
     1
102
RTVSPropertyOp46
 70
     1
102
RTVSPropertyOp47
 70
     1
102
RTVSPropertyOp48
 70
     1
102
RTVSPropertyOp49
 70
     1
102
RTVSPropertyOp50
 70
     1
102
RTVSPropertyOp51
 70
     0
102
RTVSPropertyOp52
 70
     0
102
RTVSPropertyOp53
 70
     1
102
RTVSPropertyOp54
 70
     1
102
RTVSPropertyOp55
 70
     1
102
RTVSPropertyOp56
 70
     1
102
RTVSPropertyOp57
 70
     1
102
RTVSPropertyOp58
 70
     1
102
RTVSPropertyOp59
 70
     1
102
RTVSPropertyOp60
 70
     1
102
RTVSPropertyOp61
 70
     1
102
RTVSPropertyOp62
 70
     1
  0
XRECORD
  5
4CBA
102
{ACAD_REACTORS
330
4CB9
102
}
330
4CB9
100
AcDbXrecord
280
     1
102
RTVSPost2010Prop28
280
     0
102
RTVSPost2010PropOp28
 70
     1
102
RTVSPost2010Prop29
280
     1
102
RTVSPost2010PropOp29
 70
     1
102
RTVSPost2010Prop30
280
     1
102
RTVSPost2010PropOp30
 70
     1
102
RTVSPost2010Prop31
280
     0
102
RTVSPost2010PropOp31
 70
     1
102
RTVSPost2010Prop32
280
     0
102
RTVSPost2010PropOp32
 70
     1
102
RTVSPost2010Prop33
280
     0
102
RTVSPost2010PropOp33
 70
     1
102
RTVSPost2010Prop34
280
     0
102
RTVSPost2010PropOp34
 70
     1
102
RTVSPost2010Prop35
280
     0
102
RTVSPost2010PropOp35
 70
     1
102
RTVSPost2010Prop36
280
     0
102
RTVSPost2010PropOp36
 70
     1
102
RTVSPost2010Prop37
 90
       50
102
RTVSPost2010PropOp37
 70
     1
102
RTVSPost2010Prop38
140
0.0
102
RTVSPost2010PropOp38
 70
     1
102
RTVSPost2010Prop39
140
1.0
102
RTVSPost2010PropOp39
 70
     1
102
RTVSPost2010Prop40
 90
        0
102
RTVSPost2010PropOp40
 70
     1
102
RTVSPost2010Prop41ColorIndex
 90
       18
102
RTVSPost2010Prop41ColorRGB
 90
        0
102
RTVSPost2010PropOp41
 70
     1
102
RTVSPost2010Prop42
 90
       50
102
RTVSPost2010PropOp42
 70
     1
102
RTVSPost2010Prop43
 90
        3
102
RTVSPost2010PropOp43
 70
     1
102
RTVSPost2010Prop44ColorIndex
 90
        5
102
RTVSPost2010Prop44ColorRGB
 90
      255
102
RTVSPost2010PropOp44
 70
     1
102
RTVSPost2010Prop45
280
     0
102
RTVSPost2010PropOp45
 70
     1
102
RTVSPost2010Prop46
 90
       50
102
RTVSPost2010PropOp46
 70
     1
102
RTVSPost2010Prop47
 90
       50
102
RTVSPost2010PropOp47
 70
     1
102
RTVSPost2010Prop48
 90
       50
102
RTVSPost2010PropOp48
 70
     1
102
RTVSPost2010Prop49
280
     0
102
RTVSPost2010PropOp49
 70
     1
102
RTVSPost2010Prop50
 90
       50
102
RTVSPost2010PropOp50
 70
     1
102
RTVSPost2010Prop51ColorIndex
 90
      256
102
RTVSPost2010Prop51ColorRGB
 90
-16777216
102
RTVSPost2010PropOp51
 70
     0
102
RTVSPost2010Prop52
140
1.0
102
RTVSPost2010PropOp52
 70
     0
102
RTVSPost2010Prop53
 90
        2
102
RTVSPost2010PropOp53
 70
     1
102
RTVSPost2010Prop54
  1
strokes_ogs.tif
102
RTVSPost2010PropOp54
 70
     1
102
RTVSPost2010Prop55
280
     0
102
RTVSPost2010PropOp55
 70
     1
102
RTVSPost2010Prop56
140
1.0
102
RTVSPost2010PropOp56
 70
     1
102
RTVSPost2010Prop57
140
1.0
102
RTVSPost2010PropOp57
 70
     1
102
RTVSPropertyOp0
 70
     1
102
RTVSPropertyOp1
 70
     1
102
RTVSPropertyOp2
 70
     1
102
RTVSPropertyOp3
 70
     1
102
RTVSPropertyOp4
 70
     1
102
RTVSPropertyOp5
 70
     1
102
RTVSPropertyOp6
 70
     1
102
RTVSPropertyOp7
 70
     1
102
RTVSPropertyOp8
 70
     1
102
RTVSPropertyOp9
 70
     1
102
RTVSPropertyOp10
 70
     1
102
RTVSPropertyOp11
 70
     1
102
RTVSPropertyOp12
 70
     1
102
RTVSPropertyOp13
 70
     1
102
RTVSPropertyOp14
 70
     1
102
RTVSPropertyOp15
 70
     1
102
RTVSPropertyOp16
 70
     1
102
RTVSPropertyOp17
 70
     1
102
RTVSPropertyOp18
 70
     1
102
RTVSPropertyOp19
 70
     1
102
RTVSPropertyOp20
 70
     1
102
RTVSPropertyOp21
 70
     1
102
RTVSPropertyOp22
 70
     1
102
RTVSPropertyOp23
 70
     1
102
RTVSPropertyOp24
 70
     1
102
RTVSPropertyOp25
 70
     1
102
RTVSPropertyOp26
 70
     1
102
RTVSPropertyOp27
 70
     1
102
RTVSPropertyOp28
 70
     1
102
RTVSPropertyOp29
 70
     1
102
RTVSPropertyOp30
 70
     1
102
RTVSPropertyOp31
 70
     1
102
RTVSPropertyOp32
 70
     1
102
RTVSPropertyOp33
 70
     1
102
RTVSPropertyOp34
 70
     1
102
RTVSPropertyOp35
 70
     1
102
RTVSPropertyOp36
 70
     1
102
RTVSPropertyOp37
 70
     1
102
RTVSPropertyOp38
 70
     1
102
RTVSPropertyOp39
 70
     1
102
RTVSPropertyOp40
 70
     1
102
RTVSPropertyOp41
 70
     1
102
RTVSPropertyOp42
 70
     1
102
RTVSPropertyOp43
 70
     1
102
RTVSPropertyOp44
 70
     1
102
RTVSPropertyOp45
 70
     1
102
RTVSPropertyOp46
 70
     1
102
RTVSPropertyOp47
 70
     1
102
RTVSPropertyOp48
 70
     1
102
RTVSPropertyOp49
 70
     1
102
RTVSPropertyOp50
 70
     1
102
RTVSPropertyOp51
 70
     0
102
RTVSPropertyOp52
 70
     0
102
RTVSPropertyOp53
 70
     1
102
RTVSPropertyOp54
 70
     1
102
RTVSPropertyOp55
 70
     1
102
RTVSPropertyOp56
 70
     1
102
RTVSPropertyOp57
 70
     1
102
RTVSPropertyOp58
 70
     1
102
RTVSPropertyOp59
 70
     1
102
RTVSPropertyOp60
 70
     1
102
RTVSPropertyOp61
 70
     1
102
RTVSPropertyOp62
 70
     1
  0
XRECORD
  5
4CBC
102
{ACAD_REACTORS
330
4CBB
102
}
330
4CBB
100
AcDbXrecord
280
     1
102
RTVSPost2010Prop28
280
     0
102
RTVSPost2010PropOp28
 70
     1
102
RTVSPost2010Prop29
280
     1
102
RTVSPost2010PropOp29
 70
     1
102
RTVSPost2010Prop30
280
     1
102
RTVSPost2010PropOp30
 70
     1
102
RTVSPost2010Prop31
280
     0
102
RTVSPost2010PropOp31
 70
     1
102
RTVSPost2010Prop32
280
     0
102
RTVSPost2010PropOp32
 70
     1
102
RTVSPost2010Prop33
280
     0
102
RTVSPost2010PropOp33
 70
     1
102
RTVSPost2010Prop34
280
     0
102
RTVSPost2010PropOp34
 70
     1
102
RTVSPost2010Prop35
280
     0
102
RTVSPost2010PropOp35
 70
     1
102
RTVSPost2010Prop36
280
     0
102
RTVSPost2010PropOp36
 70
     1
102
RTVSPost2010Prop37
 90
       50
102
RTVSPost2010PropOp37
 70
     1
102
RTVSPost2010Prop38
140
0.0
102
RTVSPost2010PropOp38
 70
     1
102
RTVSPost2010Prop39
140
1.0
102
RTVSPost2010PropOp39
 70
     1
102
RTVSPost2010Prop40
 90
        0
102
RTVSPost2010PropOp40
 70
     1
102
RTVSPost2010Prop41ColorIndex
 90
       18
102
RTVSPost2010Prop41ColorRGB
 90
        0
102
RTVSPost2010PropOp41
 70
     1
102
RTVSPost2010Prop42
 90
       50
102
RTVSPost2010PropOp42
 70
     1
102
RTVSPost2010Prop43
 90
        3
102
RTVSPost2010PropOp43
 70
     1
102
RTVSPost2010Prop44ColorIndex
 90
        5
102
RTVSPost2010Prop44ColorRGB
 90
      255
102
RTVSPost2010PropOp44
 70
     1
102
RTVSPost2010Prop45
280
     0
102
RTVSPost2010PropOp45
 70
     1
102
RTVSPost2010Prop46
 90
       50
102
RTVSPost2010PropOp46
 70
     1
102
RTVSPost2010Prop47
 90
       50
102
RTVSPost2010PropOp47
 70
     1
102
RTVSPost2010Prop48
 90
       50
102
RTVSPost2010PropOp48
 70
     1
102
RTVSPost2010Prop49
280
     0
102
RTVSPost2010PropOp49
 70
     1
102
RTVSPost2010Prop50
 90
       50
102
RTVSPost2010PropOp50
 70
     1
102
RTVSPost2010Prop51ColorIndex
 90
      256
102
RTVSPost2010Prop51ColorRGB
 90
-16777216
102
RTVSPost2010PropOp51
 70
     0
102
RTVSPost2010Prop52
140
1.0
102
RTVSPost2010PropOp52
 70
     0
102
RTVSPost2010Prop53
 90
        2
102
RTVSPost2010PropOp53
 70
     1
102
RTVSPost2010Prop54
  1
strokes_ogs.tif
102
RTVSPost2010PropOp54
 70
     1
102
RTVSPost2010Prop55
280
     0
102
RTVSPost2010PropOp55
 70
     1
102
RTVSPost2010Prop56
140
1.0
102
RTVSPost2010PropOp56
 70
     1
102
RTVSPost2010Prop57
140
1.0
102
RTVSPost2010PropOp57
 70
     1
102
RTVSPropertyOp0
 70
     1
102
RTVSPropertyOp1
 70
     1
102
RTVSPropertyOp2
 70
     1
102
RTVSPropertyOp3
 70
     1
102
RTVSPropertyOp4
 70
     1
102
RTVSPropertyOp5
 70
     1
102
RTVSPropertyOp6
 70
     1
102
RTVSPropertyOp7
 70
     1
102
RTVSPropertyOp8
 70
     1
102
RTVSPropertyOp9
 70
     1
102
RTVSPropertyOp10
 70
     1
102
RTVSPropertyOp11
 70
     1
102
RTVSPropertyOp12
 70
     1
102
RTVSPropertyOp13
 70
     1
102
RTVSPropertyOp14
 70
     1
102
RTVSPropertyOp15
 70
     1
102
RTVSPropertyOp16
 70
     1
102
RTVSPropertyOp17
 70
     1
102
RTVSPropertyOp18
 70
     1
102
RTVSPropertyOp19
 70
     1
102
RTVSPropertyOp20
 70
     1
102
RTVSPropertyOp21
 70
     1
102
RTVSPropertyOp22
 70
     1
102
RTVSPropertyOp23
 70
     1
102
RTVSPropertyOp24
 70
     1
102
RTVSPropertyOp25
 70
     1
102
RTVSPropertyOp26
 70
     1
102
RTVSPropertyOp27
 70
     1
102
RTVSPropertyOp28
 70
     1
102
RTVSPropertyOp29
 70
     1
102
RTVSPropertyOp30
 70
     1
102
RTVSPropertyOp31
 70
     1
102
RTVSPropertyOp32
 70
     1
102
RTVSPropertyOp33
 70
     1
102
RTVSPropertyOp34
 70
     1
102
RTVSPropertyOp35
 70
     1
102
RTVSPropertyOp36
 70
     1
102
RTVSPropertyOp37
 70
     1
102
RTVSPropertyOp38
 70
     1
102
RTVSPropertyOp39
 70
     1
102
RTVSPropertyOp40
 70
     1
102
RTVSPropertyOp41
 70
     1
102
RTVSPropertyOp42
 70
     1
102
RTVSPropertyOp43
 70
     1
102
RTVSPropertyOp44
 70
     1
102
RTVSPropertyOp45
 70
     1
102
RTVSPropertyOp46
 70
     1
102
RTVSPropertyOp47
 70
     1
102
RTVSPropertyOp48
 70
     1
102
RTVSPropertyOp49
 70
     1
102
RTVSPropertyOp50
 70
     1
102
RTVSPropertyOp51
 70
     0
102
RTVSPropertyOp52
 70
     0
102
RTVSPropertyOp53
 70
     1
102
RTVSPropertyOp54
 70
     1
102
RTVSPropertyOp55
 70
     1
102
RTVSPropertyOp56
 70
     1
102
RTVSPropertyOp57
 70
     1
102
RTVSPropertyOp58
 70
     1
102
RTVSPropertyOp59
 70
     1
102
RTVSPropertyOp60
 70
     1
102
RTVSPropertyOp61
 70
     1
102
RTVSPropertyOp62
 70
     1
  0
XRECORD
  5
4C83
102
{ACAD_REACTORS
330
4C82
102
}
330
4C82
100
AcDbXrecord
280
     1
102
RTVSPost2010Prop28
280
     0
102
RTVSPost2010PropOp28
 70
     1
102
RTVSPost2010Prop29
280
     1
102
RTVSPost2010PropOp29
 70
     1
102
RTVSPost2010Prop30
280
     1
102
RTVSPost2010PropOp30
 70
     1
102
RTVSPost2010Prop31
280
     0
102
RTVSPost2010PropOp31
 70
     1
102
RTVSPost2010Prop32
280
     0
102
RTVSPost2010PropOp32
 70
     1
102
RTVSPost2010Prop33
280
     0
102
RTVSPost2010PropOp33
 70
     1
102
RTVSPost2010Prop34
280
     0
102
RTVSPost2010PropOp34
 70
     1
102
RTVSPost2010Prop35
280
     0
102
RTVSPost2010PropOp35
 70
     1
102
RTVSPost2010Prop36
280
     0
102
RTVSPost2010PropOp36
 70
     1
102
RTVSPost2010Prop37
 90
       50
102
RTVSPost2010PropOp37
 70
     1
102
RTVSPost2010Prop38
140
0.0
102
RTVSPost2010PropOp38
 70
     1
102
RTVSPost2010Prop39
140
1.0
102
RTVSPost2010PropOp39
 70
     1
102
RTVSPost2010Prop40
 90
        0
102
RTVSPost2010PropOp40
 70
     1
102
RTVSPost2010Prop41ColorIndex
 90
       18
102
RTVSPost2010Prop41ColorRGB
 90
        0
102
RTVSPost2010PropOp41
 70
     1
102
RTVSPost2010Prop42
 90
       50
102
RTVSPost2010PropOp42
 70
     1
102
RTVSPost2010Prop43
 90
        3
102
RTVSPost2010PropOp43
 70
     1
102
RTVSPost2010Prop44ColorIndex
 90
        5
102
RTVSPost2010Prop44ColorRGB
 90
      255
102
RTVSPost2010PropOp44
 70
     1
102
RTVSPost2010Prop45
280
     0
102
RTVSPost2010PropOp45
 70
     1
102
RTVSPost2010Prop46
 90
       50
102
RTVSPost2010PropOp46
 70
     1
102
RTVSPost2010Prop47
 90
       50
102
RTVSPost2010PropOp47
 70
     1
102
RTVSPost2010Prop48
 90
       50
102
RTVSPost2010PropOp48
 70
     1
102
RTVSPost2010Prop49
280
     0
102
RTVSPost2010PropOp49
 70
     1
102
RTVSPost2010Prop50
 90
       50
102
RTVSPost2010PropOp50
 70
     1
102
RTVSPost2010Prop51ColorIndex
 90
      256
102
RTVSPost2010Prop51ColorRGB
 90
-16777216
102
RTVSPost2010PropOp51
 70
     0
102
RTVSPost2010Prop52
140
1.0
102
RTVSPost2010PropOp52
 70
     0
102
RTVSPost2010Prop53
 90
        2
102
RTVSPost2010PropOp53
 70
     1
102
RTVSPost2010Prop54
  1
strokes_ogs.tif
102
RTVSPost2010PropOp54
 70
     1
102
RTVSPost2010Prop55
280
     0
102
RTVSPost2010PropOp55
 70
     1
102
RTVSPost2010Prop56
140
1.0
102
RTVSPost2010PropOp56
 70
     1
102
RTVSPost2010Prop57
140
1.0
102
RTVSPost2010PropOp57
 70
     1
102
RTVSPropertyOp0
 70
     1
102
RTVSPropertyOp1
 70
     1
102
RTVSPropertyOp2
 70
     1
102
RTVSPropertyOp3
 70
     1
102
RTVSPropertyOp4
 70
     1
102
RTVSPropertyOp5
 70
     1
102
RTVSPropertyOp6
 70
     1
102
RTVSPropertyOp7
 70
     1
102
RTVSPropertyOp8
 70
     1
102
RTVSPropertyOp9
 70
     1
102
RTVSPropertyOp10
 70
     1
102
RTVSPropertyOp11
 70
     1
102
RTVSPropertyOp12
 70
     1
102
RTVSPropertyOp13
 70
     1
102
RTVSPropertyOp14
 70
     1
102
RTVSPropertyOp15
 70
     1
102
RTVSPropertyOp16
 70
     1
102
RTVSPropertyOp17
 70
     1
102
RTVSPropertyOp18
 70
     1
102
RTVSPropertyOp19
 70
     1
102
RTVSPropertyOp20
 70
     1
102
RTVSPropertyOp21
 70
     1
102
RTVSPropertyOp22
 70
     1
102
RTVSPropertyOp23
 70
     1
102
RTVSPropertyOp24
 70
     1
102
RTVSPropertyOp25
 70
     1
102
RTVSPropertyOp26
 70
     1
102
RTVSPropertyOp27
 70
     1
102
RTVSPropertyOp28
 70
     1
102
RTVSPropertyOp29
 70
     1
102
RTVSPropertyOp30
 70
     1
102
RTVSPropertyOp31
 70
     1
102
RTVSPropertyOp32
 70
     1
102
RTVSPropertyOp33
 70
     1
102
RTVSPropertyOp34
 70
     1
102
RTVSPropertyOp35
 70
     1
102
RTVSPropertyOp36
 70
     1
102
RTVSPropertyOp37
 70
     1
102
RTVSPropertyOp38
 70
     1
102
RTVSPropertyOp39
 70
     1
102
RTVSPropertyOp40
 70
     1
102
RTVSPropertyOp41
 70
     1
102
RTVSPropertyOp42
 70
     1
102
RTVSPropertyOp43
 70
     1
102
RTVSPropertyOp44
 70
     1
102
RTVSPropertyOp45
 70
     1
102
RTVSPropertyOp46
 70
     1
102
RTVSPropertyOp47
 70
     1
102
RTVSPropertyOp48
 70
     1
102
RTVSPropertyOp49
 70
     1
102
RTVSPropertyOp50
 70
     1
102
RTVSPropertyOp51
 70
     0
102
RTVSPropertyOp52
 70
     0
102
RTVSPropertyOp53
 70
     1
102
RTVSPropertyOp54
 70
     1
102
RTVSPropertyOp55
 70
     1
102
RTVSPropertyOp56
 70
     1
102
RTVSPropertyOp57
 70
     1
102
RTVSPropertyOp58
 70
     1
102
RTVSPropertyOp59
 70
     1
102
RTVSPropertyOp60
 70
     1
102
RTVSPropertyOp61
 70
     1
102
RTVSPropertyOp62
 70
     1
  0
XRECORD
  5
4CB6
102
{ACAD_REACTORS
330
4CB5
102
}
330
4CB5
100
AcDbXrecord
280
     1
102
RTVSPost2010Prop28
280
     0
102
RTVSPost2010PropOp28
 70
     1
102
RTVSPost2010Prop29
280
     1
102
RTVSPost2010PropOp29
 70
     1
102
RTVSPost2010Prop30
280
     1
102
RTVSPost2010PropOp30
 70
     1
102
RTVSPost2010Prop31
280
     0
102
RTVSPost2010PropOp31
 70
     1
102
RTVSPost2010Prop32
280
     0
102
RTVSPost2010PropOp32
 70
     1
102
RTVSPost2010Prop33
280
     0
102
RTVSPost2010PropOp33
 70
     1
102
RTVSPost2010Prop34
280
     0
102
RTVSPost2010PropOp34
 70
     1
102
RTVSPost2010Prop35
280
     0
102
RTVSPost2010PropOp35
 70
     1
102
RTVSPost2010Prop36
280
     0
102
RTVSPost2010PropOp36
 70
     1
102
RTVSPost2010Prop37
 90
       50
102
RTVSPost2010PropOp37
 70
     1
102
RTVSPost2010Prop38
140
0.0
102
RTVSPost2010PropOp38
 70
     1
102
RTVSPost2010Prop39
140
1.0
102
RTVSPost2010PropOp39
 70
     1
102
RTVSPost2010Prop40
 90
        0
102
RTVSPost2010PropOp40
 70
     1
102
RTVSPost2010Prop41ColorIndex
 90
       18
102
RTVSPost2010Prop41ColorRGB
 90
        0
102
RTVSPost2010PropOp41
 70
     1
102
RTVSPost2010Prop42
 90
       50
102
RTVSPost2010PropOp42
 70
     1
102
RTVSPost2010Prop43
 90
        3
102
RTVSPost2010PropOp43
 70
     1
102
RTVSPost2010Prop44ColorIndex
 90
        5
102
RTVSPost2010Prop44ColorRGB
 90
      255
102
RTVSPost2010PropOp44
 70
     1
102
RTVSPost2010Prop45
280
     0
102
RTVSPost2010PropOp45
 70
     1
102
RTVSPost2010Prop46
 90
       50
102
RTVSPost2010PropOp46
 70
     1
102
RTVSPost2010Prop47
 90
       50
102
RTVSPost2010PropOp47
 70
     1
102
RTVSPost2010Prop48
 90
       50
102
RTVSPost2010PropOp48
 70
     1
102
RTVSPost2010Prop49
280
     0
102
RTVSPost2010PropOp49
 70
     1
102
RTVSPost2010Prop50
 90
       50
102
RTVSPost2010PropOp50
 70
     1
102
RTVSPost2010Prop51ColorIndex
 90
      256
102
RTVSPost2010Prop51ColorRGB
 90
-16777216
102
RTVSPost2010PropOp51
 70
     0
102
RTVSPost2010Prop52
140
1.0
102
RTVSPost2010PropOp52
 70
     0
102
RTVSPost2010Prop53
 90
        2
102
RTVSPost2010PropOp53
 70
     1
102
RTVSPost2010Prop54
  1
strokes_ogs.tif
102
RTVSPost2010PropOp54
 70
     1
102
RTVSPost2010Prop55
280
     0
102
RTVSPost2010PropOp55
 70
     1
102
RTVSPost2010Prop56
140
1.0
102
RTVSPost2010PropOp56
 70
     1
102
RTVSPost2010Prop57
140
1.0
102
RTVSPost2010PropOp57
 70
     1
102
RTVSPropertyOp0
 70
     1
102
RTVSPropertyOp1
 70
     1
102
RTVSPropertyOp2
 70
     1
102
RTVSPropertyOp3
 70
     1
102
RTVSPropertyOp4
 70
     1
102
RTVSPropertyOp5
 70
     1
102
RTVSPropertyOp6
 70
     1
102
RTVSPropertyOp7
 70
     1
102
RTVSPropertyOp8
 70
     1
102
RTVSPropertyOp9
 70
     1
102
RTVSPropertyOp10
 70
     1
102
RTVSPropertyOp11
 70
     1
102
RTVSPropertyOp12
 70
     1
102
RTVSPropertyOp13
 70
     1
102
RTVSPropertyOp14
 70
     1
102
RTVSPropertyOp15
 70
     1
102
RTVSPropertyOp16
 70
     1
102
RTVSPropertyOp17
 70
     1
102
RTVSPropertyOp18
 70
     1
102
RTVSPropertyOp19
 70
     1
102
RTVSPropertyOp20
 70
     1
102
RTVSPropertyOp21
 70
     1
102
RTVSPropertyOp22
 70
     1
102
RTVSPropertyOp23
 70
     1
102
RTVSPropertyOp24
 70
     1
102
RTVSPropertyOp25
 70
     1
102
RTVSPropertyOp26
 70
     1
102
RTVSPropertyOp27
 70
     1
102
RTVSPropertyOp28
 70
     1
102
RTVSPropertyOp29
 70
     1
102
RTVSPropertyOp30
 70
     1
102
RTVSPropertyOp31
 70
     1
102
RTVSPropertyOp32
 70
     1
102
RTVSPropertyOp33
 70
     1
102
RTVSPropertyOp34
 70
     1
102
RTVSPropertyOp35
 70
     1
102
RTVSPropertyOp36
 70
     1
102
RTVSPropertyOp37
 70
     1
102
RTVSPropertyOp38
 70
     1
102
RTVSPropertyOp39
 70
     1
102
RTVSPropertyOp40
 70
     1
102
RTVSPropertyOp41
 70
     1
102
RTVSPropertyOp42
 70
     1
102
RTVSPropertyOp43
 70
     1
102
RTVSPropertyOp44
 70
     1
102
RTVSPropertyOp45
 70
     1
102
RTVSPropertyOp46
 70
     1
102
RTVSPropertyOp47
 70
     1
102
RTVSPropertyOp48
 70
     1
102
RTVSPropertyOp49
 70
     1
102
RTVSPropertyOp50
 70
     1
102
RTVSPropertyOp51
 70
     0
102
RTVSPropertyOp52
 70
     0
102
RTVSPropertyOp53
 70
     1
102
RTVSPropertyOp54
 70
     1
102
RTVSPropertyOp55
 70
     1
102
RTVSPropertyOp56
 70
     1
102
RTVSPropertyOp57
 70
     1
102
RTVSPropertyOp58
 70
     1
102
RTVSPropertyOp59
 70
     1
102
RTVSPropertyOp60
 70
     1
102
RTVSPropertyOp61
 70
     1
102
RTVSPropertyOp62
 70
     1
  0
XRECORD
  5
4CBE
102
{ACAD_REACTORS
330
4CBD
102
}
330
4CBD
100
AcDbXrecord
280
     1
102
RTVSPost2010Prop28
280
     0
102
RTVSPost2010PropOp28
 70
     1
102
RTVSPost2010Prop29
280
     1
102
RTVSPost2010PropOp29
 70
     1
102
RTVSPost2010Prop30
280
     1
102
RTVSPost2010PropOp30
 70
     1
102
RTVSPost2010Prop31
280
     0
102
RTVSPost2010PropOp31
 70
     1
102
RTVSPost2010Prop32
280
     0
102
RTVSPost2010PropOp32
 70
     1
102
RTVSPost2010Prop33
280
     0
102
RTVSPost2010PropOp33
 70
     1
102
RTVSPost2010Prop34
280
     0
102
RTVSPost2010PropOp34
 70
     1
102
RTVSPost2010Prop35
280
     0
102
RTVSPost2010PropOp35
 70
     1
102
RTVSPost2010Prop36
280
     0
102
RTVSPost2010PropOp36
 70
     1
102
RTVSPost2010Prop37
 90
       50
102
RTVSPost2010PropOp37
 70
     1
102
RTVSPost2010Prop38
140
0.0
102
RTVSPost2010PropOp38
 70
     1
102
RTVSPost2010Prop39
140
1.0
102
RTVSPost2010PropOp39
 70
     1
102
RTVSPost2010Prop40
 90
        0
102
RTVSPost2010PropOp40
 70
     1
102
RTVSPost2010Prop41ColorIndex
 90
       18
102
RTVSPost2010Prop41ColorRGB
 90
        0
102
RTVSPost2010PropOp41
 70
     1
102
RTVSPost2010Prop42
 90
       50
102
RTVSPost2010PropOp42
 70
     1
102
RTVSPost2010Prop43
 90
        3
102
RTVSPost2010PropOp43
 70
     1
102
RTVSPost2010Prop44ColorIndex
 90
        5
102
RTVSPost2010Prop44ColorRGB
 90
      255
102
RTVSPost2010PropOp44
 70
     1
102
RTVSPost2010Prop45
280
     0
102
RTVSPost2010PropOp45
 70
     1
102
RTVSPost2010Prop46
 90
       50
102
RTVSPost2010PropOp46
 70
     1
102
RTVSPost2010Prop47
 90
       50
102
RTVSPost2010PropOp47
 70
     1
102
RTVSPost2010Prop48
 90
       50
102
RTVSPost2010PropOp48
 70
     1
102
RTVSPost2010Prop49
280
     0
102
RTVSPost2010PropOp49
 70
     1
102
RTVSPost2010Prop50
 90
       50
102
RTVSPost2010PropOp50
 70
     1
102
RTVSPost2010Prop51ColorIndex
 90
      256
102
RTVSPost2010Prop51ColorRGB
 90
-16777216
102
RTVSPost2010PropOp51
 70
     0
102
RTVSPost2010Prop52
140
1.0
102
RTVSPost2010PropOp52
 70
     0
102
RTVSPost2010Prop53
 90
        2
102
RTVSPost2010PropOp53
 70
     1
102
RTVSPost2010Prop54
  1
strokes_ogs.tif
102
RTVSPost2010PropOp54
 70
     1
102
RTVSPost2010Prop55
280
     0
102
RTVSPost2010PropOp55
 70
     1
102
RTVSPost2010Prop56
140
1.0
102
RTVSPost2010PropOp56
 70
     1
102
RTVSPost2010Prop57
140
1.0
102
RTVSPost2010PropOp57
 70
     1
102
RTVSPropertyOp0
 70
     1
102
RTVSPropertyOp1
 70
     1
102
RTVSPropertyOp2
 70
     1
102
RTVSPropertyOp3
 70
     1
102
RTVSPropertyOp4
 70
     1
102
RTVSPropertyOp5
 70
     1
102
RTVSPropertyOp6
 70
     1
102
RTVSPropertyOp7
 70
     1
102
RTVSPropertyOp8
 70
     1
102
RTVSPropertyOp9
 70
     1
102
RTVSPropertyOp10
 70
     1
102
RTVSPropertyOp11
 70
     1
102
RTVSPropertyOp12
 70
     1
102
RTVSPropertyOp13
 70
     1
102
RTVSPropertyOp14
 70
     1
102
RTVSPropertyOp15
 70
     1
102
RTVSPropertyOp16
 70
     1
102
RTVSPropertyOp17
 70
     1
102
RTVSPropertyOp18
 70
     1
102
RTVSPropertyOp19
 70
     1
102
RTVSPropertyOp20
 70
     1
102
RTVSPropertyOp21
 70
     1
102
RTVSPropertyOp22
 70
     1
102
RTVSPropertyOp23
 70
     1
102
RTVSPropertyOp24
 70
     1
102
RTVSPropertyOp25
 70
     1
102
RTVSPropertyOp26
 70
     1
102
RTVSPropertyOp27
 70
     1
102
RTVSPropertyOp28
 70
     1
102
RTVSPropertyOp29
 70
     1
102
RTVSPropertyOp30
 70
     1
102
RTVSPropertyOp31
 70
     1
102
RTVSPropertyOp32
 70
     1
102
RTVSPropertyOp33
 70
     1
102
RTVSPropertyOp34
 70
     1
102
RTVSPropertyOp35
 70
     1
102
RTVSPropertyOp36
 70
     1
102
RTVSPropertyOp37
 70
     1
102
RTVSPropertyOp38
 70
     1
102
RTVSPropertyOp39
 70
     1
102
RTVSPropertyOp40
 70
     1
102
RTVSPropertyOp41
 70
     1
102
RTVSPropertyOp42
 70
     1
102
RTVSPropertyOp43
 70
     1
102
RTVSPropertyOp44
 70
     1
102
RTVSPropertyOp45
 70
     1
102
RTVSPropertyOp46
 70
     1
102
RTVSPropertyOp47
 70
     1
102
RTVSPropertyOp48
 70
     1
102
RTVSPropertyOp49
 70
     1
102
RTVSPropertyOp50
 70
     1
102
RTVSPropertyOp51
 70
     0
102
RTVSPropertyOp52
 70
     0
102
RTVSPropertyOp53
 70
     1
102
RTVSPropertyOp54
 70
     1
102
RTVSPropertyOp55
 70
     1
102
RTVSPropertyOp56
 70
     1
102
RTVSPropertyOp57
 70
     1
102
RTVSPropertyOp58
 70
     1
102
RTVSPropertyOp59
 70
     1
102
RTVSPropertyOp60
 70
     1
102
RTVSPropertyOp61
 70
     1
102
RTVSPropertyOp62
 70
     1
  0
ENDSEC
  0
EOF
