  0
SECTION
  2
HEADER
  9
$CLAYER
  8
1
  9
$LTSCALE
 40
3.0
  0
ENDSEC
  0
SECTION
  2
TABLES
  0
TABLE
  2
LTYPE
 70
     4
  0
LTYPE
  2
CONTINUOUS
  3
solid line
 70
    64
 72
    65
 73
     0
 40
0.0
  0
LTYPE
  2
DASHED
  3
__ __ __ __ __ __ __ __ __ __ __ __ __ __ __
 70
    64
 72
    65
 73
     2
 40
0.75
 49
0.5
 49
-0.25
  0
LTYPE
  2
CENTER
  3
____ _ ____ _ ____ _ ____ _ ____ _ ____ _ ____
 70
    64
 72
    65
 73
     4
 40
2.0
 49
1.25
 49
-0.25
 49
0.25
 49
-0.25
  0
LTYPE
  2
PHANTOM
  3
_____ _ _ _____ _ _ _____ _ _ _____ _ _ ____
 70
    64
 72
    65
 73
     6
 40
2.5
 49
1.25
 49
-0.25
 49
0.25
 49
-0.25
 49
0.25
 49
-0.25
  0
ENDTAB
  0
TABLE
  2
LAYER
 70
     1
  0
LAYER
  2
0
 70
    64
 62
     7
  6
CONTINUOUS
  0
ENDTAB
  0
TABLE
  2
STYLE
 70
     1
  0
STYLE
  2
STANDARD
 70
     0
 40
0.000000
 41
1.000000
 50
0.000000
 71
     0
 42
3.000000
  3
txt
  4
BIGFONT
  0
ENDTAB
  0
ENDSEC
  0
SECTION
  2
BLOCKS
  0
ENDSEC
  0
SECTION
  2
ENTITIES
  0
LINE
  8
0
  6
CENTER
 10
44.014999
 20
0.517813
 11
44.014999
 21
115.017815
  0
LINE
  8
0
  6
CONTINUOUS
 10
4.015000
 20
8.505313
 11
4.015000
 21
110.505310
  0
LINE
  8
0
  6
CONTINUOUS
 10
75.014999
 20
16.453234
 11
75.014999
 21
102.539902
  0
LINE
  8
0
  6
CONTINUOUS
 10
79.014999
 20
53.505310
 11
79.014999
 21
91.505310
  0
LINE
  8
0
  6
CENTER
 10
-2.185001
 20
72.505310
 11
113.264999
 21
72.505310
  0
LINE
  8
0
  6
CONTINUOUS
 10
78.014999
 20
92.505310
 11
77.015022
 21
92.505310
  0
LINE
  8
0
  6
CONTINUOUS
 10
78.014999
 20
52.505310
 11
77.015022
 21
52.505310
  0
LINE
  8
0
  6
CONTINUOUS
 10
73.049889
 20
104.539612
 11
14.980110
 21
105.552994
  0
LINE
  8
0
  6
CONTINUOUS
 10
73.049911
 20
14.453543
 11
14.980080
 21
13.439733
  0
ARC
  8
0
  6
CONTINUOUS
 10
73.015007
 20
102.539902
 40
2.000000
 50
0.000000
 51
89.000359
  0
ARC
  8
0
  6
CONTINUOUS
 10
73.014999
 20
16.453234
 40
2.000000
 50
-88.999634
 51
0.000000
  0
ARC
  8
0
  6
CONTINUOUS
 10
78.014999
 20
91.505310
 40
1.000000
 50
0.000000
 51
90.000000
  0
ARC
  8
0
  6
CONTINUOUS
 10
78.014999
 20
53.505306
 40
1.000000
 50
-90.000000
 51
0.000000
  0
LINE
  8
0
  6
CONTINUOUS
 10
13.015000
 20
30.805323
 11
13.015000
 21
10.005313
  0
LINE
  8
0
  6
CONTINUOUS
 10
4.015000
 20
110.505310
 11
11.864010
 21
110.505310
  0
LINE
  8
0
  6
CONTINUOUS
 10
11.480340
 20
8.505313
 11
4.015000
 21
8.505313
  0
LINE
  8
0
  6
CONTINUOUS
 10
16.015020
 20
85.205315
 11
73.046249
 21
85.205315
  0
LINE
  8
0
  6
CONTINUOUS
 10
16.015011
 20
33.805313
 11
73.577499
 21
33.805313
  0
ARC
  8
0
  6
CONTINUOUS
 10
11.515000
 20
10.005313
 40
1.500000
 50
-90.000000
 51
0.000000
  0
LINE
  8
0
  6
CONTINUOUS
 10
13.312899
 20
109.393532
 11
13.752700
 21
107.752174
  0
ARC
  8
0
  6
CONTINUOUS
 10
16.648109
 20
108.524353
 40
3.000000
 50
194.932602
 51
269.000610
  0
ARC
  8
0
  6
CONTINUOUS
 10
11.864010
 20
109.005310
 40
1.500000
 50
15.000070
 51
90.000000
  0
ARC
  8
0
  6
CONTINUOUS
 10
16.014999
 20
88.205315
 40
3.000000
 50
180.000000
 51
270.000000
  0
ARC
  8
0
  6
CONTINUOUS
 10
16.015020
 20
30.805332
 40
3.000000
 50
90.000000
 51
180.000000
  0
ARC
  8
0
  6
CONTINUOUS
 10
77.014999
 20
94.505310
 40
2.000000
 50
180.000000
 51
270.000000
  0
ARC
  8
0
  6
CONTINUOUS
 10
77.015022
 20
50.505322
 40
2.000000
 50
90.000000
 51
180.000000
  0
LINE
  8
0
  6
CONTINUOUS
 10
81.014999
 20
80.005310
 11
108.014999
 21
80.005310
  0
LINE
  8
0
  6
CONTINUOUS
 10
81.014999
 20
65.005310
 11
108.014999
 21
65.005310
  0
LINE
  8
0
  6
CONTINUOUS
 10
108.014999
 20
65.005310
 11
108.014999
 21
80.005310
  0
LINE
  8
0
  6
CONTINUOUS
 10
81.014999
 20
81.005310
 11
81.014999
 21
64.005310
  0
LINE
  8
0
  6
CONTINUOUS
 10
86.515022
 20
70.005310
 11
108.014999
 21
70.005310
  0
LINE
  8
0
  6
CONTINUOUS
 10
86.514999
 20
75.005310
 11
108.014999
 21
75.005310
  0
ARC
  8
0
  6
CONTINUOUS
 10
86.515022
 20
72.505325
 40
2.500000
 50
90.000000
 51
180.000000
  0
ARC
  8
0
  6
CONTINUOUS
 10
86.514999
 20
72.505310
 40
2.500000
 50
180.000000
 51
270.000000
  0
LINE
  8
0
  6
CENTER
 10
0.296250
 20
102.505310
 11
16.546249
 21
102.505310
  0
LINE
  8
0
  6
CENTER
 10
1.296250
 20
16.505314
 11
16.296249
 21
16.505314
  0
LINE
  8
0
  6
DASHED
 10
4.015000
 20
19.755314
 11
13.015000
 21
19.755314
  0
LINE
  8
0
  6
DASHED
 10
4.015000
 20
13.255313
 11
13.015000
 21
13.255313
  0
LINE
  8
0
  6
DASHED
 10
4.015000
 20
105.755310
 11
13.015000
 21
105.755310
  0
LINE
  8
0
  6
DASHED
 10
4.015000
 20
99.255310
 11
13.015000
 21
99.255310
  0
LINE
  8
0
  6
CONTINUOUS
 10
23.014999
 20
12.205313
 11
65.014999
 21
12.205313
  0
ARC
  8
0
  6
CONTINUOUS
 10
65.014999
 20
14.205313
 40
2.000000
 50
-90.000000
 51
0.000000
  0
ARC
  8
0
  6
CONTINUOUS
 10
23.014999
 20
14.205313
 40
2.000000
 50
199.216995
 51
270.000000
  0
LINE
  8
0
  6
CONTINUOUS
 10
67.014999
 20
14.205313
 11
67.014999
 21
14.348093
  0
ARC
  8
0
  6
CONTINUOUS
 10
44.014999
 20
50.205311
 40
38.000000
 50
-35.334469
 51
21.294241
  0
LINE
  8
0
  6
CENTER
 10
-2.185001
 20
50.205311
 11
86.277496
 21
50.205311
  0
LINE
  8
0
  6
CONTINUOUS
 10
13.015000
 20
109.967194
 11
13.015000
 21
88.205292
  0
ARC
  8
0
  6
CONTINUOUS
 10
15.014990
 20
107.552696
 40
2.000000
 50
180.000000
 51
269.000610
  0
ARC
  8
0
  6
CONTINUOUS
 10
15.015010
 20
11.440053
 40
2.000000
 50
91.000587
 51
180.000000
  0
LINE
  8
0
  6
CONTINUOUS
 10
13.412200
 20
9.987673
 11
13.749039
 21
11.244813
  0
ARC
  8
0
  6
CONTINUOUS
 10
11.480340
 20
10.505313
 40
2.000000
 50
270.000000
 51
345.000092
  0
ARC
  8
0
  6
CONTINUOUS
 10
16.646830
 20
10.468383
 40
3.000000
 50
91.000488
 51
165.000305
  0
LINE
  8
0
  6
CONTINUOUS
 10
79.014999
 20
81.005310
 11
81.014999
 21
81.005310
  0
LINE
  8
0
  6
CONTINUOUS
 10
79.014999
 20
64.005310
 11
81.014999
 21
64.005310
  0
LINE
  8
0
  6
CONTINUOUS
 10
339.015015
 20
12.205313
 11
339.015015
 21
88.205315
  0
LINE
  8
0
  6
CENTER
 10
368.564362
 20
50.205315
 11
250.289993
 21
50.205315
  0
LINE
  8
0
  6
CONTINUOUS
 10
339.015015
 20
88.205315
 11
266.095001
 21
88.205315
  0
LINE
  8
0
  6
CONTINUOUS
 10
268.515015
 20
12.205313
 11
339.015015
 21
12.205313
  0
LINE
  8
0
  6
CONTINUOUS
 10
256.015015
 20
8.505313
 11
192.014999
 21
8.505313
  0
LINE
  8
0
  6
CONTINUOUS
 10
256.015015
 20
110.505310
 11
192.014999
 21
110.505310
  0
LINE
  8
0
  6
CONTINUOUS
 10
266.515015
 20
85.205315
 11
266.515015
 21
20.205322
  0
LINE
  8
0
  6
CENTER
 10
224.014999
 20
122.892815
 11
224.014999
 21
-0.732187
  0
LINE
  8
0
  6
CENTER
 10
192.014999
 20
22.642813
 11
192.014999
 21
11.142813
  0
LINE
  8
0
  6
CENTER
 10
197.858704
 20
16.505314
 11
185.608704
 21
16.505314
  0
CIRCLE
  8
0
  6
CONTINUOUS
 10
192.014999
 20
16.505314
 40
3.250000
  0
LINE
  8
0
  6
CENTER
 10
192.014999
 20
96.367813
 11
192.014999
 21
107.867813
  0
CIRCLE
  8
0
  6
CONTINUOUS
 10
192.014999
 20
102.505310
 40
3.250000
  0
LINE
  8
0
  6
CENTER
 10
256.015015
 20
96.367813
 11
256.015015
 21
107.867813
  0
LINE
  8
0
  6
CENTER
 10
250.171295
 20
102.505310
 11
262.421295
 21
102.505310
  0
CIRCLE
  8
0
  6
CONTINUOUS
 10
256.015015
 20
102.505310
 40
3.250000
  0
LINE
  8
0
  6
CENTER
 10
256.015015
 20
22.642813
 11
256.015015
 21
11.142813
  0
LINE
  8
0
  6
CENTER
 10
250.171295
 20
16.505314
 11
262.421295
 21
16.505314
  0
CIRCLE
  8
0
  6
CONTINUOUS
 10
256.015015
 20
16.505314
 40
3.250000
  0
LINE
  8
0
  6
CONTINUOUS
 10
181.514999
 20
85.205315
 11
181.514999
 21
33.805325
  0
LINE
  8
0
  6
CONTINUOUS
 10
184.092300
 20
103.614471
 11
181.514999
 21
85.205315
  0
LINE
  8
0
  6
CONTINUOUS
 10
184.092300
 20
15.396193
 11
181.514999
 21
33.805325
  0
LINE
  8
0
  6
CONTINUOUS
 10
263.937714
 20
15.396113
 11
265.099091
 21
23.691612
  0
LINE
  8
0
  6
CONTINUOUS
 10
263.937714
 20
103.614464
 11
266.515015
 21
85.205315
  0
LINE
  8
0
  6
CENTER
 10
258.165009
 20
72.505310
 11
190.398743
 21
72.505310
  0
LINE
  8
0
  6
CONTINUOUS
 10
214.514999
 20
75.005310
 11
214.514999
 21
70.005310
  0
LINE
  8
0
  6
CONTINUOUS
 10
219.514999
 20
70.005310
 11
219.514999
 21
75.005310
  0
LINE
  8
0
  6
CONTINUOUS
 10
219.514999
 20
75.005310
 11
214.514999
 21
75.005310
  0
LINE
  8
0
  6
CONTINUOUS
 10
219.514999
 20
70.005310
 11
214.514999
 21
70.005310
  0
ARC
  8
0
  6
CONTINUOUS
 10
224.014999
 20
72.505310
 40
7.500000
 50
-160.528793
 51
160.528793
  0
ARC
  8
0
  6
CONTINUOUS
 10
192.014999
 20
102.505310
 40
8.000000
 50
90.000000
 51
172.030304
  0
ARC
  8
0
  6
CONTINUOUS
 10
256.015015
 20
102.505310
 40
8.000000
 50
7.969498
 51
90.000000
  0
ARC
  8
0
  6
CONTINUOUS
 10
256.015015
 20
16.505314
 40
8.000000
 50
-90.000000
 51
-7.969604
  0
ARC
  8
0
  6
CONTINUOUS
 10
192.014999
 20
16.505314
 40
8.000000
 50
-172.030304
 51
-90.000000
  0
LINE
  8
0
  6
CONTINUOUS
 10
266.515015
 20
14.205313
 11
266.515015
 21
20.205322
  0
ARC
  8
0
  6
CONTINUOUS
 10
268.515015
 20
14.205313
 40
2.000000
 50
180.000000
 51
270.000000
  0
ARC
  8
0
  6
CONTINUOUS
 10
261.515015
 20
20.205334
 40
5.000000
 50
0.000000
 51
90.000000
  0
LINE
  8
0
  6
CONTINUOUS
 10
339.015015
 20
80.454285
 11
267.265015
 21
80.454285
  0
LINE
  8
0
  6
CONTINUOUS
 10
339.015015
 20
19.956352
 11
267.015015
 21
19.956352
  0
LINE
  8
0
  6
CONTINUOUS
 10
210.594498
 20
104.505310
 11
237.435501
 21
104.505310
  0
LINE
  8
0
  6
CONTINUOUS
 10
237.435501
 20
14.505313
 11
210.594498
 21
14.505313
  0
LINE
  8
0
  6
CONTINUOUS
 10
240.307800
 20
103.597977
 11
266.515015
 21
85.205315
  0
LINE
  8
0
  6
CONTINUOUS
 10
207.722198
 20
103.597977
 11
181.514999
 21
85.205315
  0
LINE
  8
0
  6
CONTINUOUS
 10
207.722198
 20
15.412653
 11
181.514999
 21
33.805325
  0
LINE
  8
0
  6
CONTINUOUS
 10
252.968307
 20
24.297974
 11
240.307800
 21
15.412653
  0
LINE
  8
0
  6
CONTINUOUS
 10
255.840607
 20
25.205313
 11
261.515015
 21
25.205313
  0
ARC
  8
0
  6
CONTINUOUS
 10
237.435593
 20
99.505310
 40
5.000000
 50
54.938221
 51
90.000000
  0
ARC
  8
0
  6
CONTINUOUS
 10
210.594498
 20
99.505325
 40
5.000000
 50
90.000000
 51
125.062103
  0
ARC
  8
0
  6
CONTINUOUS
 10
210.594498
 20
19.505314
 40
5.000000
 50
234.938095
 51
270.000000
  0
ARC
  8
0
  6
CONTINUOUS
 10
237.435501
 20
19.505314
 40
5.000000
 50
270.000000
 51
305.061890
  0
ARC
  8
0
  6
CONTINUOUS
 10
255.840607
 20
20.205322
 40
5.000000
 50
90.000000
 51
125.062103
  0
CIRCLE
  8
0
  6
CONTINUOUS
 10
224.014999
 20
72.505310
 40
20.000000
  0
LINE
  8
0
  6
CENTER
 10
186.702499
 20
102.505310
 11
197.389999
 21
102.505310
  0
LINE
  8
0
  6
CONTINUOUS
 10
215.648804
 20
36.505314
 11
212.183197
 21
36.505314
  0
LINE
  8
0
  6
CONTINUOUS
 10
217.561707
 20
42.310272
 11
217.561707
 21
36.505314
  0
LINE
  8
0
  6
CONTINUOUS
 10
220.893707
 20
44.418812
 11
220.893707
 21
46.501301
  0
LINE
  8
0
  6
CONTINUOUS
 10
227.557693
 20
44.418812
 11
227.557693
 21
46.501301
  0
LINE
  8
0
  6
CONTINUOUS
 10
223.574905
 20
45.277836
 11
223.574905
 21
37.598621
  0
LINE
  8
0
  6
CONTINUOUS
 10
224.824402
 20
45.277836
 11
224.824402
 21
37.598621
  0
LINE
  8
0
  6
CONTINUOUS
 10
231.384293
 20
45.277836
 11
231.384293
 21
37.546555
  0
LINE
  8
0
  6
CONTINUOUS
 10
232.529694
 20
41.177921
 11
232.529694
 21
37.546555
  0
LINE
  8
0
  6
CONTINUOUS
 10
215.980606
 20
45.173710
 11
212.769501
 21
45.173710
  0
LINE
  8
0
  6
CONTINUOUS
 10
213.266602
 20
37.676712
 11
212.781494
 21
37.676712
  0
LINE
  8
0
  6
CONTINUOUS
 10
212.769501
 20
45.173710
 11
212.017105
 21
44.240753
  0
LINE
  8
0
  6
CONTINUOUS
 10
212.107605
 20
46.501301
 11
210.897705
 21
44.952133
  0
LINE
  8
0
  6
CONTINUOUS
 10
212.017105
 20
38.481934
 11
212.781494
 21
37.676712
  0
LINE
  8
0
  6
CONTINUOUS
 10
210.897705
 20
37.802414
 11
212.183197
 21
36.505314
  0
LINE
  8
0
  6
CONTINUOUS
 10
210.897705
 20
44.952133
 11
210.897705
 21
37.802414
  0
LINE
  8
0
  6
CONTINUOUS
 10
212.017105
 20
44.240753
 11
212.017105
 21
38.481934
  0
LINE
  8
0
  6
CONTINUOUS
 10
216.598602
 20
44.576370
 11
215.968002
 21
45.173710
  0
LINE
  8
0
  6
CONTINUOUS
 10
216.588593
 20
46.501301
 11
217.561707
 21
45.421329
  0
LINE
  8
0
  6
CONTINUOUS
 10
216.598602
 20
44.418812
 11
217.561707
 21
44.418812
  0
LINE
  8
0
  6
CONTINUOUS
 10
212.107605
 20
46.501301
 11
216.588593
 21
46.501301
  0
LINE
  8
0
  6
CONTINUOUS
 10
214.854507
 20
42.310272
 11
217.561707
 21
42.310272
  0
LINE
  8
0
  6
CONTINUOUS
 10
216.598602
 20
41.216969
 11
214.854507
 21
41.216969
  0
LINE
  8
0
  6
CONTINUOUS
 10
214.099594
 20
37.676712
 11
213.266602
 21
37.676712
  0
LINE
  8
0
  6
CONTINUOUS
 10
216.598602
 20
40.175724
 11
216.598602
 21
41.008717
  0
LINE
  8
0
  6
CONTINUOUS
 10
214.516098
 20
37.676712
 11
214.099594
 21
37.676712
  0
LINE
  8
0
  6
CONTINUOUS
 10
216.598602
 20
39.759224
 11
216.598602
 21
40.175724
  0
LINE
  8
0
  6
CONTINUOUS
 10
216.598602
 20
39.703903
 11
216.598602
 21
39.759224
  0
ARC
  8
0
  6
CONTINUOUS
 10
214.516098
 20
39.759224
 40
2.082500
 50
-89.999786
 51
0.000109
  0
LINE
  8
0
  6
CONTINUOUS
 10
216.598602
 20
37.302143
 11
216.598602
 21
36.505314
  0
LINE
  8
0
  6
CONTINUOUS
 10
217.561707
 20
45.421329
 11
217.561707
 21
44.418812
  0
LINE
  8
0
  6
CONTINUOUS
 10
216.598602
 20
41.216969
 11
216.598602
 21
39.759224
  0
LINE
  8
0
  6
CONTINUOUS
 10
214.854507
 20
42.310272
 11
214.854507
 21
41.216969
  0
LINE
  8
0
  6
CONTINUOUS
 10
216.598602
 20
41.008717
 11
216.598602
 21
41.216969
  0
LINE
  8
0
  6
CONTINUOUS
 10
216.598602
 20
36.505314
 11
217.561707
 21
36.505314
  0
LINE
  8
0
  6
CONTINUOUS
 10
216.598602
 20
37.302143
 11
215.648804
 21
36.505314
  0
LINE
  8
0
  6
CONTINUOUS
 10
224.824402
 20
37.598621
 11
225.240906
 21
37.598621
  0
LINE
  8
0
  6
CONTINUOUS
 10
223.080307
 20
37.598621
 11
223.080307
 21
36.505314
  0
LINE
  8
0
  6
CONTINUOUS
 10
225.240906
 20
37.598621
 11
225.240906
 21
36.505314
  0
LINE
  8
0
  6
CONTINUOUS
 10
226.862595
 20
44.418812
 11
227.557693
 21
44.418812
  0
LINE
  8
0
  6
CONTINUOUS
 10
220.893707
 20
44.418812
 11
221.633408
 21
44.418812
  0
LINE
  8
0
  6
CONTINUOUS
 10
220.893707
 20
46.501301
 11
227.557693
 21
46.501301
  0
LINE
  8
0
  6
CONTINUOUS
 10
223.080307
 20
36.505314
 11
225.240906
 21
36.505314
  0
LINE
  8
0
  6
CONTINUOUS
 10
223.080307
 20
37.598621
 11
223.574905
 21
37.598621
  0
ARC
  8
0
  6
CONTINUOUS
 10
234.885498
 20
43.833103
 40
2.668203
 50
-73.981873
 51
90.003510
  0
ARC
  8
0
  6
CONTINUOUS
 10
234.885498
 20
43.833103
 40
1.627786
 50
-82.585274
 51
62.411850
  0
LINE
  8
0
  6
CONTINUOUS
 10
230.889694
 20
46.501301
 11
234.885498
 21
46.501301
  0
LINE
  8
0
  6
CONTINUOUS
 10
235.095596
 20
42.218922
 11
232.529694
 21
42.218922
  0
LINE
  8
0
  6
CONTINUOUS
 10
230.889694
 20
46.501301
 11
230.889694
 21
45.277836
  0
LINE
  8
0
  6
CONTINUOUS
 10
232.529694
 20
45.277836
 11
232.529694
 21
42.218922
  0
LINE
  8
0
  6
CONTINUOUS
 10
235.621796
 20
41.268497
 11
237.273193
 21
37.546555
  0
LINE
  8
0
  6
CONTINUOUS
 10
234.662598
 20
41.177921
 11
236.225494
 21
37.546555
  0
LINE
  8
0
  6
CONTINUOUS
 10
230.889694
 20
37.546555
 11
231.384293
 21
37.546555
  0
LINE
  8
0
  6
CONTINUOUS
 10
232.529694
 20
37.546555
 11
232.985199
 21
37.546555
  0
LINE
  8
0
  6
CONTINUOUS
 10
232.985199
 20
36.505314
 11
230.889694
 21
36.505314
  0
LINE
  8
0
  6
CONTINUOUS
 10
236.017899
 20
37.546555
 11
236.225494
 21
37.546555
  0
LINE
  8
0
  6
CONTINUOUS
 10
237.273193
 20
37.546555
 11
237.553696
 21
37.546555
  0
LINE
  8
0
  6
CONTINUOUS
 10
236.017899
 20
36.505314
 11
237.553696
 21
36.505314
  0
LINE
  8
0
  6
CONTINUOUS
 10
237.553696
 20
37.546555
 11
237.553696
 21
36.505314
  0
LINE
  8
0
  6
CONTINUOUS
 10
236.017899
 20
37.546555
 11
236.017899
 21
36.505314
  0
LINE
  8
0
  6
CONTINUOUS
 10
232.985199
 20
37.546555
 11
232.985199
 21
36.505314
  0
LINE
  8
0
  6
CONTINUOUS
 10
230.889694
 20
37.546555
 11
230.889694
 21
36.505314
  0
LINE
  8
0
  6
CONTINUOUS
 10
221.991394
 20
45.277836
 11
221.633408
 21
44.418812
  0
LINE
  8
0
  6
CONTINUOUS
 10
226.560806
 20
45.277836
 11
226.862595
 21
44.418812
  0
LINE
  8
0
  6
CONTINUOUS
 10
224.824402
 20
45.277836
 11
226.560806
 21
45.277836
  0
LINE
  8
0
  6
CONTINUOUS
 10
223.574905
 20
45.277836
 11
221.991394
 21
45.277836
  0
LINE
  8
0
  6
CONTINUOUS
 10
232.529694
 20
41.177921
 11
234.662598
 21
41.177921
  0
LINE
  8
0
  6
CONTINUOUS
 10
230.889694
 20
45.277836
 11
231.384293
 21
45.277836
  0
LINE
  8
0
  6
CONTINUOUS
 10
232.529694
 20
45.277836
 11
235.639404
 21
45.275822
  0
LINE
  8
0
  6
CONTINUOUS
 10
216.598602
 20
44.576370
 11
216.598602
 21
44.418812
  0
LINE
  8
0
  6
CONTINUOUS
 10
359.515015
 20
18.205313
 11
359.515015
 21
82.205315
  0
LINE
  8
0
  6
CONTINUOUS
 10
355.550903
 20
88.205315
 11
339.015015
 21
88.205315
  0
LINE
  8
0
  6
CONTINUOUS
 10
355.550903
 20
12.205313
 11
339.015015
 21
12.205313
  0
LINE
  8
0
  6
CONTINUOUS
 10
359.015015
 20
15.205313
 11
359.015015
 21
85.205315
  0
LINE
  8
0
  6
CONTINUOUS
 10
359.515015
 20
82.205315
 11
359.015015
 21
82.705315
  0
LINE
  8
0
  6
CONTINUOUS
 10
359.515015
 20
18.205313
 11
359.015015
 21
17.705313
  0
LINE
  8
0
  6
CONTINUOUS
 10
358.148987
 20
86.705299
 11
359.015015
 21
85.205315
  0
ARC
  8
0
  6
CONTINUOUS
 10
355.550903
 20
85.205322
 40
3.000000
 50
29.999599
 51
90.000000
  0
LINE
  8
0
  6
CONTINUOUS
 10
358.148987
 20
13.705323
 11
359.015015
 21
15.205313
  0
ARC
  8
0
  6
CONTINUOUS
 10
355.550903
 20
15.205303
 40
3.000000
 50
270.000000
 51
330.000397
  0
LINE
  8
0
  6
CONTINUOUS
 10
357.433411
 20
80.454315
 11
339.015015
 21
80.454315
  0
LINE
  8
0
  6
CONTINUOUS
 10
339.015015
 20
19.956312
 11
357.433411
 21
19.956312
  0
LINE
  8
0
  6
CONTINUOUS
 10
338.515015
 20
89.705315
 11
338.515015
 21
88.205315
  0
LINE
  8
0
  6
CONTINUOUS
 10
345.515015
 20
89.705315
 11
345.515015
 21
88.205315
  0
LINE
  8
0
  6
CONTINUOUS
 10
345.515015
 20
89.705315
 11
338.515015
 21
89.705315
  0
LINE
  8
0
  6
CONTINUOUS
 10
341.114990
 20
102.705315
 11
341.114990
 21
89.705315
  0
LINE
  8
0
  6
CONTINUOUS
 10
342.915009
 20
103.330315
 11
342.915009
 21
89.705315
  0
LINE
  8
0
  6
CONTINUOUS
 10
344.714996
 20
101.267815
 11
344.714996
 21
89.705315
  0
LINE
  8
0
  6
CONTINUOUS
 10
339.315002
 20
102.080315
 11
339.315002
 21
89.705315
  0
LINE
  8
0
  6
CONTINUOUS
 10
342.915009
 20
103.330315
 11
341.114990
 21
102.705315
  0
LINE
  8
0
  6
CONTINUOUS
 10
344.714996
 20
101.267815
 11
342.915009
 21
101.892815
  0
LINE
  8
0
  6
CONTINUOUS
 10
339.315002
 20
102.080315
 11
341.114014
 21
101.632607
  0
LINE
  8
0
  6
CENTER
 10
224.014999
 20
180.371246
 11
224.014999
 21
300.666260
  0
LINE
  8
0
  6
CENTER
 10
369.515015
 20
248.871246
 11
175.514999
 21
248.871246
  0
LINE
  8
0
  6
CONTINUOUS
 10
185.322510
 20
217.871246
 11
264.566681
 21
217.871246
  0
LINE
  8
0
  6
CONTINUOUS
 10
359.515015
 20
280.871246
 11
359.515015
 21
216.871246
  0
LINE
  8
0
  6
CONTINUOUS
 10
355.550903
 20
210.871246
 11
339.015015
 21
210.871246
  0
LINE
  8
0
  6
CONTINUOUS
 10
355.550903
 20
286.871246
 11
339.015015
 21
286.871246
  0
LINE
  8
0
  6
CONTINUOUS
 10
359.015015
 20
283.871246
 11
359.015015
 21
213.871246
  0
LINE
  8
0
  6
CONTINUOUS
 10
359.515015
 20
216.871246
 11
359.015015
 21
216.371246
  0
LINE
  8
0
  6
CONTINUOUS
 10
359.515015
 20
280.871246
 11
359.015015
 21
281.371246
  0
LINE
  8
0
  6
CONTINUOUS
 10
358.148987
 20
212.371262
 11
359.015015
 21
213.871246
  0
ARC
  8
0
  6
CONTINUOUS
 10
355.550903
 20
213.871246
 40
3.000000
 50
270.000000
 51
330.000397
  0
LINE
  8
0
  6
CONTINUOUS
 10
358.148987
 20
285.371246
 11
359.015015
 21
283.871246
  0
ARC
  8
0
  6
CONTINUOUS
 10
355.550903
 20
283.871246
 40
3.000000
 50
29.999599
 51
90.000000
  0
LINE
  8
0
  6
CONTINUOUS
 10
357.433350
 20
225.871246
 11
339.015015
 21
225.871246
  0
LINE
  8
0
  6
CONTINUOUS
 10
339.015015
 20
286.871246
 11
339.015015
 21
255.737274
  0
LINE
  8
0
  6
CONTINUOUS
 10
357.433350
 20
271.871246
 11
339.015015
 21
271.871246
  0
LINE
  8
0
  6
CONTINUOUS
 10
268.646606
 20
210.871246
 11
339.015015
 21
210.871246
  0
LINE
  8
0
  6
CONTINUOUS
 10
339.015015
 20
225.871246
 11
263.095306
 21
225.871246
  0
LINE
  8
0
  6
CONTINUOUS
 10
265.724152
 20
279.871246
 11
182.724823
 21
279.871246
  0
LINE
  8
0
  6
CONTINUOUS
 10
268.028595
 20
286.871246
 11
339.015015
 21
286.871246
  0
LINE
  8
0
  6
CONTINUOUS
 10
339.015015
 20
271.871246
 11
266.960175
 21
271.871246
  0
LINE
  8
0
  6
CONTINUOUS
 10
244.014999
 20
214.871246
 11
244.014999
 21
217.871246
  0
LINE
  8
0
  6
CONTINUOUS
 10
204.014999
 20
214.871246
 11
204.014999
 21
217.871246
  0
LINE
  8
0
  6
CONTINUOUS
 10
205.014999
 20
213.871246
 11
243.014999
 21
213.871246
  0
ARC
  8
0
  6
CONTINUOUS
 10
243.014999
 20
214.871246
 40
1.000000
 50
-90.000000
 51
0.000000
  0
ARC
  8
0
  6
CONTINUOUS
 10
205.014999
 20
214.871246
 40
1.000000
 50
180.000000
 51
270.000000
  0
LINE
  8
0
  6
CONTINUOUS
 10
231.514999
 20
184.871246
 11
231.514999
 21
211.871246
  0
LINE
  8
0
  6
CONTINUOUS
 10
231.514999
 20
184.871246
 11
214.514999
 21
184.871246
  0
LINE
  8
0
  6
CONTINUOUS
 10
232.514999
 20
211.871246
 11
215.514999
 21
211.871246
  0
LINE
  8
0
  6
CONTINUOUS
 10
232.514999
 20
211.871246
 11
232.514999
 21
213.871246
  0
LINE
  8
0
  6
CONTINUOUS
 10
215.514999
 20
211.871246
 11
215.514999
 21
213.871246
  0
LINE
  8
0
  6
CONTINUOUS
 10
214.514999
 20
208.871246
 11
214.514999
 21
184.871246
  0
LINE
  8
0
  6
CONTINUOUS
 10
216.944000
 20
208.871246
 11
216.944000
 21
184.871246
  0
LINE
  8
0
  6
CONTINUOUS
 10
216.944000
 20
208.871246
 11
214.514999
 21
208.871246
  0
LINE
  8
0
  6
CONTINUOUS
 10
216.514999
 20
208.871246
 11
216.514999
 21
211.871246
  0
LINE
  8
0
  6
CONTINUOUS
 10
209.014999
 20
278.871246
 11
209.014999
 21
219.836349
  0
LINE
  8
0
  6
CONTINUOUS
 10
239.014999
 20
278.871246
 11
239.014999
 21
219.836349
  0
LINE
  8
0
  6
CONTINUOUS
 10
266.724426
 20
225.868515
 11
266.566010
 21
219.818893
  0
LINE
  8
0
  6
CONTINUOUS
 10
262.240387
 20
278.690002
 11
262.240387
 21
227.870972
  0
LINE
  8
0
  6
CONTINUOUS
 10
345.515015
 20
254.871246
 11
345.515015
 21
242.871246
  0
LINE
  8
0
  6
CONTINUOUS
 10
338.515015
 20
254.871246
 11
338.515015
 21
242.871246
  0
LINE
  8
0
  6
CONTINUOUS
 10
344.515015
 20
241.871246
 11
339.515015
 21
241.871246
  0
LINE
  8
0
  6
CONTINUOUS
 10
339.515015
 20
255.871246
 11
344.515015
 21
255.871246
  0
ARC
  8
0
  6
CONTINUOUS
 10
339.515015
 20
242.871246
 40
1.000000
 50
180.000000
 51
270.000000
  0
ARC
  8
0
  6
CONTINUOUS
 10
344.515015
 20
242.871246
 40
1.000000
 50
-90.000000
 51
0.000000
  0
ARC
  8
0
  6
CONTINUOUS
 10
344.515015
 20
254.871246
 40
1.000000
 50
0.000000
 51
90.000000
  0
ARC
  8
0
  6
CONTINUOUS
 10
339.515015
 20
254.871246
 40
1.000000
 50
90.000000
 51
180.000000
  0
LINE
  8
0
  6
CONTINUOUS
 10
341.015015
 20
252.371246
 11
341.015015
 21
245.371246
  0
LINE
  8
0
  6
CONTINUOUS
 10
343.015015
 20
252.371246
 11
343.015015
 21
245.371246
  0
ARC
  8
0
  6
CONTINUOUS
 10
342.015015
 20
245.371246
 40
1.000000
 50
-90.000000
 51
0.000000
  0
ARC
  8
0
  6
CONTINUOUS
 10
342.015015
 20
245.371246
 40
1.000000
 50
180.000000
 51
270.000000
  0
ARC
  8
0
  6
CONTINUOUS
 10
342.015015
 20
252.371246
 40
1.000000
 50
0.000000
 51
90.000000
  0
ARC
  8
0
  6
CONTINUOUS
 10
342.015015
 20
252.371246
 40
1.000000
 50
90.000000
 51
180.000000
  0
LINE
  8
0
  6
CONTINUOUS
 10
339.015015
 20
242.005219
 11
339.015015
 21
210.871246
  0
LINE
  8
0
  6
CONTINUOUS
 10
266.515015
 20
288.871246
 11
181.514999
 21
288.871246
  0
LINE
  8
0
  6
CONTINUOUS
 10
183.323196
 20
219.818893
 11
181.514999
 21
288.871246
  0
ARC
  8
0
  6
CONTINUOUS
 10
185.322510
 20
219.871246
 40
2.000000
 50
181.500000
 51
270.000000
  0
LINE
  8
0
  6
CONTINUOUS
 10
267.562439
 20
248.871246
 11
266.515015
 21
288.871246
  0
LINE
  8
0
  6
CONTINUOUS
 10
184.092300
 20
288.871246
 11
184.092300
 21
281.181549
  0
LINE
  8
0
  6
CONTINUOUS
 10
263.937714
 20
288.871246
 11
263.937714
 21
281.181549
  0
ARC
  8
0
  6
CONTINUOUS
 10
240.014999
 20
278.871246
 40
1.000000
 50
90.000000
 51
180.000000
  0
ARC
  8
0
  6
CONTINUOUS
 10
208.014999
 20
278.871246
 40
1.000000
 50
0.000000
 51
90.000000
  0
LINE
  8
0
  6
CONTINUOUS
 10
239.014999
 20
278.551239
 11
209.014999
 21
278.551239
  0
ARC
  8
0
  6
CONTINUOUS
 10
182.724823
 20
280.871246
 40
1.000000
 50
181.500000
 51
270.000000
  0
LINE
  8
0
  6
CONTINUOUS
 10
266.647308
 20
212.818893
 11
266.566010
 21
215.923599
  0
ARC
  8
0
  6
CONTINUOUS
 10
265.724152
 20
280.871246
 40
1.000000
 50
-90.000000
 51
1.499999
  0
ARC
  8
0
  6
CONTINUOUS
 10
268.028595
 20
288.371246
 40
1.500000
 50
181.500000
 51
270.000000
  0
ARC
  8
0
  6
CONTINUOUS
 10
268.646606
 20
212.871246
 40
2.000000
 50
181.500000
 51
270.000000
  0
ARC
  8
0
  6
CONTINUOUS
 10
264.566681
 20
215.871246
 40
2.000000
 50
1.500000
 51
90.000000
  0
ARC
  8
0
  6
CONTINUOUS
 10
264.566681
 20
219.871246
 40
2.000000
 50
270.000000
 51
358.500000
  0
LINE
  8
0
  6
CENTER
 10
192.014999
 20
292.761414
 11
192.014999
 21
275.620636
  0
LINE
  8
0
  6
DASHED
 10
188.764999
 20
279.871246
 11
188.764999
 21
288.871246
  0
LINE
  8
0
  6
DASHED
 10
195.264999
 20
279.871246
 11
195.264999
 21
288.871246
  0
LINE
  8
0
  6
CENTER
 10
256.015015
 20
292.761414
 11
256.015015
 21
275.620636
  0
LINE
  8
0
  6
DASHED
 10
259.265015
 20
279.871246
 11
259.265015
 21
288.871246
  0
LINE
  8
0
  6
DASHED
 10
252.764999
 20
279.871246
 11
252.764999
 21
288.871246
  0
TEXT
  8
0
 10
-64.000000
 20
0.000000
 40
4.000000
 41
1.000000
  1
HFM-15L-10~240-S15W
 50
0.000000
  0
ENDSEC
  0
EOF
