  0
SECTION
  2
HEADER
  9
$CLAYER
  8
1
  9
$LTSCALE
 40
3.0
  0
ENDSEC
  0
SECTION
  2
TABLES
  0
TABLE
  2
LTYPE
 70
     4
  0
LTYPE
  2
CONTINUOUS
  3
solid line
 70
    64
 72
    65
 73
     0
 40
0.0
  0
LTYPE
  2
DASHED
  3
__ __ __ __ __ __ __ __ __ __ __ __ __ __ __
 70
    64
 72
    65
 73
     2
 40
0.75
 49
0.5
 49
-0.25
  0
LTYPE
  2
CENTER
  3
____ _ ____ _ ____ _ ____ _ ____ _ ____ _ ____
 70
    64
 72
    65
 73
     4
 40
2.0
 49
1.25
 49
-0.25
 49
0.25
 49
-0.25
  0
LTYPE
  2
PHANTOM
  3
_____ _ _ _____ _ _ _____ _ _ _____ _ _ ____
 70
    64
 72
    65
 73
     6
 40
2.5
 49
1.25
 49
-0.25
 49
0.25
 49
-0.25
 49
0.25
 49
-0.25
  0
ENDTAB
  0
TABLE
  2
LAYER
 70
     1
  0
LAYER
  2
0
 70
    64
 62
     7
  6
CONTINUOUS
  0
ENDTAB
  0
TABLE
  2
STYLE
 70
     1
  0
STYLE
  2
STANDARD
 70
     0
 40
0.000000
 41
1.000000
 50
0.000000
 71
     0
 42
3.000000
  3
txt
  4
BIGFONT
  0
ENDTAB
  0
ENDSEC
  0
SECTION
  2
BLOCKS
  0
ENDSEC
  0
SECTION
  2
ENTITIES
  0
LINE
  8
0
  6
CENTER
 10
214.220001
 20
176.695007
 11
214.220001
 21
296.989990
  0
LINE
  8
0
  6
CENTER
 10
359.720001
 20
245.195007
 11
165.720001
 21
245.195007
  0
LINE
  8
0
  6
CONTINUOUS
 10
175.527512
 20
214.195007
 11
254.771683
 21
214.195007
  0
LINE
  8
0
  6
CONTINUOUS
 10
258.851624
 20
207.195007
 11
329.220001
 21
207.195007
  0
LINE
  8
0
  6
CONTINUOUS
 10
288.220001
 20
222.195007
 11
253.300323
 21
222.195007
  0
LINE
  8
0
  6
CONTINUOUS
 10
255.929138
 20
276.195007
 11
172.929825
 21
276.195007
  0
LINE
  8
0
  6
CONTINUOUS
 10
258.233612
 20
283.195007
 11
329.220001
 21
283.195007
  0
LINE
  8
0
  6
CONTINUOUS
 10
288.220001
 20
268.195007
 11
257.165161
 21
268.195007
  0
LINE
  8
0
  6
CONTINUOUS
 10
234.220001
 20
211.195007
 11
234.220001
 21
214.195007
  0
LINE
  8
0
  6
CONTINUOUS
 10
194.220001
 20
211.195007
 11
194.220001
 21
214.195007
  0
LINE
  8
0
  6
CONTINUOUS
 10
195.220001
 20
210.195007
 11
233.220001
 21
210.195007
  0
ARC
  8
0
  6
CONTINUOUS
 10
233.220001
 20
211.195007
 40
1.000000
 50
-90.000000
 51
0.000000
  0
ARC
  8
0
  6
CONTINUOUS
 10
195.220001
 20
211.195007
 40
1.000000
 50
180.000000
 51
270.000000
  0
LINE
  8
0
  6
CONTINUOUS
 10
221.720001
 20
181.195007
 11
221.720001
 21
208.195007
  0
LINE
  8
0
  6
CONTINUOUS
 10
221.720001
 20
181.195007
 11
204.720001
 21
181.195007
  0
LINE
  8
0
  6
CONTINUOUS
 10
222.720001
 20
208.195007
 11
205.720001
 21
208.195007
  0
LINE
  8
0
  6
CONTINUOUS
 10
222.720001
 20
208.195007
 11
222.720001
 21
210.195007
  0
LINE
  8
0
  6
CONTINUOUS
 10
205.720001
 20
208.195007
 11
205.720001
 21
210.195007
  0
LINE
  8
0
  6
CONTINUOUS
 10
204.720001
 20
205.195007
 11
204.720001
 21
181.195007
  0
LINE
  8
0
  6
CONTINUOUS
 10
207.149002
 20
205.195007
 11
207.149002
 21
181.195007
  0
LINE
  8
0
  6
CONTINUOUS
 10
207.149002
 20
205.195007
 11
204.720001
 21
205.195007
  0
LINE
  8
0
  6
CONTINUOUS
 10
206.720001
 20
205.195007
 11
206.720001
 21
208.195007
  0
LINE
  8
0
  6
CONTINUOUS
 10
199.220001
 20
275.195007
 11
199.220001
 21
216.160095
  0
LINE
  8
0
  6
CONTINUOUS
 10
229.220001
 20
275.195007
 11
229.220001
 21
216.160095
  0
LINE
  8
0
  6
CONTINUOUS
 10
256.929413
 20
222.192261
 11
256.770996
 21
216.142639
  0
LINE
  8
0
  6
CONTINUOUS
 10
252.445389
 20
275.013763
 11
252.445389
 21
224.194733
  0
LINE
  8
0
  6
CONTINUOUS
 10
256.720001
 20
285.195007
 11
171.720001
 21
285.195007
  0
LINE
  8
0
  6
CONTINUOUS
 10
173.528198
 20
216.142639
 11
171.720001
 21
285.195007
  0
ARC
  8
0
  6
CONTINUOUS
 10
175.527512
 20
216.195007
 40
2.000000
 50
181.500000
 51
270.000000
  0
LINE
  8
0
  6
CONTINUOUS
 10
257.767426
 20
245.195007
 11
256.720001
 21
285.195007
  0
LINE
  8
0
  6
CONTINUOUS
 10
174.297302
 20
285.195007
 11
174.297302
 21
277.505310
  0
LINE
  8
0
  6
CONTINUOUS
 10
254.142700
 20
285.195007
 11
254.142700
 21
277.505310
  0
ARC
  8
0
  6
CONTINUOUS
 10
230.220001
 20
275.195007
 40
1.000000
 50
90.000000
 51
180.000000
  0
ARC
  8
0
  6
CONTINUOUS
 10
198.220001
 20
275.195007
 40
1.000000
 50
0.000000
 51
90.000000
  0
LINE
  8
0
  6
CONTINUOUS
 10
229.220001
 20
274.875000
 11
199.220001
 21
274.875000
  0
ARC
  8
0
  6
CONTINUOUS
 10
172.929825
 20
277.195007
 40
1.000000
 50
181.500000
 51
270.000000
  0
LINE
  8
0
  6
CONTINUOUS
 10
256.852295
 20
209.142639
 11
256.770996
 21
212.247360
  0
ARC
  8
0
  6
CONTINUOUS
 10
255.929138
 20
277.195007
 40
1.000000
 50
-90.000000
 51
1.499999
  0
ARC
  8
0
  6
CONTINUOUS
 10
258.233612
 20
284.695007
 40
1.500000
 50
181.500000
 51
270.000000
  0
ARC
  8
0
  6
CONTINUOUS
 10
258.851624
 20
209.195007
 40
2.000000
 50
181.500000
 51
270.000000
  0
ARC
  8
0
  6
CONTINUOUS
 10
254.771683
 20
212.195007
 40
2.000000
 50
1.500000
 51
90.000000
  0
ARC
  8
0
  6
CONTINUOUS
 10
254.771683
 20
216.195007
 40
2.000000
 50
270.000000
 51
358.500000
  0
LINE
  8
0
  6
CENTER
 10
182.220001
 20
289.085144
 11
182.220001
 21
271.944366
  0
LINE
  8
0
  6
DASHED
 10
178.970001
 20
276.195007
 11
178.970001
 21
285.195007
  0
LINE
  8
0
  6
DASHED
 10
185.470001
 20
276.195007
 11
185.470001
 21
285.195007
  0
LINE
  8
0
  6
CENTER
 10
246.220001
 20
289.085144
 11
246.220001
 21
271.944366
  0
LINE
  8
0
  6
DASHED
 10
249.470001
 20
276.195007
 11
249.470001
 21
285.195007
  0
LINE
  8
0
  6
DASHED
 10
242.970001
 20
276.195007
 11
242.970001
 21
285.195007
  0
LINE
  8
0
  6
CONTINUOUS
 10
329.220001
 20
207.195007
 11
329.220001
 21
220.195007
  0
LINE
  8
0
  6
CONTINUOUS
 10
329.220001
 20
207.195007
 11
345.755890
 21
207.195007
  0
LINE
  8
0
  6
CONTINUOUS
 10
349.220001
 20
210.195007
 11
349.220001
 21
280.195007
  0
LINE
  8
0
  6
CONTINUOUS
 10
329.220001
 20
283.195007
 11
345.755890
 21
283.195007
  0
LINE
  8
0
  6
CONTINUOUS
 10
338.220001
 20
268.195007
 11
347.638367
 21
268.195007
  0
LINE
  8
0
  6
CONTINUOUS
 10
338.220001
 20
222.195007
 11
347.638367
 21
222.195007
  0
LINE
  8
0
  6
CONTINUOUS
 10
348.353973
 20
208.695007
 11
349.220001
 21
210.195007
  0
ARC
  8
0
  6
CONTINUOUS
 10
345.755890
 20
210.195007
 40
3.000000
 50
270.000000
 51
330.000397
  0
LINE
  8
0
  6
CONTINUOUS
 10
348.353973
 20
281.695007
 11
349.220001
 21
280.195007
  0
ARC
  8
0
  6
CONTINUOUS
 10
345.755890
 20
280.195007
 40
3.000000
 50
29.999599
 51
90.000000
  0
LINE
  8
0
  6
CONTINUOUS
 10
349.720001
 20
213.195007
 11
349.720001
 21
277.195007
  0
LINE
  8
0
  6
CONTINUOUS
 10
349.720001
 20
213.195007
 11
349.220001
 21
212.695007
  0
LINE
  8
0
  6
CONTINUOUS
 10
349.720001
 20
277.195007
 11
349.220001
 21
277.695007
  0
LINE
  8
0
  6
CONTINUOUS
 10
329.220001
 20
270.195007
 11
329.220001
 21
283.195007
  0
LINE
  8
0
  6
CONTINUOUS
 10
339.220001
 20
237.695007
 11
338.220001
 21
237.695007
  0
ARC
  8
0
  6
CONTINUOUS
 10
339.219971
 20
238.695007
 40
1.000000
 50
-90.000000
 51
0.000000
  0
LINE
  8
0
  6
CONTINUOUS
 10
343.719971
 20
241.195007
 11
343.719971
 21
249.195007
  0
LINE
  8
0
  6
CONTINUOUS
 10
343.719971
 20
241.195007
 11
340.219971
 21
239.695007
  0
LINE
  8
0
  6
CONTINUOUS
 10
343.720001
 20
249.195007
 11
340.220001
 21
250.695007
  0
LINE
  8
0
  6
CONTINUOUS
 10
340.219971
 20
238.695007
 11
340.219971
 21
251.695007
  0
LINE
  8
0
  6
CONTINUOUS
 10
339.220001
 20
252.695007
 11
338.220001
 21
252.695007
  0
ARC
  8
0
  6
CONTINUOUS
 10
339.219971
 20
251.695007
 40
1.000000
 50
0.000000
 51
90.000000
  0
LINE
  8
0
  6
CONTINUOUS
 10
338.220001
 20
268.195007
 11
338.220001
 21
222.195007
  0
LINE
  8
0
  6
CONTINUOUS
 10
336.220001
 20
220.195007
 11
338.220001
 21
222.195007
  0
LINE
  8
0
  6
CONTINUOUS
 10
336.220001
 20
220.195007
 11
290.220001
 21
220.195007
  0
LINE
  8
0
  6
CONTINUOUS
 10
295.720001
 20
224.695007
 11
295.720001
 21
220.195007
  0
ARC
  8
0
  6
CONTINUOUS
 10
292.720001
 20
224.695007
 40
3.000000
 50
0.000000
 51
90.000000
  0
LINE
  8
0
  6
CONTINUOUS
 10
292.720001
 20
227.695007
 11
288.220001
 21
227.695007
  0
CIRCLE
  8
0
  6
CONTINUOUS
 10
291.720001
 20
223.695007
 40
2.250000
  0
LINE
  8
0
  6
CONTINUOUS
 10
288.220001
 20
268.195007
 11
288.220001
 21
222.195007
  0
LINE
  8
0
  6
CONTINUOUS
 10
290.220001
 20
220.195007
 11
288.220001
 21
222.195007
  0
LINE
  8
0
  6
CONTINUOUS
 10
290.220001
 20
270.195007
 11
288.220001
 21
268.195007
  0
LINE
  8
0
  6
CONTINUOUS
 10
290.220001
 20
270.195007
 11
336.220001
 21
270.195007
  0
LINE
  8
0
  6
CONTINUOUS
 10
338.220001
 20
268.195007
 11
336.220001
 21
270.195007
  0
LINE
  8
0
  6
CONTINUOUS
 10
333.720001
 20
262.695007
 11
338.220001
 21
262.695007
  0
CIRCLE
  8
0
  6
CONTINUOUS
 10
334.720001
 20
266.695007
 40
2.250000
  0
ARC
  8
0
  6
CONTINUOUS
 10
333.720001
 20
265.695007
 40
3.000000
 50
180.000000
 51
270.000000
  0
LINE
  8
0
  6
CONTINUOUS
 10
330.720001
 20
265.695007
 11
330.720001
 21
270.195007
  0
LINE
  8
0
  6
CENTER
 10
313.220001
 20
277.660767
 11
313.220001
 21
213.528748
  0
LINE
  8
0
  6
CONTINUOUS
 10
335.805786
 20
221.195007
 11
337.220001
 21
222.609207
  0
LINE
  8
0
  6
CONTINUOUS
 10
337.220001
 20
262.695007
 11
337.220001
 21
222.609207
  0
LINE
  8
0
  6
CONTINUOUS
 10
295.720001
 20
221.195007
 11
335.805786
 21
221.195007
  0
LINE
  8
0
  6
CONTINUOUS
 10
289.220001
 20
227.695007
 11
289.220001
 21
267.780792
  0
LINE
  8
0
  6
CONTINUOUS
 10
330.720001
 20
269.195007
 11
290.634216
 21
269.195007
  0
LINE
  8
0
  6
CONTINUOUS
 10
290.634216
 20
269.195007
 11
289.220001
 21
267.780792
  0
LINE
  8
0
  6
CENTER
 10
44.220001
 20
-1.985937
 11
44.220001
 21
126.594376
  0
LINE
  8
0
  6
CONTINUOUS
 10
4.220000
 20
6.001563
 11
4.220000
 21
108.001564
  0
LINE
  8
0
  6
CONTINUOUS
 10
75.220001
 20
13.949483
 11
75.220001
 21
100.036156
  0
LINE
  8
0
  6
CONTINUOUS
 10
79.220001
 20
51.001560
 11
79.220001
 21
89.001564
  0
LINE
  8
0
  6
CENTER
 10
-1.980001
 20
70.001564
 11
113.470001
 21
70.001564
  0
LINE
  8
0
  6
CONTINUOUS
 10
78.220001
 20
90.001564
 11
77.220016
 21
90.001564
  0
LINE
  8
0
  6
CONTINUOUS
 10
78.220001
 20
50.001560
 11
77.220016
 21
50.001560
  0
LINE
  8
0
  6
CONTINUOUS
 10
73.254890
 20
102.035866
 11
15.185110
 21
103.049240
  0
LINE
  8
0
  6
CONTINUOUS
 10
73.254913
 20
11.949793
 11
15.185080
 21
10.935983
  0
ARC
  8
0
  6
CONTINUOUS
 10
73.220009
 20
100.036156
 40
2.000000
 50
0.000000
 51
89.000359
  0
ARC
  8
0
  6
CONTINUOUS
 10
73.220001
 20
13.949483
 40
2.000000
 50
-88.999634
 51
0.000000
  0
ARC
  8
0
  6
CONTINUOUS
 10
78.220001
 20
89.001564
 40
1.000000
 50
0.000000
 51
90.000000
  0
ARC
  8
0
  6
CONTINUOUS
 10
78.220001
 20
51.001556
 40
1.000000
 50
-90.000000
 51
0.000000
  0
LINE
  8
0
  6
CONTINUOUS
 10
13.220000
 20
28.301573
 11
13.220000
 21
7.501563
  0
LINE
  8
0
  6
CONTINUOUS
 10
4.220000
 20
108.001564
 11
12.069010
 21
108.001564
  0
LINE
  8
0
  6
CONTINUOUS
 10
11.685340
 20
6.001563
 11
4.220000
 21
6.001563
  0
LINE
  8
0
  6
CONTINUOUS
 10
16.220020
 20
82.701561
 11
73.251251
 21
82.701561
  0
LINE
  8
0
  6
CONTINUOUS
 10
16.220011
 20
31.301563
 11
73.782501
 21
31.301563
  0
ARC
  8
0
  6
CONTINUOUS
 10
11.720000
 20
7.501563
 40
1.500000
 50
-90.000000
 51
0.000000
  0
LINE
  8
0
  6
CONTINUOUS
 10
13.517899
 20
106.889786
 11
13.957700
 21
105.248421
  0
ARC
  8
0
  6
CONTINUOUS
 10
16.853109
 20
106.020599
 40
3.000000
 50
194.932602
 51
269.000610
  0
ARC
  8
0
  6
CONTINUOUS
 10
12.069010
 20
106.501564
 40
1.500000
 50
15.000070
 51
90.000000
  0
ARC
  8
0
  6
CONTINUOUS
 10
16.219999
 20
85.701561
 40
3.000000
 50
180.000000
 51
270.000000
  0
ARC
  8
0
  6
CONTINUOUS
 10
16.220020
 20
28.301582
 40
3.000000
 50
90.000000
 51
180.000000
  0
ARC
  8
0
  6
CONTINUOUS
 10
77.220001
 20
92.001564
 40
2.000000
 50
180.000000
 51
270.000000
  0
ARC
  8
0
  6
CONTINUOUS
 10
77.220016
 20
48.001572
 40
2.000000
 50
90.000000
 51
180.000000
  0
LINE
  8
0
  6
CONTINUOUS
 10
81.220001
 20
77.501564
 11
108.220001
 21
77.501564
  0
LINE
  8
0
  6
CONTINUOUS
 10
81.220001
 20
62.501564
 11
108.220001
 21
62.501564
  0
LINE
  8
0
  6
CONTINUOUS
 10
108.220001
 20
62.501564
 11
108.220001
 21
77.501564
  0
LINE
  8
0
  6
CONTINUOUS
 10
81.220001
 20
78.501564
 11
81.220001
 21
61.501564
  0
LINE
  8
0
  6
CONTINUOUS
 10
86.720016
 20
67.501564
 11
108.220001
 21
67.501564
  0
LINE
  8
0
  6
CONTINUOUS
 10
86.720001
 20
72.501564
 11
108.220001
 21
72.501564
  0
ARC
  8
0
  6
CONTINUOUS
 10
86.720016
 20
70.001572
 40
2.500000
 50
90.000000
 51
180.000000
  0
ARC
  8
0
  6
CONTINUOUS
 10
86.720001
 20
70.001564
 40
2.500000
 50
180.000000
 51
270.000000
  0
LINE
  8
0
  6
CENTER
 10
0.501250
 20
100.001564
 11
16.751249
 21
100.001564
  0
LINE
  8
0
  6
CENTER
 10
1.501250
 20
14.001563
 11
16.501249
 21
14.001563
  0
LINE
  8
0
  6
DASHED
 10
4.220000
 20
17.251562
 11
13.220000
 21
17.251562
  0
LINE
  8
0
  6
DASHED
 10
4.220000
 20
10.751563
 11
13.220000
 21
10.751563
  0
LINE
  8
0
  6
DASHED
 10
4.220000
 20
103.251564
 11
13.220000
 21
103.251564
  0
LINE
  8
0
  6
DASHED
 10
4.220000
 20
96.751564
 11
13.220000
 21
96.751564
  0
LINE
  8
0
  6
CONTINUOUS
 10
23.219999
 20
9.701563
 11
65.220001
 21
9.701563
  0
ARC
  8
0
  6
CONTINUOUS
 10
65.220001
 20
11.701563
 40
2.000000
 50
-90.000000
 51
0.000000
  0
ARC
  8
0
  6
CONTINUOUS
 10
23.219999
 20
11.701563
 40
2.000000
 50
199.216995
 51
270.000000
  0
LINE
  8
0
  6
CONTINUOUS
 10
67.220001
 20
11.701563
 11
67.220001
 21
11.844343
  0
ARC
  8
0
  6
CONTINUOUS
 10
44.220001
 20
47.701561
 40
38.000000
 50
-35.334469
 51
21.294241
  0
LINE
  8
0
  6
CENTER
 10
-1.980001
 20
47.701561
 11
86.482498
 21
47.701561
  0
LINE
  8
0
  6
CONTINUOUS
 10
13.220000
 20
107.463440
 11
13.220000
 21
85.701546
  0
ARC
  8
0
  6
CONTINUOUS
 10
15.219990
 20
105.048943
 40
2.000000
 50
180.000000
 51
269.000610
  0
ARC
  8
0
  6
CONTINUOUS
 10
15.220010
 20
8.936303
 40
2.000000
 50
91.000587
 51
180.000000
  0
LINE
  8
0
  6
CONTINUOUS
 10
13.617200
 20
7.483923
 11
13.954039
 21
8.741063
  0
ARC
  8
0
  6
CONTINUOUS
 10
11.685340
 20
8.001563
 40
2.000000
 50
270.000000
 51
345.000092
  0
ARC
  8
0
  6
CONTINUOUS
 10
16.851830
 20
7.964633
 40
3.000000
 50
91.000488
 51
165.000305
  0
LINE
  8
0
  6
CONTINUOUS
 10
79.220001
 20
78.501564
 11
81.220001
 21
78.501564
  0
LINE
  8
0
  6
CONTINUOUS
 10
79.220001
 20
61.501564
 11
81.220001
 21
61.501564
  0
LINE
  8
0
  6
CONTINUOUS
 10
329.220001
 20
9.701563
 11
329.220001
 21
85.701561
  0
LINE
  8
0
  6
CENTER
 10
358.407196
 20
47.701565
 11
236.915939
 21
47.701565
  0
LINE
  8
0
  6
CONTINUOUS
 10
329.220001
 20
85.701561
 11
252.445389
 21
85.701561
  0
LINE
  8
0
  6
CONTINUOUS
 10
258.720001
 20
9.701563
 11
329.220001
 21
9.701563
  0
LINE
  8
0
  6
CONTINUOUS
 10
246.220001
 20
6.001563
 11
182.220001
 21
6.001563
  0
LINE
  8
0
  6
CONTINUOUS
 10
246.220001
 20
108.001564
 11
182.220001
 21
108.001564
  0
LINE
  8
0
  6
CONTINUOUS
 10
256.720001
 20
82.701561
 11
256.720001
 21
17.701572
  0
LINE
  8
0
  6
CENTER
 10
214.220001
 20
117.040001
 11
214.220001
 21
-3.235937
  0
LINE
  8
0
  6
CENTER
 10
182.220001
 20
20.139063
 11
182.220001
 21
8.639063
  0
LINE
  8
0
  6
CENTER
 10
188.063705
 20
14.001563
 11
175.813705
 21
14.001563
  0
CIRCLE
  8
0
  6
CONTINUOUS
 10
182.220001
 20
14.001563
 40
3.250000
  0
LINE
  8
0
  6
CENTER
 10
182.220001
 20
93.864059
 11
182.220001
 21
105.364059
  0
CIRCLE
  8
0
  6
CONTINUOUS
 10
182.220001
 20
100.001564
 40
3.250000
  0
LINE
  8
0
  6
CENTER
 10
246.220001
 20
93.864059
 11
246.220001
 21
105.364059
  0
LINE
  8
0
  6
CENTER
 10
240.376297
 20
100.001564
 11
252.626297
 21
100.001564
  0
CIRCLE
  8
0
  6
CONTINUOUS
 10
246.220001
 20
100.001564
 40
3.250000
  0
LINE
  8
0
  6
CENTER
 10
246.220001
 20
20.139063
 11
246.220001
 21
8.639063
  0
LINE
  8
0
  6
CENTER
 10
240.376297
 20
14.001563
 11
252.626297
 21
14.001563
  0
CIRCLE
  8
0
  6
CONTINUOUS
 10
246.220001
 20
14.001563
 40
3.250000
  0
LINE
  8
0
  6
CONTINUOUS
 10
171.720001
 20
82.701561
 11
171.720001
 21
31.301573
  0
LINE
  8
0
  6
CONTINUOUS
 10
174.297302
 20
101.110725
 11
171.720001
 21
82.701561
  0
LINE
  8
0
  6
CONTINUOUS
 10
174.297302
 20
12.892443
 11
171.720001
 21
31.301573
  0
LINE
  8
0
  6
CONTINUOUS
 10
254.142700
 20
12.892363
 11
255.304092
 21
21.187862
  0
LINE
  8
0
  6
CONTINUOUS
 10
254.142700
 20
101.110710
 11
256.299988
 21
85.701561
  0
LINE
  8
0
  6
CENTER
 10
246.097504
 20
70.001564
 11
180.785004
 21
70.001564
  0
LINE
  8
0
  6
CONTINUOUS
 10
204.720001
 20
72.501564
 11
204.720001
 21
67.501564
  0
LINE
  8
0
  6
CONTINUOUS
 10
209.720001
 20
67.501564
 11
209.720001
 21
72.501564
  0
LINE
  8
0
  6
CONTINUOUS
 10
209.720001
 20
72.501564
 11
204.720001
 21
72.501564
  0
LINE
  8
0
  6
CONTINUOUS
 10
209.720001
 20
67.501564
 11
204.720001
 21
67.501564
  0
ARC
  8
0
  6
CONTINUOUS
 10
214.220001
 20
70.001564
 40
7.500000
 50
-160.528793
 51
160.528793
  0
ARC
  8
0
  6
CONTINUOUS
 10
182.220001
 20
100.001564
 40
8.000000
 50
90.000000
 51
172.030304
  0
ARC
  8
0
  6
CONTINUOUS
 10
246.220001
 20
100.001564
 40
8.000000
 50
7.969498
 51
90.000000
  0
ARC
  8
0
  6
CONTINUOUS
 10
246.220001
 20
14.001563
 40
8.000000
 50
-90.000000
 51
-7.969604
  0
ARC
  8
0
  6
CONTINUOUS
 10
182.220001
 20
14.001563
 40
8.000000
 50
-172.030304
 51
-90.000000
  0
LINE
  8
0
  6
CONTINUOUS
 10
256.720001
 20
11.701563
 11
256.720001
 21
17.701572
  0
ARC
  8
0
  6
CONTINUOUS
 10
258.720001
 20
11.701563
 40
2.000000
 50
180.000000
 51
270.000000
  0
ARC
  8
0
  6
CONTINUOUS
 10
251.720001
 20
17.701584
 40
5.000000
 50
0.000000
 51
90.000000
  0
LINE
  8
0
  6
CONTINUOUS
 10
329.220001
 20
77.950531
 11
257.470001
 21
77.950531
  0
LINE
  8
0
  6
CONTINUOUS
 10
329.220001
 20
17.452602
 11
257.220001
 21
17.452602
  0
LINE
  8
0
  6
CONTINUOUS
 10
200.799500
 20
102.001564
 11
227.640503
 21
102.001564
  0
LINE
  8
0
  6
CONTINUOUS
 10
227.640503
 20
12.001563
 11
200.799500
 21
12.001563
  0
LINE
  8
0
  6
CONTINUOUS
 10
230.512802
 20
101.094223
 11
256.720001
 21
82.701561
  0
LINE
  8
0
  6
CONTINUOUS
 10
197.927200
 20
101.094223
 11
171.720001
 21
82.701561
  0
LINE
  8
0
  6
CONTINUOUS
 10
197.927200
 20
12.908903
 11
171.720001
 21
31.301573
  0
LINE
  8
0
  6
CONTINUOUS
 10
243.173294
 20
21.794224
 11
230.512802
 21
12.908903
  0
LINE
  8
0
  6
CONTINUOUS
 10
246.045593
 20
22.701563
 11
251.720001
 21
22.701563
  0
ARC
  8
0
  6
CONTINUOUS
 10
227.640594
 20
97.001564
 40
5.000000
 50
54.938221
 51
90.000000
  0
ARC
  8
0
  6
CONTINUOUS
 10
200.799500
 20
97.001572
 40
5.000000
 50
90.000000
 51
125.062103
  0
ARC
  8
0
  6
CONTINUOUS
 10
200.799500
 20
17.001562
 40
5.000000
 50
234.938095
 51
270.000000
  0
ARC
  8
0
  6
CONTINUOUS
 10
227.640503
 20
17.001562
 40
5.000000
 50
270.000000
 51
305.061890
  0
ARC
  8
0
  6
CONTINUOUS
 10
246.045593
 20
17.701572
 40
5.000000
 50
90.000000
 51
125.062103
  0
CIRCLE
  8
0
  6
CONTINUOUS
 10
214.220001
 20
70.001564
 40
20.000000
  0
LINE
  8
0
  6
CENTER
 10
176.907501
 20
100.001564
 11
187.595001
 21
100.001564
  0
LINE
  8
0
  6
CONTINUOUS
 10
205.853806
 20
34.001564
 11
202.388199
 21
34.001564
  0
LINE
  8
0
  6
CONTINUOUS
 10
207.766693
 20
39.806522
 11
207.766693
 21
34.001564
  0
LINE
  8
0
  6
CONTINUOUS
 10
211.098694
 20
41.915058
 11
211.098694
 21
43.997547
  0
LINE
  8
0
  6
CONTINUOUS
 10
217.762695
 20
41.915058
 11
217.762695
 21
43.997547
  0
LINE
  8
0
  6
CONTINUOUS
 10
213.779907
 20
42.774082
 11
213.779907
 21
35.094872
  0
LINE
  8
0
  6
CONTINUOUS
 10
215.029404
 20
42.774082
 11
215.029404
 21
35.094872
  0
LINE
  8
0
  6
CONTINUOUS
 10
221.589294
 20
42.774082
 11
221.589294
 21
35.042805
  0
LINE
  8
0
  6
CONTINUOUS
 10
222.734695
 20
38.674171
 11
222.734695
 21
35.042805
  0
LINE
  8
0
  6
CONTINUOUS
 10
206.185593
 20
42.669956
 11
202.974503
 21
42.669956
  0
LINE
  8
0
  6
CONTINUOUS
 10
203.471603
 20
35.172962
 11
202.986496
 21
35.172962
  0
LINE
  8
0
  6
CONTINUOUS
 10
202.974503
 20
42.669956
 11
202.222107
 21
41.737003
  0
LINE
  8
0
  6
CONTINUOUS
 10
202.312607
 20
43.997547
 11
201.102707
 21
42.448383
  0
LINE
  8
0
  6
CONTINUOUS
 10
202.222107
 20
35.978184
 11
202.986496
 21
35.172962
  0
LINE
  8
0
  6
CONTINUOUS
 10
201.102707
 20
35.298664
 11
202.388199
 21
34.001564
  0
LINE
  8
0
  6
CONTINUOUS
 10
201.102707
 20
42.448383
 11
201.102707
 21
35.298664
  0
LINE
  8
0
  6
CONTINUOUS
 10
202.222107
 20
41.737003
 11
202.222107
 21
35.978184
  0
LINE
  8
0
  6
CONTINUOUS
 10
206.803604
 20
42.072620
 11
206.173004
 21
42.669956
  0
LINE
  8
0
  6
CONTINUOUS
 10
206.793594
 20
43.997547
 11
207.766693
 21
42.917580
  0
LINE
  8
0
  6
CONTINUOUS
 10
206.803604
 20
41.915058
 11
207.766693
 21
41.915058
  0
LINE
  8
0
  6
CONTINUOUS
 10
202.312607
 20
43.997547
 11
206.793594
 21
43.997547
  0
LINE
  8
0
  6
CONTINUOUS
 10
205.059494
 20
39.806522
 11
207.766693
 21
39.806522
  0
LINE
  8
0
  6
CONTINUOUS
 10
206.803604
 20
38.713219
 11
205.059494
 21
38.713219
  0
LINE
  8
0
  6
CONTINUOUS
 10
204.304596
 20
35.172962
 11
203.471603
 21
35.172962
  0
LINE
  8
0
  6
CONTINUOUS
 10
206.803604
 20
37.671974
 11
206.803604
 21
38.504967
  0
LINE
  8
0
  6
CONTINUOUS
 10
204.721100
 20
35.172962
 11
204.304596
 21
35.172962
  0
LINE
  8
0
  6
CONTINUOUS
 10
206.803604
 20
37.255474
 11
206.803604
 21
37.671974
  0
LINE
  8
0
  6
CONTINUOUS
 10
206.803604
 20
37.200153
 11
206.803604
 21
37.255474
  0
ARC
  8
0
  6
CONTINUOUS
 10
204.721100
 20
37.255474
 40
2.082500
 50
-89.999786
 51
0.000109
  0
LINE
  8
0
  6
CONTINUOUS
 10
206.803604
 20
34.798393
 11
206.803604
 21
34.001564
  0
LINE
  8
0
  6
CONTINUOUS
 10
207.766693
 20
42.917580
 11
207.766693
 21
41.915058
  0
LINE
  8
0
  6
CONTINUOUS
 10
206.803604
 20
38.713219
 11
206.803604
 21
37.255474
  0
LINE
  8
0
  6
CONTINUOUS
 10
205.059494
 20
39.806522
 11
205.059494
 21
38.713219
  0
LINE
  8
0
  6
CONTINUOUS
 10
206.803604
 20
38.504967
 11
206.803604
 21
38.713219
  0
LINE
  8
0
  6
CONTINUOUS
 10
206.803604
 20
34.001564
 11
207.766693
 21
34.001564
  0
LINE
  8
0
  6
CONTINUOUS
 10
206.803604
 20
34.798393
 11
205.853806
 21
34.001564
  0
LINE
  8
0
  6
CONTINUOUS
 10
215.029404
 20
35.094872
 11
215.445908
 21
35.094872
  0
LINE
  8
0
  6
CONTINUOUS
 10
213.285294
 20
35.094872
 11
213.285294
 21
34.001564
  0
LINE
  8
0
  6
CONTINUOUS
 10
215.445908
 20
35.094872
 11
215.445908
 21
34.001564
  0
LINE
  8
0
  6
CONTINUOUS
 10
217.067596
 20
41.915058
 11
217.762695
 21
41.915058
  0
LINE
  8
0
  6
CONTINUOUS
 10
211.098694
 20
41.915058
 11
211.838394
 21
41.915058
  0
LINE
  8
0
  6
CONTINUOUS
 10
211.098694
 20
43.997547
 11
217.762695
 21
43.997547
  0
LINE
  8
0
  6
CONTINUOUS
 10
213.285294
 20
34.001564
 11
215.445908
 21
34.001564
  0
LINE
  8
0
  6
CONTINUOUS
 10
213.285294
 20
35.094872
 11
213.779907
 21
35.094872
  0
ARC
  8
0
  6
CONTINUOUS
 10
225.090500
 20
41.329353
 40
2.668203
 50
-73.981873
 51
90.003510
  0
ARC
  8
0
  6
CONTINUOUS
 10
225.090500
 20
41.329353
 40
1.627786
 50
-82.585274
 51
62.411850
  0
LINE
  8
0
  6
CONTINUOUS
 10
221.094696
 20
43.997547
 11
225.090500
 21
43.997547
  0
LINE
  8
0
  6
CONTINUOUS
 10
225.300598
 20
39.715172
 11
222.734695
 21
39.715172
  0
LINE
  8
0
  6
CONTINUOUS
 10
221.094696
 20
43.997547
 11
221.094696
 21
42.774082
  0
LINE
  8
0
  6
CONTINUOUS
 10
222.734695
 20
42.774082
 11
222.734695
 21
39.715172
  0
LINE
  8
0
  6
CONTINUOUS
 10
225.826797
 20
38.764748
 11
227.478195
 21
35.042805
  0
LINE
  8
0
  6
CONTINUOUS
 10
224.867599
 20
38.674171
 11
226.430496
 21
35.042805
  0
LINE
  8
0
  6
CONTINUOUS
 10
221.094696
 20
35.042805
 11
221.589294
 21
35.042805
  0
LINE
  8
0
  6
CONTINUOUS
 10
222.734695
 20
35.042805
 11
223.190201
 21
35.042805
  0
LINE
  8
0
  6
CONTINUOUS
 10
223.190201
 20
34.001564
 11
221.094696
 21
34.001564
  0
LINE
  8
0
  6
CONTINUOUS
 10
226.222900
 20
35.042805
 11
226.430496
 21
35.042805
  0
LINE
  8
0
  6
CONTINUOUS
 10
227.478195
 20
35.042805
 11
227.758698
 21
35.042805
  0
LINE
  8
0
  6
CONTINUOUS
 10
226.222900
 20
34.001564
 11
227.758698
 21
34.001564
  0
LINE
  8
0
  6
CONTINUOUS
 10
227.758698
 20
35.042805
 11
227.758698
 21
34.001564
  0
LINE
  8
0
  6
CONTINUOUS
 10
226.222900
 20
35.042805
 11
226.222900
 21
34.001564
  0
LINE
  8
0
  6
CONTINUOUS
 10
223.190201
 20
35.042805
 11
223.190201
 21
34.001564
  0
LINE
  8
0
  6
CONTINUOUS
 10
221.094696
 20
35.042805
 11
221.094696
 21
34.001564
  0
LINE
  8
0
  6
CONTINUOUS
 10
212.196396
 20
42.774082
 11
211.838394
 21
41.915058
  0
LINE
  8
0
  6
CONTINUOUS
 10
216.765793
 20
42.774082
 11
217.067596
 21
41.915058
  0
LINE
  8
0
  6
CONTINUOUS
 10
215.029404
 20
42.774082
 11
216.765793
 21
42.774082
  0
LINE
  8
0
  6
CONTINUOUS
 10
213.779907
 20
42.774082
 11
212.196396
 21
42.774082
  0
LINE
  8
0
  6
CONTINUOUS
 10
222.734695
 20
38.674171
 11
224.867599
 21
38.674171
  0
LINE
  8
0
  6
CONTINUOUS
 10
221.094696
 20
42.774082
 11
221.589294
 21
42.774082
  0
LINE
  8
0
  6
CONTINUOUS
 10
222.734695
 20
42.774082
 11
225.844406
 21
42.772072
  0
LINE
  8
0
  6
CONTINUOUS
 10
206.803604
 20
42.072620
 11
206.803604
 21
41.915058
  0
LINE
  8
0
  6
CONTINUOUS
 10
349.720001
 20
15.701563
 11
349.720001
 21
79.701561
  0
LINE
  8
0
  6
CONTINUOUS
 10
345.755890
 20
85.701561
 11
329.220001
 21
85.701561
  0
LINE
  8
0
  6
CONTINUOUS
 10
345.755890
 20
9.701563
 11
329.220001
 21
9.701563
  0
LINE
  8
0
  6
CONTINUOUS
 10
349.220001
 20
12.701563
 11
349.220001
 21
82.701561
  0
LINE
  8
0
  6
CONTINUOUS
 10
349.720001
 20
79.701561
 11
349.220001
 21
80.201561
  0
LINE
  8
0
  6
CONTINUOUS
 10
349.720001
 20
15.701563
 11
349.220001
 21
15.201563
  0
LINE
  8
0
  6
CONTINUOUS
 10
348.354004
 20
84.201553
 11
349.220001
 21
82.701561
  0
ARC
  8
0
  6
CONTINUOUS
 10
345.755890
 20
82.701576
 40
3.000000
 50
29.999599
 51
90.000000
  0
LINE
  8
0
  6
CONTINUOUS
 10
348.354004
 20
11.201573
 11
349.220001
 21
12.701563
  0
ARC
  8
0
  6
CONTINUOUS
 10
345.755890
 20
12.701553
 40
3.000000
 50
270.000000
 51
330.000397
  0
LINE
  8
0
  6
CONTINUOUS
 10
347.638397
 20
77.950562
 11
329.220001
 21
77.950562
  0
LINE
  8
0
  6
CONTINUOUS
 10
329.220001
 20
17.452562
 11
347.638397
 21
17.452562
  0
LINE
  8
0
  6
CONTINUOUS
 10
336.720001
 20
87.201561
 11
290.220001
 21
87.201561
  0
LINE
  8
0
  6
CONTINUOUS
 10
288.220001
 20
117.201561
 11
288.220001
 21
89.201561
  0
LINE
  8
0
  6
CONTINUOUS
 10
338.220001
 20
117.201561
 11
338.220001
 21
89.201561
  0
LINE
  8
0
  6
CONTINUOUS
 10
340.220001
 20
99.201561
 11
288.220001
 21
99.201561
  0
LINE
  8
0
  6
CONTINUOUS
 10
290.220001
 20
87.201561
 11
288.220001
 21
89.201561
  0
LINE
  8
0
  6
CONTINUOUS
 10
338.220001
 20
89.201561
 11
336.220001
 21
87.201561
  0
LINE
  8
0
  6
CONTINUOUS
 10
338.220001
 20
89.201561
 11
288.220001
 21
89.201561
  0
LINE
  8
0
  6
CONTINUOUS
 10
337.220001
 20
118.201561
 11
289.220001
 21
118.201561
  0
LINE
  8
0
  6
CONTINUOUS
 10
289.220001
 20
118.201561
 11
288.220001
 21
117.201561
  0
LINE
  8
0
  6
CONTINUOUS
 10
337.220001
 20
118.201561
 11
338.220001
 21
117.201561
  0
LINE
  8
0
  6
CONTINUOUS
 10
338.220001
 20
117.201561
 11
288.220001
 21
117.201561
  0
LINE
  8
0
  6
CENTER
 10
346.163788
 20
108.701561
 11
334.088715
 21
108.701561
  0
LINE
  8
0
  6
CONTINUOUS
 10
340.220001
 20
115.201561
 11
340.220001
 21
99.201561
  0
LINE
  8
0
  6
CONTINUOUS
 10
339.220001
 20
116.201561
 11
338.220001
 21
116.201561
  0
ARC
  8
0
  6
CONTINUOUS
 10
339.220001
 20
115.201561
 40
1.000000
 50
0.000000
 51
90.000000
  0
LINE
  8
0
  6
CONTINUOUS
 10
343.720001
 20
112.701561
 11
343.720001
 21
104.701561
  0
LINE
  8
0
  6
CONTINUOUS
 10
343.720001
 20
112.701561
 11
340.220001
 21
114.201561
  0
LINE
  8
0
  6
CONTINUOUS
 10
343.720001
 20
104.701561
 11
340.220001
 21
103.201561
  0
LINE
  8
0
  6
CENTER
 10
313.220001
 20
82.507805
 11
313.220001
 21
126.960312
  0
LINE
  8
0
  6
CONTINUOUS
 10
336.720001
 20
87.201561
 11
336.720001
 21
85.701561
  0
LINE
  8
0
  6
CONTINUOUS
 10
290.720001
 20
87.201561
 11
290.720001
 21
85.701561
  0
LINE
  8
0
  6
CONTINUOUS
 10
69.219994
 20
117.201584
 11
69.220001
 21
102.106285
  0
LINE
  8
0
  6
CONTINUOUS
 10
19.219999
 20
117.201584
 11
19.219999
 21
102.978836
  0
LINE
  8
0
  6
CONTINUOUS
 10
20.219999
 20
118.201584
 11
68.219994
 21
118.201584
  0
LINE
  8
0
  6
CONTINUOUS
 10
68.219994
 20
118.201584
 11
69.219994
 21
117.201584
  0
LINE
  8
0
  6
CONTINUOUS
 10
20.219999
 20
118.201584
 11
19.219999
 21
117.201584
  0
LINE
  8
0
  6
CONTINUOUS
 10
19.219999
 20
117.201584
 11
69.219994
 21
117.201584
  0
TEXT
  8
0
 10
-68.000000
 20
-3.000000
 40
4.000000
 41
1.000000
  1
HFM-15L-10~240-S25T
 50
0.000000
  0
ENDSEC
  0
EOF
