  0
SECTION
  2
HEADER
  9
$CLAYER
  8
1
  9
$LTSCALE
 40
3.0
  0
ENDSEC
  0
SECTION
  2
TABLES
  0
TABLE
  2
LTYPE
 70
     4
  0
LTYPE
  2
CONTINUOUS
  3
solid line
 70
    64
 72
    65
 73
     0
 40
0.0
  0
LTYPE
  2
DASHED
  3
__ __ __ __ __ __ __ __ __ __ __ __ __ __ __
 70
    64
 72
    65
 73
     2
 40
0.75
 49
0.5
 49
-0.25
  0
LTYPE
  2
CENTER
  3
____ _ ____ _ ____ _ ____ _ ____ _ ____ _ ____
 70
    64
 72
    65
 73
     4
 40
2.0
 49
1.25
 49
-0.25
 49
0.25
 49
-0.25
  0
LTYPE
  2
PHANTOM
  3
_____ _ _ _____ _ _ _____ _ _ _____ _ _ ____
 70
    64
 72
    65
 73
     6
 40
2.5
 49
1.25
 49
-0.25
 49
0.25
 49
-0.25
 49
0.25
 49
-0.25
  0
ENDTAB
  0
TABLE
  2
LAYER
 70
     1
  0
LAYER
  2
0
 70
    64
 62
     7
  6
CONTINUOUS
  0
ENDTAB
  0
TABLE
  2
STYLE
 70
     1
  0
STYLE
  2
STANDARD
 70
     0
 40
0.000000
 41
1.000000
 50
0.000000
 71
     0
 42
3.000000
  3
txt
  4
BIGFONT
  0
ENDTAB
  0
ENDSEC
  0
SECTION
  2
BLOCKS
  0
ENDSEC
  0
SECTION
  2
ENTITIES
  0
LINE
  8
0
  6
CENTER
 10
216.759995
 20
190.354996
 11
216.759995
 21
311.388763
  0
LINE
  8
0
  6
CENTER
 10
400.110626
 20
258.855011
 11
168.259995
 21
258.855011
  0
LINE
  8
0
  6
CONTINUOUS
 10
178.067520
 20
227.854996
 11
257.311676
 21
227.854996
  0
LINE
  8
0
  6
CONTINUOUS
 10
341.260010
 20
220.854996
 11
331.760010
 21
220.854996
  0
LINE
  8
0
  6
CONTINUOUS
 10
341.260010
 20
296.855011
 11
331.760010
 21
296.855011
  0
LINE
  8
0
  6
CONTINUOUS
 10
341.260010
 20
235.854996
 11
340.760010
 21
235.854996
  0
LINE
  8
0
  6
CONTINUOUS
 10
331.760010
 20
296.855011
 11
331.760010
 21
283.855011
  0
LINE
  8
0
  6
CONTINUOUS
 10
341.260010
 20
281.855011
 11
340.760010
 21
281.855011
  0
LINE
  8
0
  6
CONTINUOUS
 10
261.391602
 20
220.854996
 11
331.760010
 21
220.854996
  0
LINE
  8
0
  6
CONTINUOUS
 10
290.760010
 20
235.854996
 11
255.840317
 21
235.854996
  0
LINE
  8
0
  6
CONTINUOUS
 10
258.469147
 20
289.855011
 11
175.469833
 21
289.855011
  0
LINE
  8
0
  6
CONTINUOUS
 10
260.773621
 20
296.855011
 11
331.760010
 21
296.855011
  0
LINE
  8
0
  6
CONTINUOUS
 10
290.760010
 20
281.855011
 11
259.705170
 21
281.855011
  0
LINE
  8
0
  6
CONTINUOUS
 10
236.759995
 20
224.854996
 11
236.759995
 21
227.854996
  0
LINE
  8
0
  6
CONTINUOUS
 10
196.759995
 20
224.854996
 11
196.759995
 21
227.854996
  0
LINE
  8
0
  6
CONTINUOUS
 10
197.759995
 20
223.854996
 11
235.759995
 21
223.854996
  0
ARC
  8
0
  6
CONTINUOUS
 10
235.759995
 20
224.854996
 40
1.000000
 50
-90.000000
 51
0.000000
  0
ARC
  8
0
  6
CONTINUOUS
 10
197.759995
 20
224.854996
 40
1.000000
 50
180.000000
 51
270.000000
  0
LINE
  8
0
  6
CONTINUOUS
 10
224.259995
 20
194.854996
 11
224.259995
 21
221.854996
  0
LINE
  8
0
  6
CONTINUOUS
 10
224.259995
 20
194.854996
 11
207.259995
 21
194.854996
  0
LINE
  8
0
  6
CONTINUOUS
 10
225.259995
 20
221.854996
 11
208.259995
 21
221.854996
  0
LINE
  8
0
  6
CONTINUOUS
 10
225.259995
 20
221.854996
 11
225.259995
 21
223.854996
  0
LINE
  8
0
  6
CONTINUOUS
 10
208.259995
 20
221.854996
 11
208.259995
 21
223.854996
  0
LINE
  8
0
  6
CONTINUOUS
 10
207.259995
 20
218.854996
 11
207.259995
 21
194.854996
  0
LINE
  8
0
  6
CONTINUOUS
 10
209.688995
 20
218.854996
 11
209.688995
 21
194.854996
  0
LINE
  8
0
  6
CONTINUOUS
 10
209.688995
 20
218.854996
 11
207.259995
 21
218.854996
  0
LINE
  8
0
  6
CONTINUOUS
 10
209.259995
 20
218.854996
 11
209.259995
 21
221.854996
  0
LINE
  8
0
  6
CONTINUOUS
 10
201.759995
 20
288.855011
 11
201.759995
 21
229.820099
  0
LINE
  8
0
  6
CONTINUOUS
 10
231.759995
 20
288.855011
 11
231.759995
 21
229.820099
  0
LINE
  8
0
  6
CONTINUOUS
 10
259.469421
 20
235.852264
 11
259.311005
 21
229.802643
  0
LINE
  8
0
  6
CONTINUOUS
 10
254.985382
 20
288.673737
 11
254.985382
 21
237.854721
  0
LINE
  8
0
  6
CONTINUOUS
 10
331.760010
 20
233.854996
 11
331.760010
 21
220.854996
  0
LINE
  8
0
  6
CONTINUOUS
 10
259.260010
 20
298.855011
 11
174.259995
 21
298.855011
  0
LINE
  8
0
  6
CONTINUOUS
 10
176.068207
 20
229.802643
 11
174.259995
 21
298.855011
  0
ARC
  8
0
  6
CONTINUOUS
 10
178.067520
 20
229.854996
 40
2.000000
 50
181.500000
 51
270.000000
  0
LINE
  8
0
  6
CONTINUOUS
 10
260.307434
 20
258.855011
 11
259.260010
 21
298.855011
  0
LINE
  8
0
  6
CONTINUOUS
 10
176.837296
 20
298.855011
 11
176.837296
 21
291.165314
  0
LINE
  8
0
  6
CONTINUOUS
 10
256.682709
 20
298.855011
 11
256.682709
 21
291.165314
  0
ARC
  8
0
  6
CONTINUOUS
 10
232.759995
 20
288.855011
 40
1.000000
 50
90.000000
 51
180.000000
  0
ARC
  8
0
  6
CONTINUOUS
 10
200.759995
 20
288.855011
 40
1.000000
 50
0.000000
 51
90.000000
  0
LINE
  8
0
  6
CONTINUOUS
 10
231.759995
 20
288.535004
 11
201.759995
 21
288.535004
  0
ARC
  8
0
  6
CONTINUOUS
 10
175.469833
 20
290.855011
 40
1.000000
 50
181.500000
 51
270.000000
  0
LINE
  8
0
  6
CONTINUOUS
 10
259.392303
 20
222.802643
 11
259.311005
 21
225.907349
  0
ARC
  8
0
  6
CONTINUOUS
 10
258.469147
 20
290.855011
 40
1.000000
 50
-90.000000
 51
1.499999
  0
ARC
  8
0
  6
CONTINUOUS
 10
260.773621
 20
298.355011
 40
1.500000
 50
181.500000
 51
270.000000
  0
ARC
  8
0
  6
CONTINUOUS
 10
261.391602
 20
222.854996
 40
2.000000
 50
181.500000
 51
270.000000
  0
ARC
  8
0
  6
CONTINUOUS
 10
257.311676
 20
225.854996
 40
2.000000
 50
1.500000
 51
90.000000
  0
ARC
  8
0
  6
CONTINUOUS
 10
257.311676
 20
229.854996
 40
2.000000
 50
270.000000
 51
358.500000
  0
LINE
  8
0
  6
CENTER
 10
184.759995
 20
302.745148
 11
184.759995
 21
285.604370
  0
LINE
  8
0
  6
DASHED
 10
181.509995
 20
289.855011
 11
181.509995
 21
298.855011
  0
LINE
  8
0
  6
DASHED
 10
188.009995
 20
289.855011
 11
188.009995
 21
298.855011
  0
LINE
  8
0
  6
CENTER
 10
248.759995
 20
302.745148
 11
248.759995
 21
285.604370
  0
LINE
  8
0
  6
DASHED
 10
252.009995
 20
289.855011
 11
252.009995
 21
298.855011
  0
LINE
  8
0
  6
DASHED
 10
245.509995
 20
289.855011
 11
245.509995
 21
298.855011
  0
LINE
  8
0
  6
CONTINUOUS
 10
341.260010
 20
298.855011
 11
341.260010
 21
258.855011
  0
LINE
  8
0
  6
CONTINUOUS
 10
385.260010
 20
218.854996
 11
341.260010
 21
218.854996
  0
LINE
  8
0
  6
CONTINUOUS
 10
385.260010
 20
298.855011
 11
341.260010
 21
298.855011
  0
LINE
  8
0
  6
CONTINUOUS
 10
390.260010
 20
293.855011
 11
390.260010
 21
223.854996
  0
ARC
  8
0
  6
CONTINUOUS
 10
385.259979
 20
223.854980
 40
5.000000
 50
-90.000000
 51
0.000000
  0
ARC
  8
0
  6
CONTINUOUS
 10
385.260010
 20
293.855011
 40
5.000000
 50
0.000000
 51
90.000000
  0
LINE
  8
0
  6
CONTINUOUS
 10
387.760010
 20
284.855011
 11
341.260010
 21
284.855011
  0
LINE
  8
0
  6
CONTINUOUS
 10
387.760010
 20
234.854996
 11
341.260010
 21
234.854996
  0
LINE
  8
0
  6
CONTINUOUS
 10
341.260010
 20
258.855011
 11
341.260010
 21
218.854996
  0
LINE
  8
0
  6
CENTER
 10
46.759998
 20
3.972500
 11
46.759998
 21
144.601868
  0
LINE
  8
0
  6
CONTINUOUS
 10
6.760000
 20
11.960000
 11
6.760000
 21
113.959999
  0
LINE
  8
0
  6
CONTINUOUS
 10
77.760002
 20
19.907921
 11
77.760002
 21
105.994591
  0
LINE
  8
0
  6
CONTINUOUS
 10
81.760002
 20
56.959995
 11
81.760002
 21
94.959999
  0
LINE
  8
0
  6
CENTER
 10
0.559999
 20
75.959999
 11
116.010002
 21
75.959999
  0
LINE
  8
0
  6
CONTINUOUS
 10
80.760002
 20
95.959999
 11
79.760017
 21
95.959999
  0
LINE
  8
0
  6
CONTINUOUS
 10
80.760002
 20
55.959995
 11
79.760017
 21
55.959995
  0
LINE
  8
0
  6
CONTINUOUS
 10
75.794891
 20
107.994301
 11
17.725121
 21
109.007683
  0
LINE
  8
0
  6
CONTINUOUS
 10
75.794907
 20
17.908230
 11
17.725080
 21
16.894409
  0
ARC
  8
0
  6
CONTINUOUS
 10
75.760010
 20
105.994591
 40
2.000000
 50
0.000000
 51
89.000359
  0
ARC
  8
0
  6
CONTINUOUS
 10
75.760002
 20
19.907921
 40
2.000000
 50
-88.999634
 51
0.000000
  0
ARC
  8
0
  6
CONTINUOUS
 10
80.760002
 20
94.959999
 40
1.000000
 50
0.000000
 51
90.000000
  0
ARC
  8
0
  6
CONTINUOUS
 10
80.760002
 20
56.959995
 40
1.000000
 50
-90.000000
 51
0.000000
  0
LINE
  8
0
  6
CONTINUOUS
 10
15.760000
 20
34.260010
 11
15.760000
 21
13.460000
  0
LINE
  8
0
  6
CONTINUOUS
 10
6.760000
 20
113.959999
 11
14.609010
 21
113.959999
  0
LINE
  8
0
  6
CONTINUOUS
 10
14.225351
 20
11.960000
 11
6.760000
 21
11.960000
  0
LINE
  8
0
  6
CONTINUOUS
 10
18.760019
 20
88.660004
 11
75.791252
 21
88.660004
  0
LINE
  8
0
  6
CONTINUOUS
 10
18.760010
 20
37.259998
 11
76.322502
 21
37.259998
  0
ARC
  8
0
  6
CONTINUOUS
 10
14.260000
 20
13.460000
 40
1.500000
 50
-90.000000
 51
0.000000
  0
LINE
  8
0
  6
CONTINUOUS
 10
16.057899
 20
112.848221
 11
16.497700
 21
111.206863
  0
ARC
  8
0
  6
CONTINUOUS
 10
19.393110
 20
111.979042
 40
3.000000
 50
194.932602
 51
269.000610
  0
ARC
  8
0
  6
CONTINUOUS
 10
14.609010
 20
112.459999
 40
1.500000
 50
15.000070
 51
90.000000
  0
ARC
  8
0
  6
CONTINUOUS
 10
18.760000
 20
91.660004
 40
3.000000
 50
180.000000
 51
270.000000
  0
ARC
  8
0
  6
CONTINUOUS
 10
18.760019
 20
34.260021
 40
3.000000
 50
90.000000
 51
180.000000
  0
ARC
  8
0
  6
CONTINUOUS
 10
79.760002
 20
97.959999
 40
2.000000
 50
180.000000
 51
270.000000
  0
ARC
  8
0
  6
CONTINUOUS
 10
79.760017
 20
53.960007
 40
2.000000
 50
90.000000
 51
180.000000
  0
LINE
  8
0
  6
CONTINUOUS
 10
83.760002
 20
83.459999
 11
110.760002
 21
83.459999
  0
LINE
  8
0
  6
CONTINUOUS
 10
83.760002
 20
68.459999
 11
110.760002
 21
68.459999
  0
LINE
  8
0
  6
CONTINUOUS
 10
110.760002
 20
68.459999
 11
110.760002
 21
83.459999
  0
LINE
  8
0
  6
CONTINUOUS
 10
83.760002
 20
84.459999
 11
83.760002
 21
67.459999
  0
LINE
  8
0
  6
CONTINUOUS
 10
89.260017
 20
73.459999
 11
110.760002
 21
73.459999
  0
LINE
  8
0
  6
CONTINUOUS
 10
89.260002
 20
78.459999
 11
110.760002
 21
78.459999
  0
ARC
  8
0
  6
CONTINUOUS
 10
89.260017
 20
75.960007
 40
2.500000
 50
90.000000
 51
180.000000
  0
ARC
  8
0
  6
CONTINUOUS
 10
89.260002
 20
75.959999
 40
2.500000
 50
180.000000
 51
270.000000
  0
LINE
  8
0
  6
CENTER
 10
3.041250
 20
105.959999
 11
19.291250
 21
105.959999
  0
LINE
  8
0
  6
CENTER
 10
4.041250
 20
19.959999
 11
19.041250
 21
19.959999
  0
LINE
  8
0
  6
DASHED
 10
6.760000
 20
23.209999
 11
15.760019
 21
23.209999
  0
LINE
  8
0
  6
DASHED
 10
6.760000
 20
16.709999
 11
15.760000
 21
16.709999
  0
LINE
  8
0
  6
DASHED
 10
6.760000
 20
109.209999
 11
15.760000
 21
109.209999
  0
LINE
  8
0
  6
DASHED
 10
6.760000
 20
102.709999
 11
15.760000
 21
102.709999
  0
LINE
  8
0
  6
CONTINUOUS
 10
25.760000
 20
15.660000
 11
67.760002
 21
15.660000
  0
ARC
  8
0
  6
CONTINUOUS
 10
67.760002
 20
17.660000
 40
2.000000
 50
-90.000000
 51
0.000000
  0
ARC
  8
0
  6
CONTINUOUS
 10
25.760000
 20
17.660000
 40
2.000000
 50
199.216995
 51
270.000000
  0
LINE
  8
0
  6
CONTINUOUS
 10
69.760002
 20
17.660000
 11
69.760002
 21
17.802780
  0
ARC
  8
0
  6
CONTINUOUS
 10
46.759998
 20
53.660000
 40
38.000000
 50
-35.334469
 51
21.294241
  0
LINE
  8
0
  6
CENTER
 10
0.559999
 20
53.660000
 11
94.510002
 21
53.660000
  0
ARC
  8
0
  6
CONTINUOUS
 10
17.759991
 20
111.007393
 40
2.000000
 50
180.000000
 51
269.000610
  0
LINE
  8
0
  6
CONTINUOUS
 10
15.760000
 20
113.421883
 11
15.760000
 21
91.659981
  0
ARC
  8
0
  6
CONTINUOUS
 10
17.760010
 20
14.894730
 40
2.000000
 50
91.000633
 51
180.000000
  0
LINE
  8
0
  6
CONTINUOUS
 10
16.157200
 20
13.442360
 11
16.494040
 21
14.699500
  0
ARC
  8
0
  6
CONTINUOUS
 10
14.225340
 20
13.960000
 40
2.000000
 50
270.000000
 51
345.000092
  0
ARC
  8
0
  6
CONTINUOUS
 10
19.391830
 20
13.923070
 40
3.000000
 50
91.000488
 51
165.000305
  0
LINE
  8
0
  6
CONTINUOUS
 10
81.760002
 20
84.459999
 11
83.760002
 21
84.459999
  0
LINE
  8
0
  6
CONTINUOUS
 10
81.760002
 20
67.459999
 11
83.760002
 21
67.459999
  0
LINE
  8
0
  6
CONTINUOUS
 10
86.760002
 20
30.660000
 11
86.760002
 21
68.459999
  0
LINE
  8
0
  6
CONTINUOUS
 10
24.831060
 20
13.660000
 11
69.760002
 21
13.660000
  0
LINE
  8
0
  6
CONTINUOUS
 10
83.760002
 20
27.660000
 11
80.156960
 21
27.660000
  0
LINE
  8
0
  6
CONTINUOUS
 10
72.760002
 20
16.660000
 11
72.760002
 21
17.855240
  0
LINE
  8
0
  6
CONTINUOUS
 10
77.760002
 20
25.263029
 11
80.156960
 21
27.660000
  0
LINE
  8
0
  6
CONTINUOUS
 10
21.295540
 20
15.124450
 11
19.494680
 21
16.925301
  0
ARC
  8
0
  6
CONTINUOUS
 10
83.760002
 20
30.659990
 40
3.000000
 50
-90.000000
 51
0.000000
  0
ARC
  8
0
  6
CONTINUOUS
 10
69.759987
 20
16.659981
 40
3.000000
 50
-90.000000
 51
0.000000
  0
ARC
  8
0
  6
CONTINUOUS
 10
24.831060
 20
18.660000
 40
5.000000
 50
225.000107
 51
270.000000
  0
LINE
  8
0
  6
CONTINUOUS
 10
331.760010
 20
15.660000
 11
331.760010
 21
91.660004
  0
LINE
  8
0
  6
CENTER
 10
399.004700
 20
53.660000
 11
239.089996
 21
53.660000
  0
LINE
  8
0
  6
CONTINUOUS
 10
331.760010
 20
91.660004
 11
254.985382
 21
91.660004
  0
LINE
  8
0
  6
CONTINUOUS
 10
261.260010
 20
15.660000
 11
331.760010
 21
15.660000
  0
LINE
  8
0
  6
CONTINUOUS
 10
248.759995
 20
11.960000
 11
184.759995
 21
11.960000
  0
LINE
  8
0
  6
CONTINUOUS
 10
248.759995
 20
113.959999
 11
184.759995
 21
113.959999
  0
LINE
  8
0
  6
CONTINUOUS
 10
259.260010
 20
88.660004
 11
259.260010
 21
23.660009
  0
LINE
  8
0
  6
CENTER
 10
216.759995
 20
124.502190
 11
216.759995
 21
2.722500
  0
LINE
  8
0
  6
CENTER
 10
184.759995
 20
26.097500
 11
184.759995
 21
14.597500
  0
LINE
  8
0
  6
CENTER
 10
190.603699
 20
19.959999
 11
178.353699
 21
19.959999
  0
CIRCLE
  8
0
  6
CONTINUOUS
 10
184.759995
 20
19.959999
 40
3.250000
  0
LINE
  8
0
  6
CENTER
 10
184.759995
 20
99.822502
 11
184.759995
 21
111.322502
  0
CIRCLE
  8
0
  6
CONTINUOUS
 10
184.759995
 20
105.959999
 40
3.250000
  0
LINE
  8
0
  6
CENTER
 10
248.759995
 20
99.822502
 11
248.759995
 21
111.322502
  0
LINE
  8
0
  6
CENTER
 10
242.916199
 20
105.959999
 11
255.166306
 21
105.959999
  0
CIRCLE
  8
0
  6
CONTINUOUS
 10
248.759995
 20
105.959999
 40
3.250000
  0
LINE
  8
0
  6
CENTER
 10
248.759995
 20
26.097500
 11
248.759995
 21
14.597500
  0
LINE
  8
0
  6
CENTER
 10
242.916199
 20
19.959999
 11
255.166306
 21
19.959999
  0
CIRCLE
  8
0
  6
CONTINUOUS
 10
248.759995
 20
19.959999
 40
3.250000
  0
LINE
  8
0
  6
CONTINUOUS
 10
174.259995
 20
88.660004
 11
174.259995
 21
37.260010
  0
LINE
  8
0
  6
CONTINUOUS
 10
176.837296
 20
107.069160
 11
174.259995
 21
88.660004
  0
LINE
  8
0
  6
CONTINUOUS
 10
176.837296
 20
18.850880
 11
174.259995
 21
37.260010
  0
LINE
  8
0
  6
CONTINUOUS
 10
256.682709
 20
18.850800
 11
257.844086
 21
27.146299
  0
LINE
  8
0
  6
CONTINUOUS
 10
256.682709
 20
107.069153
 11
258.839996
 21
91.660004
  0
LINE
  8
0
  6
CENTER
 10
245.763748
 20
75.959999
 11
185.937500
 21
75.959999
  0
LINE
  8
0
  6
CONTINUOUS
 10
207.259995
 20
78.459999
 11
207.259995
 21
73.459999
  0
LINE
  8
0
  6
CONTINUOUS
 10
212.259995
 20
73.459999
 11
212.259995
 21
78.459999
  0
LINE
  8
0
  6
CONTINUOUS
 10
212.259995
 20
78.459999
 11
207.259995
 21
78.459999
  0
LINE
  8
0
  6
CONTINUOUS
 10
212.259995
 20
73.459999
 11
207.259995
 21
73.459999
  0
ARC
  8
0
  6
CONTINUOUS
 10
216.759995
 20
75.959999
 40
7.500000
 50
-160.528793
 51
160.528793
  0
ARC
  8
0
  6
CONTINUOUS
 10
184.759995
 20
105.959999
 40
8.000000
 50
90.000000
 51
172.030304
  0
ARC
  8
0
  6
CONTINUOUS
 10
248.759995
 20
105.959999
 40
8.000000
 50
7.969498
 51
90.000000
  0
ARC
  8
0
  6
CONTINUOUS
 10
248.759995
 20
19.959999
 40
8.000000
 50
-90.000000
 51
-7.969604
  0
ARC
  8
0
  6
CONTINUOUS
 10
184.759995
 20
19.959999
 40
8.000000
 50
-172.030304
 51
-90.000000
  0
LINE
  8
0
  6
CONTINUOUS
 10
259.260010
 20
17.660000
 11
259.260010
 21
23.660009
  0
ARC
  8
0
  6
CONTINUOUS
 10
261.260010
 20
17.660000
 40
2.000000
 50
180.000000
 51
270.000000
  0
ARC
  8
0
  6
CONTINUOUS
 10
254.259995
 20
23.660021
 40
5.000000
 50
0.000000
 51
90.000000
  0
LINE
  8
0
  6
CONTINUOUS
 10
331.760010
 20
83.908974
 11
260.010010
 21
83.908974
  0
LINE
  8
0
  6
CONTINUOUS
 10
331.760010
 20
23.411039
 11
259.760010
 21
23.411039
  0
LINE
  8
0
  6
CONTINUOUS
 10
203.339493
 20
107.959999
 11
230.180496
 21
107.959999
  0
LINE
  8
0
  6
CONTINUOUS
 10
230.180496
 20
17.959999
 11
203.339493
 21
17.959999
  0
LINE
  8
0
  6
CONTINUOUS
 10
233.052795
 20
107.052658
 11
259.260010
 21
88.660004
  0
LINE
  8
0
  6
CONTINUOUS
 10
200.467194
 20
107.052658
 11
174.259995
 21
88.660004
  0
LINE
  8
0
  6
CONTINUOUS
 10
200.467194
 20
18.867340
 11
174.259995
 21
37.260010
  0
LINE
  8
0
  6
CONTINUOUS
 10
245.713303
 20
27.752661
 11
233.052795
 21
18.867340
  0
LINE
  8
0
  6
CONTINUOUS
 10
248.585602
 20
28.660000
 11
254.259995
 21
28.660000
  0
ARC
  8
0
  6
CONTINUOUS
 10
230.180603
 20
102.959999
 40
5.000000
 50
54.938221
 51
90.000000
  0
ARC
  8
0
  6
CONTINUOUS
 10
203.339493
 20
102.960007
 40
5.000000
 50
90.000000
 51
125.062103
  0
ARC
  8
0
  6
CONTINUOUS
 10
203.339493
 20
22.959999
 40
5.000000
 50
234.938095
 51
270.000000
  0
ARC
  8
0
  6
CONTINUOUS
 10
230.180496
 20
22.959999
 40
5.000000
 50
270.000000
 51
305.061890
  0
ARC
  8
0
  6
CONTINUOUS
 10
248.585602
 20
23.660009
 40
5.000000
 50
90.000000
 51
125.062103
  0
CIRCLE
  8
0
  6
CONTINUOUS
 10
216.759995
 20
75.959999
 40
20.000000
  0
LINE
  8
0
  6
CENTER
 10
179.447495
 20
105.959999
 11
190.134995
 21
105.959999
  0
LINE
  8
0
  6
CONTINUOUS
 10
208.393799
 20
39.959999
 11
204.928207
 21
39.959999
  0
LINE
  8
0
  6
CONTINUOUS
 10
210.306702
 20
45.764961
 11
210.306702
 21
39.959999
  0
LINE
  8
0
  6
CONTINUOUS
 10
213.638702
 20
47.873497
 11
213.638702
 21
49.955986
  0
LINE
  8
0
  6
CONTINUOUS
 10
220.302704
 20
47.873497
 11
220.302704
 21
49.955986
  0
LINE
  8
0
  6
CONTINUOUS
 10
216.319901
 20
48.732521
 11
216.319901
 21
41.053310
  0
LINE
  8
0
  6
CONTINUOUS
 10
217.569397
 20
48.732521
 11
217.569397
 21
41.053310
  0
LINE
  8
0
  6
CONTINUOUS
 10
224.129303
 20
48.732521
 11
224.129303
 21
41.001240
  0
LINE
  8
0
  6
CONTINUOUS
 10
225.274704
 20
44.632607
 11
225.274704
 21
41.001240
  0
LINE
  8
0
  6
CONTINUOUS
 10
208.725601
 20
48.628395
 11
205.514496
 21
48.628395
  0
LINE
  8
0
  6
CONTINUOUS
 10
206.011597
 20
41.131401
 11
205.526505
 21
41.131401
  0
LINE
  8
0
  6
CONTINUOUS
 10
205.514496
 20
48.628395
 11
204.762100
 21
47.695442
  0
LINE
  8
0
  6
CONTINUOUS
 10
204.852600
 20
49.955986
 11
203.642700
 21
48.406822
  0
LINE
  8
0
  6
CONTINUOUS
 10
204.762100
 20
41.936619
 11
205.526505
 21
41.131401
  0
LINE
  8
0
  6
CONTINUOUS
 10
203.642700
 20
41.257099
 11
204.928207
 21
39.959999
  0
LINE
  8
0
  6
CONTINUOUS
 10
203.642700
 20
48.406822
 11
203.642700
 21
41.257099
  0
LINE
  8
0
  6
CONTINUOUS
 10
204.762100
 20
47.695442
 11
204.762100
 21
41.936619
  0
LINE
  8
0
  6
CONTINUOUS
 10
209.343597
 20
48.031059
 11
208.712997
 21
48.628395
  0
LINE
  8
0
  6
CONTINUOUS
 10
209.333603
 20
49.955986
 11
210.306702
 21
48.876015
  0
LINE
  8
0
  6
CONTINUOUS
 10
209.343597
 20
47.873497
 11
210.306702
 21
47.873497
  0
LINE
  8
0
  6
CONTINUOUS
 10
204.852600
 20
49.955986
 11
209.333603
 21
49.955986
  0
LINE
  8
0
  6
CONTINUOUS
 10
207.599503
 20
45.764961
 11
210.306702
 21
45.764961
  0
LINE
  8
0
  6
CONTINUOUS
 10
209.343597
 20
44.671654
 11
207.599503
 21
44.671654
  0
LINE
  8
0
  6
CONTINUOUS
 10
206.844604
 20
41.131401
 11
206.011597
 21
41.131401
  0
LINE
  8
0
  6
CONTINUOUS
 10
209.343597
 20
43.630409
 11
209.343597
 21
44.463402
  0
LINE
  8
0
  6
CONTINUOUS
 10
207.261093
 20
41.131401
 11
206.844604
 21
41.131401
  0
LINE
  8
0
  6
CONTINUOUS
 10
209.343597
 20
43.213909
 11
209.343597
 21
43.630409
  0
LINE
  8
0
  6
CONTINUOUS
 10
209.343597
 20
43.158588
 11
209.343597
 21
43.213909
  0
ARC
  8
0
  6
CONTINUOUS
 10
207.261093
 20
43.213909
 40
2.082500
 50
-89.999786
 51
0.000109
  0
LINE
  8
0
  6
CONTINUOUS
 10
209.343597
 20
40.756828
 11
209.343597
 21
39.959999
  0
LINE
  8
0
  6
CONTINUOUS
 10
210.306702
 20
48.876015
 11
210.306702
 21
47.873497
  0
LINE
  8
0
  6
CONTINUOUS
 10
209.343597
 20
44.671654
 11
209.343597
 21
43.213909
  0
LINE
  8
0
  6
CONTINUOUS
 10
207.599503
 20
45.764961
 11
207.599503
 21
44.671654
  0
LINE
  8
0
  6
CONTINUOUS
 10
209.343597
 20
44.463402
 11
209.343597
 21
44.671654
  0
LINE
  8
0
  6
CONTINUOUS
 10
209.343597
 20
39.959999
 11
210.306702
 21
39.959999
  0
LINE
  8
0
  6
CONTINUOUS
 10
209.343597
 20
40.756828
 11
208.393799
 21
39.959999
  0
LINE
  8
0
  6
CONTINUOUS
 10
217.569397
 20
41.053310
 11
217.985901
 21
41.053310
  0
LINE
  8
0
  6
CONTINUOUS
 10
215.825302
 20
41.053310
 11
215.825302
 21
39.959999
  0
LINE
  8
0
  6
CONTINUOUS
 10
217.985901
 20
41.053310
 11
217.985901
 21
39.959999
  0
LINE
  8
0
  6
CONTINUOUS
 10
219.607605
 20
47.873497
 11
220.302704
 21
47.873497
  0
LINE
  8
0
  6
CONTINUOUS
 10
213.638702
 20
47.873497
 11
214.378403
 21
47.873497
  0
LINE
  8
0
  6
CONTINUOUS
 10
213.638702
 20
49.955986
 11
220.302704
 21
49.955986
  0
LINE
  8
0
  6
CONTINUOUS
 10
215.825302
 20
39.959999
 11
217.985901
 21
39.959999
  0
LINE
  8
0
  6
CONTINUOUS
 10
215.825302
 20
41.053310
 11
216.319901
 21
41.053310
  0
ARC
  8
0
  6
CONTINUOUS
 10
227.630493
 20
47.287788
 40
2.668203
 50
-73.981873
 51
90.003510
  0
ARC
  8
0
  6
CONTINUOUS
 10
227.630493
 20
47.287788
 40
1.627786
 50
-82.585274
 51
62.411850
  0
LINE
  8
0
  6
CONTINUOUS
 10
223.634705
 20
49.955986
 11
227.630493
 21
49.955986
  0
LINE
  8
0
  6
CONTINUOUS
 10
227.840607
 20
45.673607
 11
225.274704
 21
45.673607
  0
LINE
  8
0
  6
CONTINUOUS
 10
223.634705
 20
49.955986
 11
223.634705
 21
48.732521
  0
LINE
  8
0
  6
CONTINUOUS
 10
225.274704
 20
48.732521
 11
225.274704
 21
45.673607
  0
LINE
  8
0
  6
CONTINUOUS
 10
228.366806
 20
44.723183
 11
230.018204
 21
41.001240
  0
LINE
  8
0
  6
CONTINUOUS
 10
227.407593
 20
44.632607
 11
228.970505
 21
41.001240
  0
LINE
  8
0
  6
CONTINUOUS
 10
223.634705
 20
41.001240
 11
224.129303
 21
41.001240
  0
LINE
  8
0
  6
CONTINUOUS
 10
225.274704
 20
41.001240
 11
225.730194
 21
41.001240
  0
LINE
  8
0
  6
CONTINUOUS
 10
225.730194
 20
39.959999
 11
223.634705
 21
39.959999
  0
LINE
  8
0
  6
CONTINUOUS
 10
228.762894
 20
41.001240
 11
228.970505
 21
41.001240
  0
LINE
  8
0
  6
CONTINUOUS
 10
230.018204
 20
41.001240
 11
230.298706
 21
41.001240
  0
LINE
  8
0
  6
CONTINUOUS
 10
228.762894
 20
39.959999
 11
230.298706
 21
39.959999
  0
LINE
  8
0
  6
CONTINUOUS
 10
230.298706
 20
41.001240
 11
230.298706
 21
39.959999
  0
LINE
  8
0
  6
CONTINUOUS
 10
228.762894
 20
41.001240
 11
228.762894
 21
39.959999
  0
LINE
  8
0
  6
CONTINUOUS
 10
225.730194
 20
41.001240
 11
225.730194
 21
39.959999
  0
LINE
  8
0
  6
CONTINUOUS
 10
223.634705
 20
41.001240
 11
223.634705
 21
39.959999
  0
LINE
  8
0
  6
CONTINUOUS
 10
214.736404
 20
48.732521
 11
214.378403
 21
47.873497
  0
LINE
  8
0
  6
CONTINUOUS
 10
219.305801
 20
48.732521
 11
219.607605
 21
47.873497
  0
LINE
  8
0
  6
CONTINUOUS
 10
217.569397
 20
48.732521
 11
219.305801
 21
48.732521
  0
LINE
  8
0
  6
CONTINUOUS
 10
216.319901
 20
48.732521
 11
214.736404
 21
48.732521
  0
LINE
  8
0
  6
CONTINUOUS
 10
225.274704
 20
44.632607
 11
227.407593
 21
44.632607
  0
LINE
  8
0
  6
CONTINUOUS
 10
223.634705
 20
48.732521
 11
224.129303
 21
48.732521
  0
LINE
  8
0
  6
CONTINUOUS
 10
225.274704
 20
48.732521
 11
228.384399
 21
48.730507
  0
LINE
  8
0
  6
CONTINUOUS
 10
209.343597
 20
48.031059
 11
209.343597
 21
47.873497
  0
LINE
  8
0
  6
CONTINUOUS
 10
341.260010
 20
91.660004
 11
331.760010
 21
91.660004
  0
LINE
  8
0
  6
CONTINUOUS
 10
341.260010
 20
15.660000
 11
331.760010
 21
15.660000
  0
LINE
  8
0
  6
CONTINUOUS
 10
341.260010
 20
13.660000
 11
341.260010
 21
93.660004
  0
LINE
  8
0
  6
CONTINUOUS
 10
341.260010
 20
83.908997
 11
331.760010
 21
83.908997
  0
LINE
  8
0
  6
CONTINUOUS
 10
341.260010
 20
23.410999
 11
331.760010
 21
23.410999
  0
LINE
  8
0
  6
CONTINUOUS
 10
385.260010
 20
93.660004
 11
341.260010
 21
93.660004
  0
LINE
  8
0
  6
CONTINUOUS
 10
385.260010
 20
13.660000
 11
341.260010
 21
13.660000
  0
LINE
  8
0
  6
CONTINUOUS
 10
390.260010
 20
18.660000
 11
390.260010
 21
88.660004
  0
ARC
  8
0
  6
CONTINUOUS
 10
385.260010
 20
88.660019
 40
5.000000
 50
0.000000
 51
90.000000
  0
ARC
  8
0
  6
CONTINUOUS
 10
385.260010
 20
18.660000
 40
5.000000
 50
-90.000000
 51
0.000000
  0
LINE
  8
0
  6
CONTINUOUS
 10
387.760010
 20
27.660000
 11
341.260010
 21
27.660000
  0
LINE
  8
0
  6
CONTINUOUS
 10
387.760010
 20
77.660004
 11
341.260010
 21
77.660004
  0
LINE
  8
0
  6
CONTINUOUS
 10
340.760010
 20
281.855011
 11
340.760010
 21
235.854996
  0
LINE
  8
0
  6
CONTINUOUS
 10
338.760010
 20
233.854996
 11
340.760010
 21
235.854996
  0
LINE
  8
0
  6
CONTINUOUS
 10
338.760010
 20
233.854996
 11
292.760010
 21
233.854996
  0
LINE
  8
0
  6
CONTINUOUS
 10
298.260010
 20
238.354996
 11
298.260010
 21
233.854996
  0
ARC
  8
0
  6
CONTINUOUS
 10
295.260010
 20
238.354996
 40
3.000000
 50
0.000000
 51
90.000000
  0
LINE
  8
0
  6
CONTINUOUS
 10
295.260010
 20
241.354996
 11
290.760010
 21
241.354996
  0
CIRCLE
  8
0
  6
CONTINUOUS
 10
294.260010
 20
237.354996
 40
2.250000
  0
LINE
  8
0
  6
CONTINUOUS
 10
290.760010
 20
281.855011
 11
290.760010
 21
235.854996
  0
LINE
  8
0
  6
CONTINUOUS
 10
292.760010
 20
233.854996
 11
290.760010
 21
235.854996
  0
LINE
  8
0
  6
CONTINUOUS
 10
292.760010
 20
283.855011
 11
290.760010
 21
281.855011
  0
LINE
  8
0
  6
CONTINUOUS
 10
292.760010
 20
283.855011
 11
338.760010
 21
283.855011
  0
LINE
  8
0
  6
CONTINUOUS
 10
340.760010
 20
281.855011
 11
338.760010
 21
283.855011
  0
LINE
  8
0
  6
CONTINUOUS
 10
336.260010
 20
276.355011
 11
340.759979
 21
276.355011
  0
CIRCLE
  8
0
  6
CONTINUOUS
 10
337.260010
 20
280.355011
 40
2.250000
  0
ARC
  8
0
  6
CONTINUOUS
 10
336.260010
 20
279.355011
 40
3.000000
 50
180.000000
 51
270.000000
  0
LINE
  8
0
  6
CONTINUOUS
 10
333.260010
 20
279.355011
 11
333.260010
 21
283.855011
  0
LINE
  8
0
  6
CENTER
 10
315.760010
 20
291.320770
 11
315.760010
 21
227.188751
  0
LINE
  8
0
  6
CONTINUOUS
 10
339.759979
 20
276.355011
 11
339.759979
 21
241.354996
  0
LINE
  8
0
  6
CONTINUOUS
 10
298.260010
 20
234.854996
 11
333.260010
 21
234.854996
  0
LINE
  8
0
  6
CONTINUOUS
 10
291.760010
 20
241.354996
 11
291.760010
 21
276.355011
  0
LINE
  8
0
  6
CONTINUOUS
 10
333.260010
 20
282.855011
 11
298.260010
 21
282.855011
  0
LINE
  8
0
  6
CONTINUOUS
 10
336.260010
 20
241.354996
 11
340.760010
 21
241.354996
  0
ARC
  8
0
  6
CONTINUOUS
 10
336.260010
 20
238.354996
 40
3.000000
 50
90.000000
 51
180.000000
  0
LINE
  8
0
  6
CONTINUOUS
 10
333.260010
 20
238.354996
 11
333.260010
 21
233.855011
  0
CIRCLE
  8
0
  6
CONTINUOUS
 10
337.260010
 20
237.354996
 40
2.250000
  0
ARC
  8
0
  6
CONTINUOUS
 10
295.260010
 20
279.355011
 40
3.000000
 50
-90.000000
 51
0.000000
  0
LINE
  8
0
  6
CONTINUOUS
 10
298.260010
 20
279.355011
 11
298.260010
 21
283.854980
  0
LINE
  8
0
  6
CONTINUOUS
 10
295.260010
 20
276.355011
 11
290.760010
 21
276.355011
  0
CIRCLE
  8
0
  6
CONTINUOUS
 10
294.260010
 20
280.355011
 40
2.250000
  0
LINE
  8
0
  6
CONTINUOUS
 10
339.260010
 20
93.160004
 11
292.760010
 21
93.160004
  0
LINE
  8
0
  6
CONTINUOUS
 10
290.760010
 20
137.160004
 11
290.760010
 21
95.160004
  0
LINE
  8
0
  6
CONTINUOUS
 10
340.760010
 20
137.160004
 11
340.760010
 21
95.160004
  0
LINE
  8
0
  6
CONTINUOUS
 10
340.760010
 20
105.160004
 11
290.760010
 21
105.160004
  0
LINE
  8
0
  6
CONTINUOUS
 10
292.760010
 20
93.160004
 11
290.760010
 21
95.160004
  0
LINE
  8
0
  6
CONTINUOUS
 10
340.760010
 20
95.160004
 11
338.760010
 21
93.160004
  0
LINE
  8
0
  6
CONTINUOUS
 10
340.760010
 20
95.160004
 11
290.760010
 21
95.160004
  0
LINE
  8
0
  6
CONTINUOUS
 10
340.760010
 20
106.160004
 11
290.760010
 21
106.160004
  0
LINE
  8
0
  6
CONTINUOUS
 10
339.760010
 20
138.160004
 11
291.760010
 21
138.160004
  0
LINE
  8
0
  6
CONTINUOUS
 10
291.760010
 20
138.160004
 11
290.760010
 21
137.160004
  0
LINE
  8
0
  6
CONTINUOUS
 10
339.760010
 20
138.160004
 11
340.760010
 21
137.160004
  0
LINE
  8
0
  6
CONTINUOUS
 10
340.760010
 20
137.160004
 11
290.760010
 21
137.160004
  0
LINE
  8
0
  6
CENTER
 10
315.760010
 20
86.770493
 11
315.760010
 21
145.798126
  0
LINE
  8
0
  6
CENTER
 10
343.135010
 20
121.160004
 11
338.510010
 21
121.160004
  0
LINE
  8
0
  6
CONTINUOUS
 10
339.260010
 20
93.160004
 11
339.260010
 21
91.660004
  0
LINE
  8
0
  6
CONTINUOUS
 10
293.260010
 20
93.160004
 11
293.260010
 21
91.660004
  0
LINE
  8
0
  6
CONTINUOUS
 10
341.635010
 20
131.660004
 11
339.635010
 21
131.660004
  0
LINE
  8
0
  6
CONTINUOUS
 10
341.635010
 20
110.660004
 11
339.635010
 21
110.660004
  0
LINE
  8
0
  6
CONTINUOUS
 10
71.759979
 20
137.160004
 11
71.759979
 21
108.064713
  0
LINE
  8
0
  6
CONTINUOUS
 10
21.760000
 20
137.160004
 11
21.760000
 21
108.937263
  0
LINE
  8
0
  6
CONTINUOUS
 10
22.760000
 20
138.160004
 11
70.759979
 21
138.160004
  0
LINE
  8
0
  6
CONTINUOUS
 10
70.759979
 20
138.160004
 11
71.759979
 21
137.160004
  0
LINE
  8
0
  6
CONTINUOUS
 10
22.760000
 20
138.160004
 11
21.760000
 21
137.160004
  0
LINE
  8
0
  6
CONTINUOUS
 10
21.760000
 20
137.160004
 11
71.759979
 21
137.160004
  0
TEXT
  8
0
 10
-80.000000
 20
2.000000
 40
4.000000
 41
1.000000
  1
HFM-15L-10~120-S40K
 50
0.000000
  0
ENDSEC
  0
EOF
