  0
SECTION
  2
HEADER
  9
$CLAYER
  8
1
  9
$LTSCALE
 40
3.0
  0
ENDSEC
  0
SECTION
  2
TABLES
  0
TABLE
  2
LTYPE
 70
     4
  0
LTYPE
  2
CONTINUOUS
  3
solid line
 70
    64
 72
    65
 73
     0
 40
0.0
  0
LTYPE
  2
DASHED
  3
__ __ __ __ __ __ __ __ __ __ __ __ __ __ __
 70
    64
 72
    65
 73
     2
 40
0.75
 49
0.5
 49
-0.25
  0
LTYPE
  2
CENTER
  3
____ _ ____ _ ____ _ ____ _ ____ _ ____ _ ____
 70
    64
 72
    65
 73
     4
 40
2.0
 49
1.25
 49
-0.25
 49
0.25
 49
-0.25
  0
LTYPE
  2
PHANTOM
  3
_____ _ _ _____ _ _ _____ _ _ _____ _ _ ____
 70
    64
 72
    65
 73
     6
 40
2.5
 49
1.25
 49
-0.25
 49
0.25
 49
-0.25
 49
0.25
 49
-0.25
  0
ENDTAB
  0
TABLE
  2
LAYER
 70
     1
  0
LAYER
  2
0
 70
    64
 62
     7
  6
CONTINUOUS
  0
ENDTAB
  0
TABLE
  2
STYLE
 70
     1
  0
STYLE
  2
STANDARD
 70
     0
 40
0.000000
 41
1.000000
 50
0.000000
 71
     0
 42
3.000000
  3
txt
  4
BIGFONT
  0
ENDTAB
  0
ENDSEC
  0
SECTION
  2
BLOCKS
  0
ENDSEC
  0
SECTION
  2
ENTITIES
  0
LINE
  8
0
  6
CENTER
 10
212.130005
 20
191.399994
 11
212.130005
 21
312.433746
  0
LINE
  8
0
  6
CENTER
 10
395.480621
 20
259.899994
 11
163.630005
 21
259.899994
  0
LINE
  8
0
  6
CONTINUOUS
 10
173.437515
 20
228.899994
 11
252.681686
 21
228.899994
  0
LINE
  8
0
  6
CONTINUOUS
 10
336.630005
 20
221.899994
 11
327.130005
 21
221.899994
  0
LINE
  8
0
  6
CONTINUOUS
 10
336.630005
 20
297.899994
 11
327.130005
 21
297.899994
  0
LINE
  8
0
  6
CONTINUOUS
 10
336.630005
 20
236.899994
 11
336.130005
 21
236.899994
  0
LINE
  8
0
  6
CONTINUOUS
 10
327.130005
 20
297.899994
 11
327.130005
 21
284.899994
  0
LINE
  8
0
  6
CONTINUOUS
 10
336.630005
 20
282.899994
 11
336.130005
 21
282.899994
  0
LINE
  8
0
  6
CONTINUOUS
 10
256.761627
 20
221.899994
 11
327.130005
 21
221.899994
  0
LINE
  8
0
  6
CONTINUOUS
 10
286.130005
 20
236.899994
 11
251.210327
 21
236.899994
  0
LINE
  8
0
  6
CONTINUOUS
 10
253.839142
 20
290.899994
 11
170.839828
 21
290.899994
  0
LINE
  8
0
  6
CONTINUOUS
 10
256.143616
 20
297.899994
 11
327.130005
 21
297.899994
  0
LINE
  8
0
  6
CONTINUOUS
 10
286.130005
 20
282.899994
 11
255.075165
 21
282.899994
  0
LINE
  8
0
  6
CONTINUOUS
 10
232.130005
 20
225.899994
 11
232.130005
 21
228.899994
  0
LINE
  8
0
  6
CONTINUOUS
 10
192.130005
 20
225.899994
 11
192.130005
 21
228.899994
  0
LINE
  8
0
  6
CONTINUOUS
 10
193.130005
 20
224.899994
 11
231.130005
 21
224.899994
  0
ARC
  8
0
  6
CONTINUOUS
 10
231.130005
 20
225.899994
 40
1.000000
 50
-90.000000
 51
0.000000
  0
ARC
  8
0
  6
CONTINUOUS
 10
193.129990
 20
225.899994
 40
1.000000
 50
180.000000
 51
270.000000
  0
LINE
  8
0
  6
CONTINUOUS
 10
219.630005
 20
195.899994
 11
219.630005
 21
222.899994
  0
LINE
  8
0
  6
CONTINUOUS
 10
219.630005
 20
195.899994
 11
202.630005
 21
195.899994
  0
LINE
  8
0
  6
CONTINUOUS
 10
220.630005
 20
222.899994
 11
203.630005
 21
222.899994
  0
LINE
  8
0
  6
CONTINUOUS
 10
220.630005
 20
222.899994
 11
220.630005
 21
224.899994
  0
LINE
  8
0
  6
CONTINUOUS
 10
203.630005
 20
222.899994
 11
203.630005
 21
224.899994
  0
LINE
  8
0
  6
CONTINUOUS
 10
202.630005
 20
219.899994
 11
202.630005
 21
195.899994
  0
LINE
  8
0
  6
CONTINUOUS
 10
205.059006
 20
219.899994
 11
205.059006
 21
195.899994
  0
LINE
  8
0
  6
CONTINUOUS
 10
205.059006
 20
219.899994
 11
202.630005
 21
219.899994
  0
LINE
  8
0
  6
CONTINUOUS
 10
204.630005
 20
219.899994
 11
204.630005
 21
222.899994
  0
LINE
  8
0
  6
CONTINUOUS
 10
197.130005
 20
289.899994
 11
197.130005
 21
230.865097
  0
LINE
  8
0
  6
CONTINUOUS
 10
227.130005
 20
289.899994
 11
227.130005
 21
230.865097
  0
LINE
  8
0
  6
CONTINUOUS
 10
254.839417
 20
236.897263
 11
254.681000
 21
230.847641
  0
LINE
  8
0
  6
CONTINUOUS
 10
250.355392
 20
289.718750
 11
250.355392
 21
238.899734
  0
LINE
  8
0
  6
CONTINUOUS
 10
327.130005
 20
234.899994
 11
327.130005
 21
221.899994
  0
LINE
  8
0
  6
CONTINUOUS
 10
254.630005
 20
299.899994
 11
169.630005
 21
299.899994
  0
LINE
  8
0
  6
CONTINUOUS
 10
171.438202
 20
230.847641
 11
169.630005
 21
299.899994
  0
ARC
  8
0
  6
CONTINUOUS
 10
173.437515
 20
230.899994
 40
2.000000
 50
181.500000
 51
270.000000
  0
LINE
  8
0
  6
CONTINUOUS
 10
255.677429
 20
259.899994
 11
254.630005
 21
299.899994
  0
LINE
  8
0
  6
CONTINUOUS
 10
172.207306
 20
299.899994
 11
172.207306
 21
292.210327
  0
LINE
  8
0
  6
CONTINUOUS
 10
252.052704
 20
299.899994
 11
252.052704
 21
292.210327
  0
ARC
  8
0
  6
CONTINUOUS
 10
228.130005
 20
289.899994
 40
1.000000
 50
90.000000
 51
180.000000
  0
ARC
  8
0
  6
CONTINUOUS
 10
196.130005
 20
289.899994
 40
1.000000
 50
0.000000
 51
90.000000
  0
LINE
  8
0
  6
CONTINUOUS
 10
227.130005
 20
289.579987
 11
197.130005
 21
289.579987
  0
ARC
  8
0
  6
CONTINUOUS
 10
170.839828
 20
291.899994
 40
1.000000
 50
181.500000
 51
270.000000
  0
LINE
  8
0
  6
CONTINUOUS
 10
254.762299
 20
223.847641
 11
254.681000
 21
226.952347
  0
ARC
  8
0
  6
CONTINUOUS
 10
253.839142
 20
291.899994
 40
1.000000
 50
-90.000000
 51
1.499999
  0
ARC
  8
0
  6
CONTINUOUS
 10
256.143616
 20
299.399994
 40
1.500000
 50
181.500000
 51
270.000000
  0
ARC
  8
0
  6
CONTINUOUS
 10
256.761627
 20
223.899994
 40
2.000000
 50
181.500000
 51
270.000000
  0
ARC
  8
0
  6
CONTINUOUS
 10
252.681686
 20
226.899994
 40
2.000000
 50
1.500000
 51
90.000000
  0
ARC
  8
0
  6
CONTINUOUS
 10
252.681686
 20
230.899994
 40
2.000000
 50
270.000000
 51
358.500000
  0
LINE
  8
0
  6
CENTER
 10
180.130005
 20
303.790161
 11
180.130005
 21
286.649384
  0
LINE
  8
0
  6
DASHED
 10
176.880005
 20
290.899994
 11
176.880005
 21
299.899994
  0
LINE
  8
0
  6
DASHED
 10
183.380005
 20
290.899994
 11
183.380005
 21
299.899994
  0
LINE
  8
0
  6
CENTER
 10
244.130005
 20
303.790161
 11
244.130005
 21
286.649384
  0
LINE
  8
0
  6
DASHED
 10
247.380005
 20
290.899994
 11
247.380005
 21
299.899994
  0
LINE
  8
0
  6
DASHED
 10
240.880005
 20
290.899994
 11
240.880005
 21
299.899994
  0
LINE
  8
0
  6
CONTINUOUS
 10
336.630005
 20
299.899994
 11
336.630005
 21
267.399994
  0
LINE
  8
0
  6
CONTINUOUS
 10
380.630005
 20
219.899994
 11
336.630005
 21
219.899994
  0
LINE
  8
0
  6
CONTINUOUS
 10
380.630005
 20
299.899994
 11
336.630005
 21
299.899994
  0
LINE
  8
0
  6
CONTINUOUS
 10
385.630005
 20
294.899994
 11
385.630005
 21
224.899994
  0
ARC
  8
0
  6
CONTINUOUS
 10
380.629974
 20
224.899979
 40
5.000000
 50
-90.000000
 51
0.000000
  0
ARC
  8
0
  6
CONTINUOUS
 10
380.630005
 20
294.899994
 40
5.000000
 50
0.000000
 51
90.000000
  0
LINE
  8
0
  6
CONTINUOUS
 10
383.130005
 20
285.899994
 11
336.630005
 21
285.899994
  0
LINE
  8
0
  6
CONTINUOUS
 10
383.130005
 20
235.899994
 11
336.630005
 21
235.899994
  0
LINE
  8
0
  6
CONTINUOUS
 10
337.130005
 20
252.399994
 11
336.130005
 21
252.399994
  0
ARC
  8
0
  6
CONTINUOUS
 10
337.129974
 20
253.399994
 40
1.000000
 50
-90.000000
 51
0.000000
  0
LINE
  8
0
  6
CONTINUOUS
 10
341.629974
 20
255.899994
 11
341.629974
 21
263.899994
  0
LINE
  8
0
  6
CONTINUOUS
 10
341.629974
 20
255.899994
 11
338.129974
 21
254.399994
  0
LINE
  8
0
  6
CONTINUOUS
 10
341.630005
 20
263.899994
 11
338.130005
 21
265.399994
  0
LINE
  8
0
  6
CONTINUOUS
 10
338.129974
 20
253.399994
 11
338.129974
 21
266.399994
  0
LINE
  8
0
  6
CONTINUOUS
 10
337.130005
 20
267.399994
 11
336.130005
 21
267.399994
  0
ARC
  8
0
  6
CONTINUOUS
 10
337.129974
 20
266.399994
 40
1.000000
 50
0.000000
 51
90.000000
  0
LINE
  8
0
  6
CONTINUOUS
 10
336.130005
 20
282.899994
 11
336.130005
 21
236.899994
  0
LINE
  8
0
  6
CONTINUOUS
 10
334.130005
 20
234.899994
 11
336.130005
 21
236.899994
  0
LINE
  8
0
  6
CONTINUOUS
 10
334.130005
 20
234.899994
 11
288.130005
 21
234.899994
  0
LINE
  8
0
  6
CONTINUOUS
 10
293.630005
 20
239.399994
 11
293.630005
 21
234.899994
  0
ARC
  8
0
  6
CONTINUOUS
 10
290.630005
 20
239.399994
 40
3.000000
 50
0.000000
 51
90.000000
  0
LINE
  8
0
  6
CONTINUOUS
 10
290.630005
 20
242.399994
 11
286.130005
 21
242.399994
  0
CIRCLE
  8
0
  6
CONTINUOUS
 10
289.630005
 20
238.399994
 40
2.250000
  0
LINE
  8
0
  6
CONTINUOUS
 10
286.130005
 20
282.899994
 11
286.130005
 21
236.899994
  0
LINE
  8
0
  6
CONTINUOUS
 10
288.130005
 20
234.899994
 11
286.130005
 21
236.899994
  0
LINE
  8
0
  6
CONTINUOUS
 10
288.130005
 20
284.899994
 11
286.130005
 21
282.899994
  0
LINE
  8
0
  6
CONTINUOUS
 10
288.130005
 20
284.899994
 11
334.130005
 21
284.899994
  0
LINE
  8
0
  6
CONTINUOUS
 10
336.130005
 20
282.899994
 11
334.130005
 21
284.899994
  0
LINE
  8
0
  6
CONTINUOUS
 10
331.630005
 20
277.399994
 11
336.130005
 21
277.399994
  0
CIRCLE
  8
0
  6
CONTINUOUS
 10
332.630005
 20
281.399994
 40
2.250000
  0
ARC
  8
0
  6
CONTINUOUS
 10
331.630005
 20
280.399994
 40
3.000000
 50
180.000000
 51
270.000000
  0
LINE
  8
0
  6
CONTINUOUS
 10
328.630005
 20
280.399994
 11
328.630005
 21
284.899994
  0
LINE
  8
0
  6
CENTER
 10
311.130005
 20
292.365784
 11
311.130005
 21
228.233749
  0
LINE
  8
0
  6
CONTINUOUS
 10
333.715790
 20
235.899994
 11
335.130005
 21
237.314209
  0
LINE
  8
0
  6
CONTINUOUS
 10
335.130005
 20
277.399994
 11
335.130005
 21
237.314209
  0
LINE
  8
0
  6
CONTINUOUS
 10
293.630005
 20
235.899994
 11
333.715790
 21
235.899994
  0
LINE
  8
0
  6
CONTINUOUS
 10
287.130005
 20
242.399994
 11
287.130005
 21
282.485779
  0
LINE
  8
0
  6
CONTINUOUS
 10
328.630005
 20
283.899994
 11
288.544220
 21
283.899994
  0
LINE
  8
0
  6
CONTINUOUS
 10
288.544220
 20
283.899994
 11
287.130005
 21
282.485779
  0
LINE
  8
0
  6
CONTINUOUS
 10
336.630005
 20
252.399994
 11
336.630005
 21
219.899994
  0
LINE
  8
0
  6
CENTER
 10
42.130001
 20
5.017500
 11
42.130001
 21
134.329681
  0
LINE
  8
0
  6
CONTINUOUS
 10
2.130000
 20
13.005000
 11
2.130000
 21
115.004997
  0
LINE
  8
0
  6
CONTINUOUS
 10
73.129997
 20
20.952921
 11
73.129997
 21
107.039589
  0
LINE
  8
0
  6
CONTINUOUS
 10
77.129997
 20
58.004997
 11
77.129997
 21
96.004997
  0
LINE
  8
0
  6
CENTER
 10
-4.070001
 20
77.004997
 11
111.379997
 21
77.004997
  0
LINE
  8
0
  6
CONTINUOUS
 10
76.129997
 20
97.004997
 11
75.130020
 21
97.004997
  0
LINE
  8
0
  6
CONTINUOUS
 10
76.129997
 20
57.004997
 11
75.130020
 21
57.004997
  0
LINE
  8
0
  6
CONTINUOUS
 10
71.164886
 20
109.039299
 11
13.095120
 21
110.052681
  0
LINE
  8
0
  6
CONTINUOUS
 10
71.164909
 20
18.953230
 11
13.095080
 21
17.939409
  0
ARC
  8
0
  6
CONTINUOUS
 10
71.130013
 20
107.039589
 40
2.000000
 50
0.000000
 51
89.000359
  0
ARC
  8
0
  6
CONTINUOUS
 10
71.129997
 20
20.952921
 40
2.000000
 50
-88.999634
 51
0.000000
  0
ARC
  8
0
  6
CONTINUOUS
 10
76.129997
 20
96.004997
 40
1.000000
 50
0.000000
 51
90.000000
  0
ARC
  8
0
  6
CONTINUOUS
 10
76.129997
 20
58.004993
 40
1.000000
 50
-90.000000
 51
0.000000
  0
LINE
  8
0
  6
CONTINUOUS
 10
11.130000
 20
35.305012
 11
11.130000
 21
14.505000
  0
LINE
  8
0
  6
CONTINUOUS
 10
2.130000
 20
115.004997
 11
9.979010
 21
115.004997
  0
LINE
  8
0
  6
CONTINUOUS
 10
9.595351
 20
13.005000
 11
2.130000
 21
13.005000
  0
LINE
  8
0
  6
CONTINUOUS
 10
14.130020
 20
89.705002
 11
71.161247
 21
89.705002
  0
LINE
  8
0
  6
CONTINUOUS
 10
14.130010
 20
38.305000
 11
71.692497
 21
38.305000
  0
ARC
  8
0
  6
CONTINUOUS
 10
9.630000
 20
14.505000
 40
1.500000
 50
-90.000000
 51
0.000000
  0
LINE
  8
0
  6
CONTINUOUS
 10
11.427899
 20
113.893219
 11
11.867700
 21
112.251862
  0
ARC
  8
0
  6
CONTINUOUS
 10
14.763110
 20
113.024040
 40
3.000000
 50
194.932602
 51
269.000610
  0
ARC
  8
0
  6
CONTINUOUS
 10
9.979010
 20
113.504997
 40
1.500000
 50
15.000070
 51
90.000000
  0
ARC
  8
0
  6
CONTINUOUS
 10
14.130000
 20
92.705002
 40
3.000000
 50
180.000000
 51
270.000000
  0
ARC
  8
0
  6
CONTINUOUS
 10
14.130020
 20
35.305019
 40
3.000000
 50
90.000000
 51
180.000000
  0
ARC
  8
0
  6
CONTINUOUS
 10
75.129997
 20
99.004997
 40
2.000000
 50
180.000000
 51
270.000000
  0
ARC
  8
0
  6
CONTINUOUS
 10
75.130020
 20
55.005009
 40
2.000000
 50
90.000000
 51
180.000000
  0
LINE
  8
0
  6
CONTINUOUS
 10
79.129997
 20
84.504997
 11
106.129997
 21
84.504997
  0
LINE
  8
0
  6
CONTINUOUS
 10
79.129997
 20
69.504997
 11
106.129997
 21
69.504997
  0
LINE
  8
0
  6
CONTINUOUS
 10
106.129997
 20
69.504997
 11
106.129997
 21
84.504997
  0
LINE
  8
0
  6
CONTINUOUS
 10
79.129997
 20
85.504997
 11
79.129997
 21
68.504997
  0
LINE
  8
0
  6
CONTINUOUS
 10
84.630020
 20
74.504997
 11
106.129997
 21
74.504997
  0
LINE
  8
0
  6
CONTINUOUS
 10
84.629997
 20
79.504997
 11
106.129997
 21
79.504997
  0
ARC
  8
0
  6
CONTINUOUS
 10
84.630020
 20
77.005013
 40
2.500000
 50
90.000000
 51
180.000000
  0
ARC
  8
0
  6
CONTINUOUS
 10
84.629997
 20
77.004997
 40
2.500000
 50
180.000000
 51
270.000000
  0
LINE
  8
0
  6
CENTER
 10
-1.588750
 20
107.004997
 11
14.661250
 21
107.004997
  0
LINE
  8
0
  6
CENTER
 10
-0.588750
 20
21.004999
 11
14.411250
 21
21.004999
  0
LINE
  8
0
  6
DASHED
 10
2.130000
 20
24.254999
 11
11.130019
 21
24.254999
  0
LINE
  8
0
  6
DASHED
 10
2.130000
 20
17.754999
 11
11.130000
 21
17.754999
  0
LINE
  8
0
  6
DASHED
 10
2.130000
 20
110.254997
 11
11.130000
 21
110.254997
  0
LINE
  8
0
  6
DASHED
 10
2.130000
 20
103.754997
 11
11.130000
 21
103.754997
  0
LINE
  8
0
  6
CONTINUOUS
 10
21.129999
 20
16.705000
 11
63.130001
 21
16.705000
  0
ARC
  8
0
  6
CONTINUOUS
 10
63.130001
 20
18.705000
 40
2.000000
 50
-90.000000
 51
0.000000
  0
ARC
  8
0
  6
CONTINUOUS
 10
21.129999
 20
18.705000
 40
2.000000
 50
199.216995
 51
270.000000
  0
LINE
  8
0
  6
CONTINUOUS
 10
65.129997
 20
18.705000
 11
65.129997
 21
18.847780
  0
ARC
  8
0
  6
CONTINUOUS
 10
42.130001
 20
54.704998
 40
38.000000
 50
-35.334469
 51
21.294241
  0
LINE
  8
0
  6
CENTER
 10
-4.070001
 20
54.704998
 11
89.879997
 21
54.704998
  0
ARC
  8
0
  6
CONTINUOUS
 10
13.129990
 20
112.052391
 40
2.000000
 50
180.000000
 51
269.000610
  0
LINE
  8
0
  6
CONTINUOUS
 10
11.130000
 20
114.466881
 11
11.130000
 21
92.704979
  0
ARC
  8
0
  6
CONTINUOUS
 10
13.130010
 20
15.939730
 40
2.000000
 50
91.000633
 51
180.000000
  0
LINE
  8
0
  6
CONTINUOUS
 10
11.527200
 20
14.487360
 11
11.864039
 21
15.744500
  0
ARC
  8
0
  6
CONTINUOUS
 10
9.595340
 20
15.005000
 40
2.000000
 50
270.000000
 51
345.000092
  0
ARC
  8
0
  6
CONTINUOUS
 10
14.761830
 20
14.968070
 40
3.000000
 50
91.000488
 51
165.000305
  0
LINE
  8
0
  6
CONTINUOUS
 10
77.129997
 20
85.504997
 11
79.129997
 21
85.504997
  0
LINE
  8
0
  6
CONTINUOUS
 10
77.129997
 20
68.504997
 11
79.129997
 21
68.504997
  0
LINE
  8
0
  6
CONTINUOUS
 10
82.129997
 20
31.705000
 11
82.129997
 21
69.504997
  0
LINE
  8
0
  6
CONTINUOUS
 10
20.201059
 20
14.705000
 11
65.129997
 21
14.705000
  0
LINE
  8
0
  6
CONTINUOUS
 10
79.129997
 20
28.705000
 11
75.526962
 21
28.705000
  0
LINE
  8
0
  6
CONTINUOUS
 10
68.129997
 20
17.705000
 11
68.129997
 21
18.900240
  0
LINE
  8
0
  6
CONTINUOUS
 10
73.129997
 20
26.308029
 11
75.526962
 21
28.705000
  0
LINE
  8
0
  6
CONTINUOUS
 10
16.665541
 20
16.169451
 11
14.864680
 21
17.970301
  0
ARC
  8
0
  6
CONTINUOUS
 10
79.129997
 20
31.704990
 40
3.000000
 50
-90.000000
 51
0.000000
  0
ARC
  8
0
  6
CONTINUOUS
 10
65.129990
 20
17.704981
 40
3.000000
 50
-90.000000
 51
0.000000
  0
ARC
  8
0
  6
CONTINUOUS
 10
20.201059
 20
19.705000
 40
5.000000
 50
225.000107
 51
270.000000
  0
LINE
  8
0
  6
CONTINUOUS
 10
327.130005
 20
16.705000
 11
327.130005
 21
92.705002
  0
LINE
  8
0
  6
CENTER
 10
394.374695
 20
54.705002
 11
234.460007
 21
54.705002
  0
LINE
  8
0
  6
CONTINUOUS
 10
327.130005
 20
92.705002
 11
250.355377
 21
92.705002
  0
LINE
  8
0
  6
CONTINUOUS
 10
256.630005
 20
16.705000
 11
327.130005
 21
16.705000
  0
LINE
  8
0
  6
CONTINUOUS
 10
244.130005
 20
13.005000
 11
180.130005
 21
13.005000
  0
LINE
  8
0
  6
CONTINUOUS
 10
244.130005
 20
115.004997
 11
180.130005
 21
115.004997
  0
LINE
  8
0
  6
CONTINUOUS
 10
254.630005
 20
89.705002
 11
254.630005
 21
24.705009
  0
LINE
  8
0
  6
CENTER
 10
212.130005
 20
125.547188
 11
212.130005
 21
3.767500
  0
LINE
  8
0
  6
CENTER
 10
180.130005
 20
27.142500
 11
180.130005
 21
15.642500
  0
LINE
  8
0
  6
CENTER
 10
185.973694
 20
21.004999
 11
173.723694
 21
21.004999
  0
CIRCLE
  8
0
  6
CONTINUOUS
 10
180.130005
 20
21.004999
 40
3.250000
  0
LINE
  8
0
  6
CENTER
 10
180.130005
 20
100.867500
 11
180.130005
 21
112.367500
  0
CIRCLE
  8
0
  6
CONTINUOUS
 10
180.130005
 20
107.004997
 40
3.250000
  0
LINE
  8
0
  6
CENTER
 10
244.130005
 20
100.867500
 11
244.130005
 21
112.367500
  0
LINE
  8
0
  6
CENTER
 10
238.286194
 20
107.004997
 11
250.536301
 21
107.004997
  0
CIRCLE
  8
0
  6
CONTINUOUS
 10
244.130005
 20
107.004997
 40
3.250000
  0
LINE
  8
0
  6
CENTER
 10
244.130005
 20
27.142500
 11
244.130005
 21
15.642500
  0
LINE
  8
0
  6
CENTER
 10
238.286194
 20
21.004999
 11
250.536301
 21
21.004999
  0
CIRCLE
  8
0
  6
CONTINUOUS
 10
244.130005
 20
21.004999
 40
3.250000
  0
LINE
  8
0
  6
CONTINUOUS
 10
169.630005
 20
89.705002
 11
169.630005
 21
38.305012
  0
LINE
  8
0
  6
CONTINUOUS
 10
172.207306
 20
108.114159
 11
169.630005
 21
89.705002
  0
LINE
  8
0
  6
CONTINUOUS
 10
172.207306
 20
19.895880
 11
169.630005
 21
38.305012
  0
LINE
  8
0
  6
CONTINUOUS
 10
252.052704
 20
19.895800
 11
253.214096
 21
28.191299
  0
LINE
  8
0
  6
CONTINUOUS
 10
252.052704
 20
108.114151
 11
254.209991
 21
92.705002
  0
LINE
  8
0
  6
CENTER
 10
243.485001
 20
77.004997
 11
181.307495
 21
77.004997
  0
LINE
  8
0
  6
CONTINUOUS
 10
202.630005
 20
79.504997
 11
202.630005
 21
74.504997
  0
LINE
  8
0
  6
CONTINUOUS
 10
207.630005
 20
74.504997
 11
207.630005
 21
79.504997
  0
LINE
  8
0
  6
CONTINUOUS
 10
207.630005
 20
79.504997
 11
202.630005
 21
79.504997
  0
LINE
  8
0
  6
CONTINUOUS
 10
207.630005
 20
74.504997
 11
202.630005
 21
74.504997
  0
ARC
  8
0
  6
CONTINUOUS
 10
212.130005
 20
77.004997
 40
7.500000
 50
-160.528793
 51
160.528793
  0
ARC
  8
0
  6
CONTINUOUS
 10
180.130005
 20
107.004997
 40
8.000000
 50
90.000000
 51
172.030304
  0
ARC
  8
0
  6
CONTINUOUS
 10
244.130005
 20
107.004997
 40
8.000000
 50
7.969498
 51
90.000000
  0
ARC
  8
0
  6
CONTINUOUS
 10
244.130005
 20
21.004999
 40
8.000000
 50
-90.000000
 51
-7.969604
  0
ARC
  8
0
  6
CONTINUOUS
 10
180.130005
 20
21.004999
 40
8.000000
 50
-172.030304
 51
-90.000000
  0
LINE
  8
0
  6
CONTINUOUS
 10
254.630005
 20
18.705000
 11
254.630005
 21
24.705009
  0
ARC
  8
0
  6
CONTINUOUS
 10
256.630005
 20
18.705000
 40
2.000000
 50
180.000000
 51
270.000000
  0
ARC
  8
0
  6
CONTINUOUS
 10
249.630005
 20
24.705021
 40
5.000000
 50
0.000000
 51
90.000000
  0
LINE
  8
0
  6
CONTINUOUS
 10
327.130005
 20
84.953972
 11
255.380005
 21
84.953972
  0
LINE
  8
0
  6
CONTINUOUS
 10
327.130005
 20
24.456039
 11
255.130005
 21
24.456039
  0
LINE
  8
0
  6
CONTINUOUS
 10
198.709503
 20
109.004997
 11
225.550507
 21
109.004997
  0
LINE
  8
0
  6
CONTINUOUS
 10
225.550507
 20
19.004999
 11
198.709503
 21
19.004999
  0
LINE
  8
0
  6
CONTINUOUS
 10
228.422806
 20
108.097656
 11
254.630005
 21
89.705002
  0
LINE
  8
0
  6
CONTINUOUS
 10
195.837204
 20
108.097656
 11
169.630005
 21
89.705002
  0
LINE
  8
0
  6
CONTINUOUS
 10
195.837204
 20
19.912340
 11
169.630005
 21
38.305012
  0
LINE
  8
0
  6
CONTINUOUS
 10
241.083298
 20
28.797661
 11
228.422806
 21
19.912340
  0
LINE
  8
0
  6
CONTINUOUS
 10
243.955597
 20
29.705000
 11
249.630005
 21
29.705000
  0
ARC
  8
0
  6
CONTINUOUS
 10
225.550598
 20
104.004997
 40
5.000000
 50
54.938221
 51
90.000000
  0
ARC
  8
0
  6
CONTINUOUS
 10
198.709503
 20
104.005013
 40
5.000000
 50
90.000000
 51
125.062103
  0
ARC
  8
0
  6
CONTINUOUS
 10
198.709503
 20
24.004999
 40
5.000000
 50
234.938095
 51
270.000000
  0
ARC
  8
0
  6
CONTINUOUS
 10
225.550507
 20
24.004999
 40
5.000000
 50
270.000000
 51
305.061890
  0
ARC
  8
0
  6
CONTINUOUS
 10
243.955597
 20
24.705009
 40
5.000000
 50
90.000000
 51
125.062103
  0
CIRCLE
  8
0
  6
CONTINUOUS
 10
212.130005
 20
77.004997
 40
20.000000
  0
LINE
  8
0
  6
CENTER
 10
174.817505
 20
107.004997
 11
185.505005
 21
107.004997
  0
LINE
  8
0
  6
CONTINUOUS
 10
203.763794
 20
41.005001
 11
200.298203
 21
41.005001
  0
LINE
  8
0
  6
CONTINUOUS
 10
205.676697
 20
46.809959
 11
205.676697
 21
41.005001
  0
LINE
  8
0
  6
CONTINUOUS
 10
209.008698
 20
48.918495
 11
209.008698
 21
51.000984
  0
LINE
  8
0
  6
CONTINUOUS
 10
215.672699
 20
48.918495
 11
215.672699
 21
51.000984
  0
LINE
  8
0
  6
CONTINUOUS
 10
211.689896
 20
49.777519
 11
211.689896
 21
42.098309
  0
LINE
  8
0
  6
CONTINUOUS
 10
212.939407
 20
49.777519
 11
212.939407
 21
42.098309
  0
LINE
  8
0
  6
CONTINUOUS
 10
219.499298
 20
49.777519
 11
219.499298
 21
42.046242
  0
LINE
  8
0
  6
CONTINUOUS
 10
220.644699
 20
45.677608
 11
220.644699
 21
42.046242
  0
LINE
  8
0
  6
CONTINUOUS
 10
204.095596
 20
49.673393
 11
200.884506
 21
49.673393
  0
LINE
  8
0
  6
CONTINUOUS
 10
201.381607
 20
42.176399
 11
200.896500
 21
42.176399
  0
LINE
  8
0
  6
CONTINUOUS
 10
200.884506
 20
49.673393
 11
200.132095
 21
48.740440
  0
LINE
  8
0
  6
CONTINUOUS
 10
200.222595
 20
51.000984
 11
199.012695
 21
49.451820
  0
LINE
  8
0
  6
CONTINUOUS
 10
200.132095
 20
42.981621
 11
200.896500
 21
42.176399
  0
LINE
  8
0
  6
CONTINUOUS
 10
199.012695
 20
42.302101
 11
200.298203
 21
41.005001
  0
LINE
  8
0
  6
CONTINUOUS
 10
199.012695
 20
49.451820
 11
199.012695
 21
42.302101
  0
LINE
  8
0
  6
CONTINUOUS
 10
200.132095
 20
48.740440
 11
200.132095
 21
42.981621
  0
LINE
  8
0
  6
CONTINUOUS
 10
204.713593
 20
49.076057
 11
204.082993
 21
49.673393
  0
LINE
  8
0
  6
CONTINUOUS
 10
204.703598
 20
51.000984
 11
205.676697
 21
49.921017
  0
LINE
  8
0
  6
CONTINUOUS
 10
204.713593
 20
48.918495
 11
205.676697
 21
48.918495
  0
LINE
  8
0
  6
CONTINUOUS
 10
200.222595
 20
51.000984
 11
204.703598
 21
51.000984
  0
LINE
  8
0
  6
CONTINUOUS
 10
202.969498
 20
46.809959
 11
205.676697
 21
46.809959
  0
LINE
  8
0
  6
CONTINUOUS
 10
204.713593
 20
45.716656
 11
202.969498
 21
45.716656
  0
LINE
  8
0
  6
CONTINUOUS
 10
202.214600
 20
42.176399
 11
201.381607
 21
42.176399
  0
LINE
  8
0
  6
CONTINUOUS
 10
204.713593
 20
44.675411
 11
204.713593
 21
45.508404
  0
LINE
  8
0
  6
CONTINUOUS
 10
202.631104
 20
42.176399
 11
202.214600
 21
42.176399
  0
LINE
  8
0
  6
CONTINUOUS
 10
204.713593
 20
44.258911
 11
204.713593
 21
44.675411
  0
LINE
  8
0
  6
CONTINUOUS
 10
204.713593
 20
44.203590
 11
204.713593
 21
44.258911
  0
ARC
  8
0
  6
CONTINUOUS
 10
202.631104
 20
44.258911
 40
2.082500
 50
-89.999786
 51
0.000109
  0
LINE
  8
0
  6
CONTINUOUS
 10
204.713593
 20
41.801830
 11
204.713593
 21
41.005001
  0
LINE
  8
0
  6
CONTINUOUS
 10
205.676697
 20
49.921017
 11
205.676697
 21
48.918495
  0
LINE
  8
0
  6
CONTINUOUS
 10
204.713593
 20
45.716656
 11
204.713593
 21
44.258911
  0
LINE
  8
0
  6
CONTINUOUS
 10
202.969498
 20
46.809959
 11
202.969498
 21
45.716656
  0
LINE
  8
0
  6
CONTINUOUS
 10
204.713593
 20
45.508404
 11
204.713593
 21
45.716656
  0
LINE
  8
0
  6
CONTINUOUS
 10
204.713593
 20
41.005001
 11
205.676697
 21
41.005001
  0
LINE
  8
0
  6
CONTINUOUS
 10
204.713593
 20
41.801830
 11
203.763794
 21
41.005001
  0
LINE
  8
0
  6
CONTINUOUS
 10
212.939407
 20
42.098309
 11
213.355896
 21
42.098309
  0
LINE
  8
0
  6
CONTINUOUS
 10
211.195297
 20
42.098309
 11
211.195297
 21
41.005001
  0
LINE
  8
0
  6
CONTINUOUS
 10
213.355896
 20
42.098309
 11
213.355896
 21
41.005001
  0
LINE
  8
0
  6
CONTINUOUS
 10
214.977600
 20
48.918495
 11
215.672699
 21
48.918495
  0
LINE
  8
0
  6
CONTINUOUS
 10
209.008698
 20
48.918495
 11
209.748398
 21
48.918495
  0
LINE
  8
0
  6
CONTINUOUS
 10
209.008698
 20
51.000984
 11
215.672699
 21
51.000984
  0
LINE
  8
0
  6
CONTINUOUS
 10
211.195297
 20
41.005001
 11
213.355896
 21
41.005001
  0
LINE
  8
0
  6
CONTINUOUS
 10
211.195297
 20
42.098309
 11
211.689896
 21
42.098309
  0
ARC
  8
0
  6
CONTINUOUS
 10
223.000504
 20
48.332790
 40
2.668203
 50
-73.981873
 51
90.003510
  0
ARC
  8
0
  6
CONTINUOUS
 10
223.000504
 20
48.332790
 40
1.627786
 50
-82.585274
 51
62.411850
  0
LINE
  8
0
  6
CONTINUOUS
 10
219.004700
 20
51.000984
 11
223.000504
 21
51.000984
  0
LINE
  8
0
  6
CONTINUOUS
 10
223.210602
 20
46.718609
 11
220.644699
 21
46.718609
  0
LINE
  8
0
  6
CONTINUOUS
 10
219.004700
 20
51.000984
 11
219.004700
 21
49.777519
  0
LINE
  8
0
  6
CONTINUOUS
 10
220.644699
 20
49.777519
 11
220.644699
 21
46.718609
  0
LINE
  8
0
  6
CONTINUOUS
 10
223.736801
 20
45.768185
 11
225.388199
 21
42.046242
  0
LINE
  8
0
  6
CONTINUOUS
 10
222.777603
 20
45.677608
 11
224.340500
 21
42.046242
  0
LINE
  8
0
  6
CONTINUOUS
 10
219.004700
 20
42.046242
 11
219.499298
 21
42.046242
  0
LINE
  8
0
  6
CONTINUOUS
 10
220.644699
 20
42.046242
 11
221.100204
 21
42.046242
  0
LINE
  8
0
  6
CONTINUOUS
 10
221.100204
 20
41.005001
 11
219.004700
 21
41.005001
  0
LINE
  8
0
  6
CONTINUOUS
 10
224.132904
 20
42.046242
 11
224.340500
 21
42.046242
  0
LINE
  8
0
  6
CONTINUOUS
 10
225.388199
 20
42.046242
 11
225.668701
 21
42.046242
  0
LINE
  8
0
  6
CONTINUOUS
 10
224.132904
 20
41.005001
 11
225.668701
 21
41.005001
  0
LINE
  8
0
  6
CONTINUOUS
 10
225.668701
 20
42.046242
 11
225.668701
 21
41.005001
  0
LINE
  8
0
  6
CONTINUOUS
 10
224.132904
 20
42.046242
 11
224.132904
 21
41.005001
  0
LINE
  8
0
  6
CONTINUOUS
 10
221.100204
 20
42.046242
 11
221.100204
 21
41.005001
  0
LINE
  8
0
  6
CONTINUOUS
 10
219.004700
 20
42.046242
 11
219.004700
 21
41.005001
  0
LINE
  8
0
  6
CONTINUOUS
 10
210.106400
 20
49.777519
 11
209.748398
 21
48.918495
  0
LINE
  8
0
  6
CONTINUOUS
 10
214.675797
 20
49.777519
 11
214.977600
 21
48.918495
  0
LINE
  8
0
  6
CONTINUOUS
 10
212.939407
 20
49.777519
 11
214.675797
 21
49.777519
  0
LINE
  8
0
  6
CONTINUOUS
 10
211.689896
 20
49.777519
 11
210.106400
 21
49.777519
  0
LINE
  8
0
  6
CONTINUOUS
 10
220.644699
 20
45.677608
 11
222.777603
 21
45.677608
  0
LINE
  8
0
  6
CONTINUOUS
 10
219.004700
 20
49.777519
 11
219.499298
 21
49.777519
  0
LINE
  8
0
  6
CONTINUOUS
 10
220.644699
 20
49.777519
 11
223.754395
 21
49.775509
  0
LINE
  8
0
  6
CONTINUOUS
 10
204.713593
 20
49.076057
 11
204.713593
 21
48.918495
  0
LINE
  8
0
  6
CONTINUOUS
 10
336.630005
 20
92.705002
 11
327.130005
 21
92.705002
  0
LINE
  8
0
  6
CONTINUOUS
 10
336.630005
 20
16.705000
 11
327.130005
 21
16.705000
  0
LINE
  8
0
  6
CONTINUOUS
 10
336.630005
 20
14.705000
 11
336.630005
 21
94.705002
  0
LINE
  8
0
  6
CONTINUOUS
 10
336.630005
 20
84.954002
 11
327.130005
 21
84.954002
  0
LINE
  8
0
  6
CONTINUOUS
 10
336.630005
 20
24.455999
 11
327.130005
 21
24.455999
  0
LINE
  8
0
  6
CONTINUOUS
 10
380.630005
 20
94.705002
 11
336.630005
 21
94.705002
  0
LINE
  8
0
  6
CONTINUOUS
 10
380.630005
 20
14.705000
 11
336.630005
 21
14.705000
  0
LINE
  8
0
  6
CONTINUOUS
 10
385.630005
 20
19.705000
 11
385.630005
 21
89.705002
  0
ARC
  8
0
  6
CONTINUOUS
 10
380.630005
 20
89.705017
 40
5.000000
 50
0.000000
 51
90.000000
  0
ARC
  8
0
  6
CONTINUOUS
 10
380.630005
 20
19.705000
 40
5.000000
 50
-90.000000
 51
0.000000
  0
LINE
  8
0
  6
CONTINUOUS
 10
383.130005
 20
28.705000
 11
336.630005
 21
28.705000
  0
LINE
  8
0
  6
CONTINUOUS
 10
383.130005
 20
78.705002
 11
336.630005
 21
78.705002
  0
LINE
  8
0
  6
CONTINUOUS
 10
334.630005
 20
94.205002
 11
288.130005
 21
94.205002
  0
LINE
  8
0
  6
CONTINUOUS
 10
286.130005
 20
124.205002
 11
286.130005
 21
96.205002
  0
LINE
  8
0
  6
CONTINUOUS
 10
336.130005
 20
124.205002
 11
336.130005
 21
96.205002
  0
LINE
  8
0
  6
CONTINUOUS
 10
338.130005
 20
106.205002
 11
286.130005
 21
106.205002
  0
LINE
  8
0
  6
CONTINUOUS
 10
288.130005
 20
94.205002
 11
286.130005
 21
96.205002
  0
LINE
  8
0
  6
CONTINUOUS
 10
336.130005
 20
96.205002
 11
334.130005
 21
94.205002
  0
LINE
  8
0
  6
CONTINUOUS
 10
336.130005
 20
96.205002
 11
286.130005
 21
96.205002
  0
LINE
  8
0
  6
CONTINUOUS
 10
335.130005
 20
125.205002
 11
287.130005
 21
125.205002
  0
LINE
  8
0
  6
CONTINUOUS
 10
287.130005
 20
125.205002
 11
286.130005
 21
124.205002
  0
LINE
  8
0
  6
CONTINUOUS
 10
335.130005
 20
125.205002
 11
336.130005
 21
124.205002
  0
LINE
  8
0
  6
CONTINUOUS
 10
336.130005
 20
124.205002
 11
286.130005
 21
124.205002
  0
LINE
  8
0
  6
CENTER
 10
344.073792
 20
115.705002
 11
331.998688
 21
115.705002
  0
LINE
  8
0
  6
CONTINUOUS
 10
338.130005
 20
122.205002
 11
338.130005
 21
106.205002
  0
LINE
  8
0
  6
CONTINUOUS
 10
337.130005
 20
123.205002
 11
336.130005
 21
123.205002
  0
ARC
  8
0
  6
CONTINUOUS
 10
337.130005
 20
122.205002
 40
1.000000
 50
0.000000
 51
90.000000
  0
LINE
  8
0
  6
CONTINUOUS
 10
341.630005
 20
119.705002
 11
341.630005
 21
111.705002
  0
LINE
  8
0
  6
CONTINUOUS
 10
341.630005
 20
119.705002
 11
338.130005
 21
121.205002
  0
LINE
  8
0
  6
CONTINUOUS
 10
341.630005
 20
111.705002
 11
338.130005
 21
110.205002
  0
LINE
  8
0
  6
CENTER
 10
311.130005
 20
87.855621
 11
311.130005
 21
135.793442
  0
LINE
  8
0
  6
CONTINUOUS
 10
334.630005
 20
94.205002
 11
334.630005
 21
92.705002
  0
LINE
  8
0
  6
CONTINUOUS
 10
288.630005
 20
94.205002
 11
288.630005
 21
92.705002
  0
LINE
  8
0
  6
CONTINUOUS
 10
67.129990
 20
124.204987
 11
67.129997
 21
109.109711
  0
LINE
  8
0
  6
CONTINUOUS
 10
17.129999
 20
124.204987
 11
17.129999
 21
109.982262
  0
LINE
  8
0
  6
CONTINUOUS
 10
18.129999
 20
125.204987
 11
66.129990
 21
125.204987
  0
LINE
  8
0
  6
CONTINUOUS
 10
66.129990
 20
125.204987
 11
67.129990
 21
124.204987
  0
LINE
  8
0
  6
CONTINUOUS
 10
18.129999
 20
125.204987
 11
17.129999
 21
124.204987
  0
LINE
  8
0
  6
CONTINUOUS
 10
17.129999
 20
124.204987
 11
67.129990
 21
124.204987
  0
TEXT
  8
0
 10
-68.000000
 20
3.000000
 40
4.000000
 41
1.000000
  1
HFM-15L-10~120-S40T
 50
0.000000
  0
ENDSEC
  0
EOF
