  0
SECTION
  2
HEADER
  9
$CLAYER
  8
1
  9
$LTSCALE
 40
3.0
  0
ENDSEC
  0
SECTION
  2
TABLES
  0
TABLE
  2
LTYPE
 70
     4
  0
LTYPE
  2
CONTINUOUS
  3
solid line
 70
    64
 72
    65
 73
     0
 40
0.0
  0
LTYPE
  2
DASHED
  3
__ __ __ __ __ __ __ __ __ __ __ __ __ __ __
 70
    64
 72
    65
 73
     2
 40
0.75
 49
0.5
 49
-0.25
  0
LTYPE
  2
CENTER
  3
____ _ ____ _ ____ _ ____ _ ____ _ ____ _ ____
 70
    64
 72
    65
 73
     4
 40
2.0
 49
1.25
 49
-0.25
 49
0.25
 49
-0.25
  0
LTYPE
  2
PHANTOM
  3
_____ _ _ _____ _ _ _____ _ _ _____ _ _ ____
 70
    64
 72
    65
 73
     6
 40
2.5
 49
1.25
 49
-0.25
 49
0.25
 49
-0.25
 49
0.25
 49
-0.25
  0
ENDTAB
  0
TABLE
  2
LAYER
 70
     1
  0
LAYER
  2
0
 70
    64
 62
     7
  6
CONTINUOUS
  0
ENDTAB
  0
TABLE
  2
STYLE
 70
     1
  0
STYLE
  2
STANDARD
 70
     0
 40
0.000000
 41
1.000000
 50
0.000000
 71
     0
 42
3.000000
  3
txt
  4
BIGFONT
  0
ENDTAB
  0
ENDSEC
  0
SECTION
  2
BLOCKS
  0
ENDSEC
  0
SECTION
  2
ENTITIES
  0
LINE
  8
0
  6
CENTER
 10
212.580002
 20
179.830002
 11
212.580002
 21
300.125000
  0
LINE
  8
0
  6
CENTER
 10
358.079987
 20
248.330002
 11
164.080002
 21
248.330002
  0
LINE
  8
0
  6
CONTINUOUS
 10
173.887512
 20
217.330002
 11
253.131683
 21
217.330002
  0
LINE
  8
0
  6
CONTINUOUS
 10
257.211609
 20
210.330002
 11
327.579987
 21
210.330002
  0
LINE
  8
0
  6
CONTINUOUS
 10
286.580017
 20
225.330002
 11
251.660324
 21
225.330002
  0
LINE
  8
0
  6
CONTINUOUS
 10
254.289139
 20
279.329987
 11
171.289825
 21
279.329987
  0
LINE
  8
0
  6
CONTINUOUS
 10
256.593597
 20
286.329987
 11
327.579987
 21
286.329987
  0
LINE
  8
0
  6
CONTINUOUS
 10
286.580017
 20
271.329987
 11
255.525162
 21
271.329987
  0
LINE
  8
0
  6
CONTINUOUS
 10
232.580002
 20
214.330002
 11
232.580002
 21
217.330002
  0
LINE
  8
0
  6
CONTINUOUS
 10
192.580002
 20
214.330002
 11
192.580002
 21
217.330002
  0
LINE
  8
0
  6
CONTINUOUS
 10
193.580002
 20
213.330002
 11
231.580002
 21
213.330002
  0
ARC
  8
0
  6
CONTINUOUS
 10
231.580002
 20
214.330002
 40
1.000000
 50
-90.000000
 51
0.000000
  0
ARC
  8
0
  6
CONTINUOUS
 10
193.580002
 20
214.330002
 40
1.000000
 50
180.000000
 51
270.000000
  0
LINE
  8
0
  6
CONTINUOUS
 10
220.080002
 20
184.330002
 11
220.080002
 21
211.330002
  0
LINE
  8
0
  6
CONTINUOUS
 10
220.080002
 20
184.330002
 11
203.080002
 21
184.330002
  0
LINE
  8
0
  6
CONTINUOUS
 10
221.080002
 20
211.330002
 11
204.080002
 21
211.330002
  0
LINE
  8
0
  6
CONTINUOUS
 10
221.080002
 20
211.330002
 11
221.080002
 21
213.330002
  0
LINE
  8
0
  6
CONTINUOUS
 10
204.080002
 20
211.330002
 11
204.080002
 21
213.330002
  0
LINE
  8
0
  6
CONTINUOUS
 10
203.080002
 20
208.330002
 11
203.080002
 21
184.330002
  0
LINE
  8
0
  6
CONTINUOUS
 10
205.509003
 20
208.330002
 11
205.509003
 21
184.330002
  0
LINE
  8
0
  6
CONTINUOUS
 10
205.509003
 20
208.330002
 11
203.080002
 21
208.330002
  0
LINE
  8
0
  6
CONTINUOUS
 10
205.080002
 20
208.330002
 11
205.080002
 21
211.330002
  0
LINE
  8
0
  6
CONTINUOUS
 10
197.580002
 20
278.329987
 11
197.580002
 21
219.295090
  0
LINE
  8
0
  6
CONTINUOUS
 10
227.580002
 20
278.329987
 11
227.580002
 21
219.295090
  0
LINE
  8
0
  6
CONTINUOUS
 10
255.289413
 20
225.327255
 11
255.130997
 21
219.277649
  0
LINE
  8
0
  6
CONTINUOUS
 10
250.805389
 20
278.148743
 11
250.805389
 21
227.329727
  0
LINE
  8
0
  6
CONTINUOUS
 10
255.080002
 20
288.329987
 11
170.080002
 21
288.329987
  0
LINE
  8
0
  6
CONTINUOUS
 10
171.888199
 20
219.277649
 11
170.080002
 21
288.329987
  0
ARC
  8
0
  6
CONTINUOUS
 10
173.887512
 20
219.330002
 40
2.000000
 50
181.500000
 51
270.000000
  0
LINE
  8
0
  6
CONTINUOUS
 10
256.127441
 20
248.330002
 11
255.080002
 21
288.329987
  0
LINE
  8
0
  6
CONTINUOUS
 10
172.657303
 20
288.329987
 11
172.657303
 21
280.640320
  0
LINE
  8
0
  6
CONTINUOUS
 10
252.502701
 20
288.329987
 11
252.502701
 21
280.640320
  0
ARC
  8
0
  6
CONTINUOUS
 10
228.580002
 20
278.329987
 40
1.000000
 50
90.000000
 51
180.000000
  0
ARC
  8
0
  6
CONTINUOUS
 10
196.580002
 20
278.329987
 40
1.000000
 50
0.000000
 51
90.000000
  0
LINE
  8
0
  6
CONTINUOUS
 10
227.580002
 20
278.010010
 11
197.580002
 21
278.010010
  0
ARC
  8
0
  6
CONTINUOUS
 10
171.289825
 20
280.329987
 40
1.000000
 50
181.500000
 51
270.000000
  0
LINE
  8
0
  6
CONTINUOUS
 10
255.212296
 20
212.277649
 11
255.130997
 21
215.382355
  0
ARC
  8
0
  6
CONTINUOUS
 10
254.289139
 20
280.329987
 40
1.000000
 50
-90.000000
 51
1.499999
  0
ARC
  8
0
  6
CONTINUOUS
 10
256.593597
 20
287.829987
 40
1.500000
 50
181.500000
 51
270.000000
  0
ARC
  8
0
  6
CONTINUOUS
 10
257.211609
 20
212.330002
 40
2.000000
 50
181.500000
 51
270.000000
  0
ARC
  8
0
  6
CONTINUOUS
 10
253.131683
 20
215.330002
 40
2.000000
 50
1.500000
 51
90.000000
  0
ARC
  8
0
  6
CONTINUOUS
 10
253.131683
 20
219.330002
 40
2.000000
 50
270.000000
 51
358.500000
  0
LINE
  8
0
  6
CENTER
 10
180.580002
 20
292.220154
 11
180.580002
 21
275.079376
  0
LINE
  8
0
  6
DASHED
 10
177.330002
 20
279.329987
 11
177.330002
 21
288.329987
  0
LINE
  8
0
  6
DASHED
 10
183.830002
 20
279.329987
 11
183.830002
 21
288.329987
  0
LINE
  8
0
  6
CENTER
 10
244.580002
 20
292.220154
 11
244.580002
 21
275.079376
  0
LINE
  8
0
  6
DASHED
 10
247.830002
 20
279.329987
 11
247.830002
 21
288.329987
  0
LINE
  8
0
  6
DASHED
 10
241.330002
 20
279.329987
 11
241.330002
 21
288.329987
  0
LINE
  8
0
  6
CONTINUOUS
 10
327.579987
 20
210.330002
 11
327.579987
 21
223.330002
  0
LINE
  8
0
  6
CONTINUOUS
 10
327.579987
 20
210.330002
 11
344.115875
 21
210.330002
  0
LINE
  8
0
  6
CONTINUOUS
 10
347.579987
 20
213.330002
 11
347.579987
 21
283.329987
  0
LINE
  8
0
  6
CONTINUOUS
 10
327.579987
 20
286.329987
 11
344.115875
 21
286.329987
  0
LINE
  8
0
  6
CONTINUOUS
 10
336.579987
 20
271.329987
 11
345.998383
 21
271.329987
  0
LINE
  8
0
  6
CONTINUOUS
 10
336.579987
 20
225.330002
 11
345.998383
 21
225.330002
  0
LINE
  8
0
  6
CONTINUOUS
 10
346.713989
 20
211.830002
 11
347.579987
 21
213.330002
  0
ARC
  8
0
  6
CONTINUOUS
 10
344.115875
 20
213.330002
 40
3.000000
 50
270.000000
 51
330.000397
  0
LINE
  8
0
  6
CONTINUOUS
 10
346.713989
 20
284.829987
 11
347.579987
 21
283.329987
  0
ARC
  8
0
  6
CONTINUOUS
 10
344.115875
 20
283.329987
 40
3.000000
 50
29.999599
 51
90.000000
  0
LINE
  8
0
  6
CONTINUOUS
 10
348.079987
 20
216.330002
 11
348.079987
 21
280.329987
  0
LINE
  8
0
  6
CONTINUOUS
 10
348.079987
 20
216.330002
 11
347.579987
 21
215.830002
  0
LINE
  8
0
  6
CONTINUOUS
 10
348.079987
 20
280.329987
 11
347.579987
 21
280.829987
  0
LINE
  8
0
  6
CONTINUOUS
 10
327.579987
 20
273.329987
 11
327.579987
 21
286.329987
  0
LINE
  8
0
  6
CENTER
 10
42.580002
 20
1.149063
 11
42.580002
 21
143.818130
  0
LINE
  8
0
  6
CONTINUOUS
 10
2.580000
 20
9.136563
 11
2.580000
 21
111.136566
  0
LINE
  8
0
  6
CONTINUOUS
 10
73.580002
 20
17.084482
 11
73.580002
 21
103.171150
  0
LINE
  8
0
  6
CONTINUOUS
 10
77.580002
 20
54.136559
 11
77.580002
 21
92.136566
  0
LINE
  8
0
  6
CENTER
 10
-3.620001
 20
73.136566
 11
111.830002
 21
73.136566
  0
LINE
  8
0
  6
CONTINUOUS
 10
76.580002
 20
93.136566
 11
75.580017
 21
93.136566
  0
LINE
  8
0
  6
CONTINUOUS
 10
76.580002
 20
53.136559
 11
75.580017
 21
53.136559
  0
LINE
  8
0
  6
CONTINUOUS
 10
71.614891
 20
105.170860
 11
13.545110
 21
106.184242
  0
LINE
  8
0
  6
CONTINUOUS
 10
71.614906
 20
15.084793
 11
13.545080
 21
14.070983
  0
ARC
  8
0
  6
CONTINUOUS
 10
71.580009
 20
103.171150
 40
2.000000
 50
0.000000
 51
89.000359
  0
ARC
  8
0
  6
CONTINUOUS
 10
71.580002
 20
17.084482
 40
2.000000
 50
-88.999634
 51
0.000000
  0
ARC
  8
0
  6
CONTINUOUS
 10
76.580002
 20
92.136566
 40
1.000000
 50
0.000000
 51
90.000000
  0
ARC
  8
0
  6
CONTINUOUS
 10
76.580002
 20
54.136559
 40
1.000000
 50
-90.000000
 51
0.000000
  0
LINE
  8
0
  6
CONTINUOUS
 10
11.580000
 20
31.436573
 11
11.580000
 21
10.636563
  0
LINE
  8
0
  6
CONTINUOUS
 10
2.580000
 20
111.136566
 11
10.429010
 21
111.136566
  0
LINE
  8
0
  6
CONTINUOUS
 10
10.045340
 20
9.136563
 11
2.580000
 21
9.136563
  0
LINE
  8
0
  6
CONTINUOUS
 10
14.580020
 20
85.836563
 11
71.611252
 21
85.836563
  0
LINE
  8
0
  6
CONTINUOUS
 10
14.580010
 20
34.436562
 11
72.142502
 21
34.436562
  0
ARC
  8
0
  6
CONTINUOUS
 10
10.080000
 20
10.636563
 40
1.500000
 50
-90.000000
 51
0.000000
  0
LINE
  8
0
  6
CONTINUOUS
 10
11.877899
 20
110.024780
 11
12.317700
 21
108.383423
  0
ARC
  8
0
  6
CONTINUOUS
 10
15.213110
 20
109.155602
 40
3.000000
 50
194.932602
 51
269.000610
  0
ARC
  8
0
  6
CONTINUOUS
 10
10.429010
 20
109.636566
 40
1.500000
 50
15.000070
 51
90.000000
  0
ARC
  8
0
  6
CONTINUOUS
 10
14.580000
 20
88.836563
 40
3.000000
 50
180.000000
 51
270.000000
  0
ARC
  8
0
  6
CONTINUOUS
 10
14.580020
 20
31.436583
 40
3.000000
 50
90.000000
 51
180.000000
  0
ARC
  8
0
  6
CONTINUOUS
 10
75.580002
 20
95.136566
 40
2.000000
 50
180.000000
 51
270.000000
  0
ARC
  8
0
  6
CONTINUOUS
 10
75.580017
 20
51.136570
 40
2.000000
 50
90.000000
 51
180.000000
  0
LINE
  8
0
  6
CONTINUOUS
 10
79.580002
 20
80.636566
 11
106.580002
 21
80.636566
  0
LINE
  8
0
  6
CONTINUOUS
 10
79.580002
 20
65.636566
 11
106.580002
 21
65.636566
  0
LINE
  8
0
  6
CONTINUOUS
 10
106.580002
 20
65.636566
 11
106.580002
 21
80.636566
  0
LINE
  8
0
  6
CONTINUOUS
 10
79.580002
 20
81.636566
 11
79.580002
 21
64.636566
  0
LINE
  8
0
  6
CONTINUOUS
 10
85.080017
 20
70.636566
 11
106.580002
 21
70.636566
  0
LINE
  8
0
  6
CONTINUOUS
 10
85.080002
 20
75.636566
 11
106.580002
 21
75.636566
  0
ARC
  8
0
  6
CONTINUOUS
 10
85.080017
 20
73.136574
 40
2.500000
 50
90.000000
 51
180.000000
  0
ARC
  8
0
  6
CONTINUOUS
 10
85.080002
 20
73.136566
 40
2.500000
 50
180.000000
 51
270.000000
  0
LINE
  8
0
  6
CENTER
 10
-1.138750
 20
103.136566
 11
15.111250
 21
103.136566
  0
LINE
  8
0
  6
CENTER
 10
-0.138750
 20
17.136562
 11
14.861250
 21
17.136562
  0
LINE
  8
0
  6
DASHED
 10
2.580000
 20
20.386562
 11
11.580000
 21
20.386562
  0
LINE
  8
0
  6
DASHED
 10
2.580000
 20
13.886563
 11
11.580000
 21
13.886563
  0
LINE
  8
0
  6
DASHED
 10
2.580000
 20
106.386566
 11
11.580000
 21
106.386566
  0
LINE
  8
0
  6
DASHED
 10
2.580000
 20
99.886566
 11
11.580000
 21
99.886566
  0
LINE
  8
0
  6
CONTINUOUS
 10
21.580000
 20
12.836563
 11
63.580002
 21
12.836563
  0
ARC
  8
0
  6
CONTINUOUS
 10
63.580002
 20
14.836563
 40
2.000000
 50
-90.000000
 51
0.000000
  0
ARC
  8
0
  6
CONTINUOUS
 10
21.580000
 20
14.836563
 40
2.000000
 50
199.216995
 51
270.000000
  0
LINE
  8
0
  6
CONTINUOUS
 10
65.580002
 20
14.836563
 11
65.580002
 21
14.979343
  0
ARC
  8
0
  6
CONTINUOUS
 10
42.580002
 20
50.836559
 40
38.000000
 50
-35.334469
 51
21.294241
  0
LINE
  8
0
  6
CENTER
 10
-3.620001
 20
50.836559
 11
84.842499
 21
50.836559
  0
LINE
  8
0
  6
CONTINUOUS
 10
11.580000
 20
110.598442
 11
11.580000
 21
88.836540
  0
ARC
  8
0
  6
CONTINUOUS
 10
13.579990
 20
108.183945
 40
2.000000
 50
180.000000
 51
269.000610
  0
ARC
  8
0
  6
CONTINUOUS
 10
13.580010
 20
12.071303
 40
2.000000
 50
91.000587
 51
180.000000
  0
LINE
  8
0
  6
CONTINUOUS
 10
11.977200
 20
10.618923
 11
12.314039
 21
11.876063
  0
ARC
  8
0
  6
CONTINUOUS
 10
10.045340
 20
11.136563
 40
2.000000
 50
270.000000
 51
345.000092
  0
ARC
  8
0
  6
CONTINUOUS
 10
15.211830
 20
11.099633
 40
3.000000
 50
91.000488
 51
165.000305
  0
LINE
  8
0
  6
CONTINUOUS
 10
77.580002
 20
81.636566
 11
79.580002
 21
81.636566
  0
LINE
  8
0
  6
CONTINUOUS
 10
77.580002
 20
64.636566
 11
79.580002
 21
64.636566
  0
LINE
  8
0
  6
CONTINUOUS
 10
327.579987
 20
12.836563
 11
327.579987
 21
88.836563
  0
LINE
  8
0
  6
CENTER
 10
356.767181
 20
50.836563
 11
235.275940
 21
50.836563
  0
LINE
  8
0
  6
CONTINUOUS
 10
327.579987
 20
88.836563
 11
250.805389
 21
88.836563
  0
LINE
  8
0
  6
CONTINUOUS
 10
257.079987
 20
12.836563
 11
327.579987
 21
12.836563
  0
LINE
  8
0
  6
CONTINUOUS
 10
244.580002
 20
9.136563
 11
180.580002
 21
9.136563
  0
LINE
  8
0
  6
CONTINUOUS
 10
244.580002
 20
111.136566
 11
180.580002
 21
111.136566
  0
LINE
  8
0
  6
CONTINUOUS
 10
255.080002
 20
85.836563
 11
255.080002
 21
20.836573
  0
LINE
  8
0
  6
CENTER
 10
212.580002
 20
123.524063
 11
212.580002
 21
-0.100937
  0
LINE
  8
0
  6
CENTER
 10
180.580002
 20
23.274063
 11
180.580002
 21
11.774063
  0
LINE
  8
0
  6
CENTER
 10
186.423706
 20
17.136562
 11
174.173706
 21
17.136562
  0
CIRCLE
  8
0
  6
CONTINUOUS
 10
180.580002
 20
17.136562
 40
3.250000
  0
LINE
  8
0
  6
CENTER
 10
180.580002
 20
96.999062
 11
180.580002
 21
108.499062
  0
CIRCLE
  8
0
  6
CONTINUOUS
 10
180.580002
 20
103.136566
 40
3.250000
  0
LINE
  8
0
  6
CENTER
 10
244.580002
 20
96.999062
 11
244.580002
 21
108.499062
  0
LINE
  8
0
  6
CENTER
 10
238.736298
 20
103.136566
 11
250.986298
 21
103.136566
  0
CIRCLE
  8
0
  6
CONTINUOUS
 10
244.580002
 20
103.136566
 40
3.250000
  0
LINE
  8
0
  6
CENTER
 10
244.580002
 20
23.274063
 11
244.580002
 21
11.774063
  0
LINE
  8
0
  6
CENTER
 10
238.736298
 20
17.136562
 11
250.986298
 21
17.136562
  0
CIRCLE
  8
0
  6
CONTINUOUS
 10
244.580002
 20
17.136562
 40
3.250000
  0
LINE
  8
0
  6
CONTINUOUS
 10
170.080002
 20
85.836563
 11
170.080002
 21
34.436573
  0
LINE
  8
0
  6
CONTINUOUS
 10
172.657303
 20
104.245720
 11
170.080002
 21
85.836563
  0
LINE
  8
0
  6
CONTINUOUS
 10
172.657303
 20
16.027443
 11
170.080002
 21
34.436573
  0
LINE
  8
0
  6
CONTINUOUS
 10
252.502701
 20
16.027363
 11
253.664093
 21
24.322863
  0
LINE
  8
0
  6
CONTINUOUS
 10
252.502701
 20
104.245712
 11
254.660004
 21
88.836563
  0
LINE
  8
0
  6
CENTER
 10
244.718750
 20
73.136566
 11
179.406250
 21
73.136566
  0
LINE
  8
0
  6
CONTINUOUS
 10
203.080002
 20
75.636566
 11
203.080002
 21
70.636566
  0
LINE
  8
0
  6
CONTINUOUS
 10
208.080002
 20
70.636566
 11
208.080002
 21
75.636566
  0
LINE
  8
0
  6
CONTINUOUS
 10
208.080002
 20
75.636566
 11
203.080002
 21
75.636566
  0
LINE
  8
0
  6
CONTINUOUS
 10
208.080002
 20
70.636566
 11
203.080002
 21
70.636566
  0
ARC
  8
0
  6
CONTINUOUS
 10
212.580002
 20
73.136566
 40
7.500000
 50
-160.528793
 51
160.528793
  0
ARC
  8
0
  6
CONTINUOUS
 10
180.580002
 20
103.136566
 40
8.000000
 50
90.000000
 51
172.030304
  0
ARC
  8
0
  6
CONTINUOUS
 10
244.580002
 20
103.136566
 40
8.000000
 50
7.969498
 51
90.000000
  0
ARC
  8
0
  6
CONTINUOUS
 10
244.580002
 20
17.136562
 40
8.000000
 50
-90.000000
 51
-7.969604
  0
ARC
  8
0
  6
CONTINUOUS
 10
180.580002
 20
17.136562
 40
8.000000
 50
-172.030304
 51
-90.000000
  0
LINE
  8
0
  6
CONTINUOUS
 10
255.080002
 20
14.836563
 11
255.080002
 21
20.836573
  0
ARC
  8
0
  6
CONTINUOUS
 10
257.079987
 20
14.836563
 40
2.000000
 50
180.000000
 51
270.000000
  0
ARC
  8
0
  6
CONTINUOUS
 10
250.080002
 20
20.836582
 40
5.000000
 50
0.000000
 51
90.000000
  0
LINE
  8
0
  6
CONTINUOUS
 10
327.579987
 20
81.085533
 11
255.830002
 21
81.085533
  0
LINE
  8
0
  6
CONTINUOUS
 10
327.579987
 20
20.587603
 11
255.580002
 21
20.587603
  0
LINE
  8
0
  6
CONTINUOUS
 10
199.159500
 20
105.136566
 11
226.000504
 21
105.136566
  0
LINE
  8
0
  6
CONTINUOUS
 10
226.000504
 20
15.136563
 11
199.159500
 21
15.136563
  0
LINE
  8
0
  6
CONTINUOUS
 10
228.872803
 20
104.229225
 11
255.080002
 21
85.836563
  0
LINE
  8
0
  6
CONTINUOUS
 10
196.287201
 20
104.229225
 11
170.080002
 21
85.836563
  0
LINE
  8
0
  6
CONTINUOUS
 10
196.287201
 20
16.043903
 11
170.080002
 21
34.436573
  0
LINE
  8
0
  6
CONTINUOUS
 10
241.533295
 20
24.929222
 11
228.872803
 21
16.043903
  0
LINE
  8
0
  6
CONTINUOUS
 10
244.405594
 20
25.836563
 11
250.080002
 21
25.836563
  0
ARC
  8
0
  6
CONTINUOUS
 10
226.000595
 20
100.136566
 40
5.000000
 50
54.938221
 51
90.000000
  0
ARC
  8
0
  6
CONTINUOUS
 10
199.159500
 20
100.136574
 40
5.000000
 50
90.000000
 51
125.062103
  0
ARC
  8
0
  6
CONTINUOUS
 10
199.159500
 20
20.136562
 40
5.000000
 50
234.938095
 51
270.000000
  0
ARC
  8
0
  6
CONTINUOUS
 10
226.000504
 20
20.136562
 40
5.000000
 50
270.000000
 51
305.061890
  0
ARC
  8
0
  6
CONTINUOUS
 10
244.405594
 20
20.836573
 40
5.000000
 50
90.000000
 51
125.062103
  0
CIRCLE
  8
0
  6
CONTINUOUS
 10
212.580002
 20
73.136566
 40
20.000000
  0
LINE
  8
0
  6
CENTER
 10
175.267502
 20
103.136566
 11
185.955002
 21
103.136566
  0
LINE
  8
0
  6
CONTINUOUS
 10
204.213806
 20
37.136562
 11
200.748199
 21
37.136562
  0
LINE
  8
0
  6
CONTINUOUS
 10
206.126694
 20
42.941525
 11
206.126694
 21
37.136562
  0
LINE
  8
0
  6
CONTINUOUS
 10
209.458694
 20
45.050060
 11
209.458694
 21
47.132549
  0
LINE
  8
0
  6
CONTINUOUS
 10
216.122696
 20
45.050060
 11
216.122696
 21
47.132549
  0
LINE
  8
0
  6
CONTINUOUS
 10
212.139893
 20
45.909084
 11
212.139893
 21
38.229874
  0
LINE
  8
0
  6
CONTINUOUS
 10
213.389404
 20
45.909084
 11
213.389404
 21
38.229874
  0
LINE
  8
0
  6
CONTINUOUS
 10
219.949295
 20
45.909084
 11
219.949295
 21
38.177803
  0
LINE
  8
0
  6
CONTINUOUS
 10
221.094696
 20
41.809170
 11
221.094696
 21
38.177803
  0
LINE
  8
0
  6
CONTINUOUS
 10
204.545593
 20
45.804958
 11
201.334503
 21
45.804958
  0
LINE
  8
0
  6
CONTINUOUS
 10
201.831604
 20
38.307964
 11
201.346497
 21
38.307964
  0
LINE
  8
0
  6
CONTINUOUS
 10
201.334503
 20
45.804958
 11
200.582108
 21
44.872005
  0
LINE
  8
0
  6
CONTINUOUS
 10
200.672607
 20
47.132549
 11
199.462708
 21
45.583385
  0
LINE
  8
0
  6
CONTINUOUS
 10
200.582108
 20
39.113182
 11
201.346497
 21
38.307964
  0
LINE
  8
0
  6
CONTINUOUS
 10
199.462708
 20
38.433662
 11
200.748199
 21
37.136562
  0
LINE
  8
0
  6
CONTINUOUS
 10
199.462708
 20
45.583385
 11
199.462708
 21
38.433662
  0
LINE
  8
0
  6
CONTINUOUS
 10
200.582108
 20
44.872005
 11
200.582108
 21
39.113182
  0
LINE
  8
0
  6
CONTINUOUS
 10
205.163605
 20
45.207623
 11
204.533005
 21
45.804958
  0
LINE
  8
0
  6
CONTINUOUS
 10
205.153595
 20
47.132549
 11
206.126694
 21
46.052578
  0
LINE
  8
0
  6
CONTINUOUS
 10
205.163605
 20
45.050060
 11
206.126694
 21
45.050060
  0
LINE
  8
0
  6
CONTINUOUS
 10
200.672607
 20
47.132549
 11
205.153595
 21
47.132549
  0
LINE
  8
0
  6
CONTINUOUS
 10
203.419495
 20
42.941525
 11
206.126694
 21
42.941525
  0
LINE
  8
0
  6
CONTINUOUS
 10
205.163605
 20
41.848217
 11
203.419495
 21
41.848217
  0
LINE
  8
0
  6
CONTINUOUS
 10
202.664597
 20
38.307964
 11
201.831604
 21
38.307964
  0
LINE
  8
0
  6
CONTINUOUS
 10
205.163605
 20
40.806973
 11
205.163605
 21
41.639965
  0
LINE
  8
0
  6
CONTINUOUS
 10
203.081100
 20
38.307964
 11
202.664597
 21
38.307964
  0
LINE
  8
0
  6
CONTINUOUS
 10
205.163605
 20
40.390472
 11
205.163605
 21
40.806973
  0
LINE
  8
0
  6
CONTINUOUS
 10
205.163605
 20
40.335152
 11
205.163605
 21
40.390472
  0
ARC
  8
0
  6
CONTINUOUS
 10
203.081100
 20
40.390472
 40
2.082500
 50
-89.999786
 51
0.000109
  0
LINE
  8
0
  6
CONTINUOUS
 10
205.163605
 20
37.933392
 11
205.163605
 21
37.136562
  0
LINE
  8
0
  6
CONTINUOUS
 10
206.126694
 20
46.052578
 11
206.126694
 21
45.050060
  0
LINE
  8
0
  6
CONTINUOUS
 10
205.163605
 20
41.848217
 11
205.163605
 21
40.390472
  0
LINE
  8
0
  6
CONTINUOUS
 10
203.419495
 20
42.941525
 11
203.419495
 21
41.848217
  0
LINE
  8
0
  6
CONTINUOUS
 10
205.163605
 20
41.639965
 11
205.163605
 21
41.848217
  0
LINE
  8
0
  6
CONTINUOUS
 10
205.163605
 20
37.136562
 11
206.126694
 21
37.136562
  0
LINE
  8
0
  6
CONTINUOUS
 10
205.163605
 20
37.933392
 11
204.213806
 21
37.136562
  0
LINE
  8
0
  6
CONTINUOUS
 10
213.389404
 20
38.229874
 11
213.805893
 21
38.229874
  0
LINE
  8
0
  6
CONTINUOUS
 10
211.645294
 20
38.229874
 11
211.645294
 21
37.136562
  0
LINE
  8
0
  6
CONTINUOUS
 10
213.805893
 20
38.229874
 11
213.805893
 21
37.136562
  0
LINE
  8
0
  6
CONTINUOUS
 10
215.427597
 20
45.050060
 11
216.122696
 21
45.050060
  0
LINE
  8
0
  6
CONTINUOUS
 10
209.458694
 20
45.050060
 11
210.198395
 21
45.050060
  0
LINE
  8
0
  6
CONTINUOUS
 10
209.458694
 20
47.132549
 11
216.122696
 21
47.132549
  0
LINE
  8
0
  6
CONTINUOUS
 10
211.645294
 20
37.136562
 11
213.805893
 21
37.136562
  0
LINE
  8
0
  6
CONTINUOUS
 10
211.645294
 20
38.229874
 11
212.139893
 21
38.229874
  0
ARC
  8
0
  6
CONTINUOUS
 10
223.450500
 20
44.464352
 40
2.668203
 50
-73.981873
 51
90.003510
  0
ARC
  8
0
  6
CONTINUOUS
 10
223.450500
 20
44.464352
 40
1.627786
 50
-82.585274
 51
62.411850
  0
LINE
  8
0
  6
CONTINUOUS
 10
219.454697
 20
47.132549
 11
223.450500
 21
47.132549
  0
LINE
  8
0
  6
CONTINUOUS
 10
223.660599
 20
42.850170
 11
221.094696
 21
42.850170
  0
LINE
  8
0
  6
CONTINUOUS
 10
219.454697
 20
47.132549
 11
219.454697
 21
45.909084
  0
LINE
  8
0
  6
CONTINUOUS
 10
221.094696
 20
45.909084
 11
221.094696
 21
42.850170
  0
LINE
  8
0
  6
CONTINUOUS
 10
224.186798
 20
41.899746
 11
225.838196
 21
38.177803
  0
LINE
  8
0
  6
CONTINUOUS
 10
223.227600
 20
41.809170
 11
224.790497
 21
38.177803
  0
LINE
  8
0
  6
CONTINUOUS
 10
219.454697
 20
38.177803
 11
219.949295
 21
38.177803
  0
LINE
  8
0
  6
CONTINUOUS
 10
221.094696
 20
38.177803
 11
221.550201
 21
38.177803
  0
LINE
  8
0
  6
CONTINUOUS
 10
221.550201
 20
37.136562
 11
219.454697
 21
37.136562
  0
LINE
  8
0
  6
CONTINUOUS
 10
224.582901
 20
38.177803
 11
224.790497
 21
38.177803
  0
LINE
  8
0
  6
CONTINUOUS
 10
225.838196
 20
38.177803
 11
226.118698
 21
38.177803
  0
LINE
  8
0
  6
CONTINUOUS
 10
224.582901
 20
37.136562
 11
226.118698
 21
37.136562
  0
LINE
  8
0
  6
CONTINUOUS
 10
226.118698
 20
38.177803
 11
226.118698
 21
37.136562
  0
LINE
  8
0
  6
CONTINUOUS
 10
224.582901
 20
38.177803
 11
224.582901
 21
37.136562
  0
LINE
  8
0
  6
CONTINUOUS
 10
221.550201
 20
38.177803
 11
221.550201
 21
37.136562
  0
LINE
  8
0
  6
CONTINUOUS
 10
219.454697
 20
38.177803
 11
219.454697
 21
37.136562
  0
LINE
  8
0
  6
CONTINUOUS
 10
210.556396
 20
45.909084
 11
210.198395
 21
45.050060
  0
LINE
  8
0
  6
CONTINUOUS
 10
215.125793
 20
45.909084
 11
215.427597
 21
45.050060
  0
LINE
  8
0
  6
CONTINUOUS
 10
213.389404
 20
45.909084
 11
215.125793
 21
45.909084
  0
LINE
  8
0
  6
CONTINUOUS
 10
212.139893
 20
45.909084
 11
210.556396
 21
45.909084
  0
LINE
  8
0
  6
CONTINUOUS
 10
221.094696
 20
41.809170
 11
223.227600
 21
41.809170
  0
LINE
  8
0
  6
CONTINUOUS
 10
219.454697
 20
45.909084
 11
219.949295
 21
45.909084
  0
LINE
  8
0
  6
CONTINUOUS
 10
221.094696
 20
45.909084
 11
224.204407
 21
45.907070
  0
LINE
  8
0
  6
CONTINUOUS
 10
205.163605
 20
45.207623
 11
205.163605
 21
45.050060
  0
LINE
  8
0
  6
CONTINUOUS
 10
348.079987
 20
18.836563
 11
348.079987
 21
82.836563
  0
LINE
  8
0
  6
CONTINUOUS
 10
344.115906
 20
88.836563
 11
327.579987
 21
88.836563
  0
LINE
  8
0
  6
CONTINUOUS
 10
344.115906
 20
12.836563
 11
327.579987
 21
12.836563
  0
LINE
  8
0
  6
CONTINUOUS
 10
347.579987
 20
15.836563
 11
347.579987
 21
85.836563
  0
LINE
  8
0
  6
CONTINUOUS
 10
348.079987
 20
82.836563
 11
347.579987
 21
83.336563
  0
LINE
  8
0
  6
CONTINUOUS
 10
348.079987
 20
18.836563
 11
347.579987
 21
18.336563
  0
LINE
  8
0
  6
CONTINUOUS
 10
346.713989
 20
87.336555
 11
347.579987
 21
85.836563
  0
ARC
  8
0
  6
CONTINUOUS
 10
344.115906
 20
85.836571
 40
3.000000
 50
29.999599
 51
90.000000
  0
LINE
  8
0
  6
CONTINUOUS
 10
346.713989
 20
14.336573
 11
347.579987
 21
15.836563
  0
ARC
  8
0
  6
CONTINUOUS
 10
344.115906
 20
15.836553
 40
3.000000
 50
270.000000
 51
330.000397
  0
LINE
  8
0
  6
CONTINUOUS
 10
345.998413
 20
81.085564
 11
327.579987
 21
81.085564
  0
LINE
  8
0
  6
CONTINUOUS
 10
327.579987
 20
20.587563
 11
345.998413
 21
20.587563
  0
LINE
  8
0
  6
CONTINUOUS
 10
336.579987
 20
271.329987
 11
336.579987
 21
225.330002
  0
LINE
  8
0
  6
CONTINUOUS
 10
334.579987
 20
223.330002
 11
336.579987
 21
225.330002
  0
LINE
  8
0
  6
CONTINUOUS
 10
334.579987
 20
223.330002
 11
288.580017
 21
223.330002
  0
LINE
  8
0
  6
CONTINUOUS
 10
294.079987
 20
227.830002
 11
294.079987
 21
223.330002
  0
ARC
  8
0
  6
CONTINUOUS
 10
291.079987
 20
227.830002
 40
3.000000
 50
0.000000
 51
90.000000
  0
LINE
  8
0
  6
CONTINUOUS
 10
291.079987
 20
230.830002
 11
286.580017
 21
230.830002
  0
CIRCLE
  8
0
  6
CONTINUOUS
 10
290.079987
 20
226.830002
 40
2.250000
  0
LINE
  8
0
  6
CONTINUOUS
 10
286.580017
 20
271.329987
 11
286.580017
 21
225.330002
  0
LINE
  8
0
  6
CONTINUOUS
 10
288.580017
 20
223.330002
 11
286.580017
 21
225.330002
  0
LINE
  8
0
  6
CONTINUOUS
 10
288.580017
 20
273.329987
 11
286.580017
 21
271.329987
  0
LINE
  8
0
  6
CONTINUOUS
 10
288.580017
 20
273.329987
 11
334.579987
 21
273.329987
  0
LINE
  8
0
  6
CONTINUOUS
 10
336.579987
 20
271.329987
 11
334.579987
 21
273.329987
  0
LINE
  8
0
  6
CONTINUOUS
 10
332.079987
 20
265.829987
 11
336.579987
 21
265.829987
  0
CIRCLE
  8
0
  6
CONTINUOUS
 10
333.079987
 20
269.829987
 40
2.250000
  0
ARC
  8
0
  6
CONTINUOUS
 10
332.079987
 20
268.829987
 40
3.000000
 50
180.000000
 51
270.000000
  0
LINE
  8
0
  6
CONTINUOUS
 10
329.079987
 20
268.829987
 11
329.079987
 21
273.329987
  0
LINE
  8
0
  6
CENTER
 10
311.579987
 20
280.795776
 11
311.579987
 21
216.663757
  0
LINE
  8
0
  6
CONTINUOUS
 10
335.579987
 20
265.829987
 11
335.579987
 21
230.830002
  0
LINE
  8
0
  6
CONTINUOUS
 10
294.079987
 20
224.330002
 11
329.079987
 21
224.330002
  0
LINE
  8
0
  6
CONTINUOUS
 10
287.580017
 20
230.830002
 11
287.580017
 21
265.829987
  0
LINE
  8
0
  6
CONTINUOUS
 10
329.079987
 20
272.329987
 11
294.079987
 21
272.329987
  0
LINE
  8
0
  6
CONTINUOUS
 10
332.079987
 20
230.830002
 11
336.579987
 21
230.830002
  0
ARC
  8
0
  6
CONTINUOUS
 10
332.079987
 20
227.830002
 40
3.000000
 50
90.000000
 51
180.000000
  0
LINE
  8
0
  6
CONTINUOUS
 10
329.079987
 20
227.830002
 11
329.079987
 21
223.330017
  0
CIRCLE
  8
0
  6
CONTINUOUS
 10
333.079987
 20
226.830002
 40
2.250000
  0
ARC
  8
0
  6
CONTINUOUS
 10
291.079987
 20
268.829987
 40
3.000000
 50
-90.000000
 51
0.000000
  0
LINE
  8
0
  6
CONTINUOUS
 10
294.079987
 20
268.829987
 11
294.079987
 21
273.329987
  0
LINE
  8
0
  6
CONTINUOUS
 10
291.079987
 20
265.829987
 11
286.579987
 21
265.829987
  0
CIRCLE
  8
0
  6
CONTINUOUS
 10
290.079987
 20
269.829987
 40
2.250000
  0
LINE
  8
0
  6
CONTINUOUS
 10
335.079987
 20
90.336563
 11
288.579987
 21
90.336563
  0
LINE
  8
0
  6
CONTINUOUS
 10
286.579987
 20
134.336563
 11
286.579987
 21
92.336563
  0
LINE
  8
0
  6
CONTINUOUS
 10
336.579987
 20
134.336563
 11
336.579987
 21
92.336563
  0
LINE
  8
0
  6
CONTINUOUS
 10
336.579987
 20
102.336563
 11
286.579987
 21
102.336563
  0
LINE
  8
0
  6
CONTINUOUS
 10
288.579987
 20
90.336563
 11
286.579987
 21
92.336563
  0
LINE
  8
0
  6
CONTINUOUS
 10
336.579987
 20
92.336563
 11
334.579987
 21
90.336563
  0
LINE
  8
0
  6
CONTINUOUS
 10
336.579987
 20
92.336563
 11
286.579987
 21
92.336563
  0
LINE
  8
0
  6
CONTINUOUS
 10
336.579987
 20
103.336563
 11
286.579987
 21
103.336563
  0
LINE
  8
0
  6
CONTINUOUS
 10
335.579987
 20
135.336563
 11
287.579987
 21
135.336563
  0
LINE
  8
0
  6
CONTINUOUS
 10
287.579987
 20
135.336563
 11
286.579987
 21
134.336563
  0
LINE
  8
0
  6
CONTINUOUS
 10
335.579987
 20
135.336563
 11
336.579987
 21
134.336563
  0
LINE
  8
0
  6
CONTINUOUS
 10
336.579987
 20
134.336563
 11
286.579987
 21
134.336563
  0
LINE
  8
0
  6
CENTER
 10
311.579987
 20
83.947052
 11
311.579987
 21
142.974686
  0
LINE
  8
0
  6
CENTER
 10
338.954987
 20
118.336563
 11
334.329987
 21
118.336563
  0
LINE
  8
0
  6
CONTINUOUS
 10
335.079987
 20
90.336563
 11
335.079987
 21
88.836563
  0
LINE
  8
0
  6
CONTINUOUS
 10
289.079987
 20
90.336563
 11
289.079987
 21
88.836563
  0
LINE
  8
0
  6
CONTINUOUS
 10
337.454987
 20
128.836563
 11
335.454987
 21
128.836563
  0
LINE
  8
0
  6
CONTINUOUS
 10
337.454987
 20
107.836563
 11
335.454987
 21
107.836563
  0
LINE
  8
0
  6
CONTINUOUS
 10
67.579979
 20
134.336563
 11
67.579979
 21
105.241280
  0
LINE
  8
0
  6
CONTINUOUS
 10
17.580000
 20
134.336563
 11
17.580000
 21
106.113831
  0
LINE
  8
0
  6
CONTINUOUS
 10
18.580000
 20
135.336563
 11
66.579979
 21
135.336563
  0
LINE
  8
0
  6
CONTINUOUS
 10
66.579979
 20
135.336563
 11
67.579979
 21
134.336563
  0
LINE
  8
0
  6
CONTINUOUS
 10
18.580000
 20
135.336563
 11
17.580000
 21
134.336563
  0
LINE
  8
0
  6
CONTINUOUS
 10
17.580000
 20
134.336563
 11
67.579979
 21
134.336563
  0
TEXT
  8
0
 10
-64.000000
 20
0.000000
 40
4.000000
 41
1.000000
  1
HFM-15L-10~240-T15K
 50
0.000000
  0
ENDSEC
  0
EOF
