  0
SECTION
  2
HEADER
  9
$CLAYER
  8
1
  9
$LTSCALE
 40
3.0
  0
ENDSEC
  0
SECTION
  2
TABLES
  0
TABLE
  2
LTYPE
 70
     4
  0
LTYPE
  2
CONTINUOUS
  3
solid line
 70
    64
 72
    65
 73
     0
 40
0.0
  0
LTYPE
  2
DASHED
  3
__ __ __ __ __ __ __ __ __ __ __ __ __ __ __
 70
    64
 72
    65
 73
     2
 40
0.75
 49
0.5
 49
-0.25
  0
LTYPE
  2
CENTER
  3
____ _ ____ _ ____ _ ____ _ ____ _ ____ _ ____
 70
    64
 72
    65
 73
     4
 40
2.0
 49
1.25
 49
-0.25
 49
0.25
 49
-0.25
  0
LTYPE
  2
PHANTOM
  3
_____ _ _ _____ _ _ _____ _ _ _____ _ _ ____
 70
    64
 72
    65
 73
     6
 40
2.5
 49
1.25
 49
-0.25
 49
0.25
 49
-0.25
 49
0.25
 49
-0.25
  0
ENDTAB
  0
TABLE
  2
LAYER
 70
     1
  0
LAYER
  2
0
 70
    64
 62
     7
  6
CONTINUOUS
  0
ENDTAB
  0
TABLE
  2
STYLE
 70
     1
  0
STYLE
  2
STANDARD
 70
     0
 40
0.000000
 41
1.000000
 50
0.000000
 71
     0
 42
3.000000
  3
txt
  4
BIGFONT
  0
ENDTAB
  0
ENDSEC
  0
SECTION
  2
BLOCKS
  0
ENDSEC
  0
SECTION
  2
ENTITIES
  0
LINE
  8
0
  6
CENTER
 10
42.777500
 20
2.928750
 11
42.777500
 21
117.428749
  0
LINE
  8
0
  6
CONTINUOUS
 10
2.777500
 20
10.916250
 11
2.777500
 21
112.916252
  0
LINE
  8
0
  6
CONTINUOUS
 10
73.777496
 20
18.864170
 11
73.777496
 21
104.950844
  0
LINE
  8
0
  6
CONTINUOUS
 10
77.777496
 20
55.916248
 11
77.777496
 21
93.916252
  0
LINE
  8
0
  6
CENTER
 10
-3.422501
 20
74.916252
 11
112.027496
 21
74.916252
  0
LINE
  8
0
  6
CONTINUOUS
 10
76.777496
 20
94.916252
 11
75.777519
 21
94.916252
  0
LINE
  8
0
  6
CONTINUOUS
 10
76.777496
 20
54.916248
 11
75.777519
 21
54.916248
  0
LINE
  8
0
  6
CONTINUOUS
 10
71.812393
 20
106.950546
 11
13.742620
 21
107.963928
  0
LINE
  8
0
  6
CONTINUOUS
 10
71.812408
 20
16.864479
 11
13.742580
 21
15.850660
  0
ARC
  8
0
  6
CONTINUOUS
 10
71.777512
 20
104.950844
 40
2.000000
 50
0.000000
 51
89.000359
  0
ARC
  8
0
  6
CONTINUOUS
 10
71.777496
 20
18.864170
 40
2.000000
 50
-88.999634
 51
0.000000
  0
ARC
  8
0
  6
CONTINUOUS
 10
76.777496
 20
93.916252
 40
1.000000
 50
0.000000
 51
90.000000
  0
ARC
  8
0
  6
CONTINUOUS
 10
76.777496
 20
55.916245
 40
1.000000
 50
-90.000000
 51
0.000000
  0
LINE
  8
0
  6
CONTINUOUS
 10
11.777500
 20
33.216259
 11
11.777500
 21
12.416250
  0
LINE
  8
0
  6
CONTINUOUS
 10
2.777500
 20
112.916252
 11
10.626510
 21
112.916252
  0
LINE
  8
0
  6
CONTINUOUS
 10
10.242851
 20
10.916250
 11
2.777500
 21
10.916250
  0
LINE
  8
0
  6
CONTINUOUS
 10
14.777520
 20
87.616249
 11
71.808746
 21
87.616249
  0
LINE
  8
0
  6
CONTINUOUS
 10
14.777510
 20
36.216251
 11
72.339996
 21
36.216251
  0
ARC
  8
0
  6
CONTINUOUS
 10
10.277500
 20
12.416250
 40
1.500000
 50
-90.000000
 51
0.000000
  0
LINE
  8
0
  6
CONTINUOUS
 10
12.075399
 20
111.804466
 11
12.515200
 21
110.163109
  0
ARC
  8
0
  6
CONTINUOUS
 10
15.410610
 20
110.935287
 40
3.000000
 50
194.932602
 51
269.000610
  0
ARC
  8
0
  6
CONTINUOUS
 10
10.626510
 20
111.416252
 40
1.500000
 50
15.000070
 51
90.000000
  0
ARC
  8
0
  6
CONTINUOUS
 10
14.777500
 20
90.616249
 40
3.000000
 50
180.000000
 51
270.000000
  0
ARC
  8
0
  6
CONTINUOUS
 10
14.777520
 20
33.216270
 40
3.000000
 50
90.000000
 51
180.000000
  0
ARC
  8
0
  6
CONTINUOUS
 10
75.777496
 20
96.916252
 40
2.000000
 50
180.000000
 51
270.000000
  0
ARC
  8
0
  6
CONTINUOUS
 10
75.777519
 20
52.916256
 40
2.000000
 50
90.000000
 51
180.000000
  0
LINE
  8
0
  6
CONTINUOUS
 10
79.777496
 20
82.416252
 11
106.777496
 21
82.416252
  0
LINE
  8
0
  6
CONTINUOUS
 10
79.777496
 20
67.416252
 11
106.777496
 21
67.416252
  0
LINE
  8
0
  6
CONTINUOUS
 10
106.777496
 20
67.416252
 11
106.777496
 21
82.416252
  0
LINE
  8
0
  6
CONTINUOUS
 10
79.777496
 20
83.416252
 11
79.777496
 21
66.416252
  0
LINE
  8
0
  6
CONTINUOUS
 10
85.277519
 20
72.416252
 11
106.777496
 21
72.416252
  0
LINE
  8
0
  6
CONTINUOUS
 10
85.277496
 20
77.416252
 11
106.777496
 21
77.416252
  0
ARC
  8
0
  6
CONTINUOUS
 10
85.277519
 20
74.916260
 40
2.500000
 50
90.000000
 51
180.000000
  0
ARC
  8
0
  6
CONTINUOUS
 10
85.277496
 20
74.916252
 40
2.500000
 50
180.000000
 51
270.000000
  0
LINE
  8
0
  6
CENTER
 10
-0.941250
 20
104.916252
 11
15.308750
 21
104.916252
  0
LINE
  8
0
  6
CENTER
 10
0.058750
 20
18.916250
 11
15.058750
 21
18.916250
  0
LINE
  8
0
  6
DASHED
 10
2.777500
 20
22.166250
 11
11.777519
 21
22.166250
  0
LINE
  8
0
  6
DASHED
 10
2.777500
 20
15.666250
 11
11.777500
 21
15.666250
  0
LINE
  8
0
  6
DASHED
 10
2.777500
 20
108.166252
 11
11.777500
 21
108.166252
  0
LINE
  8
0
  6
DASHED
 10
2.777500
 20
101.666252
 11
11.777500
 21
101.666252
  0
LINE
  8
0
  6
CONTINUOUS
 10
21.777500
 20
14.616250
 11
63.777500
 21
14.616250
  0
ARC
  8
0
  6
CONTINUOUS
 10
63.777500
 20
16.616249
 40
2.000000
 50
-90.000000
 51
0.000000
  0
ARC
  8
0
  6
CONTINUOUS
 10
21.777500
 20
16.616249
 40
2.000000
 50
199.216995
 51
270.000000
  0
LINE
  8
0
  6
CONTINUOUS
 10
65.777496
 20
16.616249
 11
65.777496
 21
16.759029
  0
ARC
  8
0
  6
CONTINUOUS
 10
42.777500
 20
52.616249
 40
38.000000
 50
-35.334469
 51
21.294241
  0
LINE
  8
0
  6
CENTER
 10
-3.422501
 20
52.616249
 11
90.527496
 21
52.616249
  0
ARC
  8
0
  6
CONTINUOUS
 10
13.777490
 20
109.963638
 40
2.000000
 50
180.000000
 51
269.000610
  0
LINE
  8
0
  6
CONTINUOUS
 10
11.777500
 20
112.378128
 11
11.777500
 21
90.616226
  0
ARC
  8
0
  6
CONTINUOUS
 10
13.777510
 20
13.850980
 40
2.000000
 50
91.000633
 51
180.000000
  0
LINE
  8
0
  6
CONTINUOUS
 10
12.174700
 20
12.398610
 11
12.511539
 21
13.655750
  0
ARC
  8
0
  6
CONTINUOUS
 10
10.242840
 20
12.916250
 40
2.000000
 50
270.000000
 51
345.000092
  0
ARC
  8
0
  6
CONTINUOUS
 10
15.409330
 20
12.879320
 40
3.000000
 50
91.000488
 51
165.000305
  0
LINE
  8
0
  6
CONTINUOUS
 10
77.777496
 20
83.416252
 11
79.777496
 21
83.416252
  0
LINE
  8
0
  6
CONTINUOUS
 10
77.777496
 20
66.416252
 11
79.777496
 21
66.416252
  0
LINE
  8
0
  6
CONTINUOUS
 10
82.777496
 20
29.616249
 11
82.777496
 21
67.416252
  0
LINE
  8
0
  6
CONTINUOUS
 10
20.848560
 20
12.616250
 11
65.777496
 21
12.616250
  0
LINE
  8
0
  6
CONTINUOUS
 10
79.777496
 20
26.616249
 11
76.174461
 21
26.616249
  0
LINE
  8
0
  6
CONTINUOUS
 10
68.777496
 20
15.616250
 11
68.777496
 21
16.811489
  0
LINE
  8
0
  6
CONTINUOUS
 10
73.777496
 20
24.219280
 11
76.174461
 21
26.616249
  0
LINE
  8
0
  6
CONTINUOUS
 10
17.313040
 20
14.080700
 11
15.512180
 21
15.881550
  0
ARC
  8
0
  6
CONTINUOUS
 10
79.777496
 20
29.616240
 40
3.000000
 50
-90.000000
 51
0.000000
  0
ARC
  8
0
  6
CONTINUOUS
 10
65.777489
 20
15.616230
 40
3.000000
 50
-90.000000
 51
0.000000
  0
ARC
  8
0
  6
CONTINUOUS
 10
20.848560
 20
17.616249
 40
5.000000
 50
225.000107
 51
270.000000
  0
LINE
  8
0
  6
CONTINUOUS
 10
327.777496
 20
14.616250
 11
327.777496
 21
90.616249
  0
LINE
  8
0
  6
CENTER
 10
397.978760
 20
52.616249
 11
239.052505
 21
52.616249
  0
LINE
  8
0
  6
CONTINUOUS
 10
327.777496
 20
90.616249
 11
254.857498
 21
90.616249
  0
LINE
  8
0
  6
CONTINUOUS
 10
257.277496
 20
14.616250
 11
327.777496
 21
14.616250
  0
LINE
  8
0
  6
CONTINUOUS
 10
244.777496
 20
10.916250
 11
180.777496
 21
10.916250
  0
LINE
  8
0
  6
CONTINUOUS
 10
244.777496
 20
112.916252
 11
180.777496
 21
112.916252
  0
LINE
  8
0
  6
CONTINUOUS
 10
255.277496
 20
87.616249
 11
255.277496
 21
22.616261
  0
LINE
  8
0
  6
CENTER
 10
212.777496
 20
125.303749
 11
212.777496
 21
1.678750
  0
LINE
  8
0
  6
CENTER
 10
180.777496
 20
25.053749
 11
180.777496
 21
13.553750
  0
LINE
  8
0
  6
CENTER
 10
186.621201
 20
18.916250
 11
174.371201
 21
18.916250
  0
CIRCLE
  8
0
  6
CONTINUOUS
 10
180.777496
 20
18.916250
 40
3.250000
  0
LINE
  8
0
  6
CENTER
 10
180.777496
 20
98.778748
 11
180.777496
 21
110.278748
  0
CIRCLE
  8
0
  6
CONTINUOUS
 10
180.777496
 20
104.916252
 40
3.250000
  0
LINE
  8
0
  6
CENTER
 10
244.777496
 20
98.778748
 11
244.777496
 21
110.278748
  0
LINE
  8
0
  6
CENTER
 10
238.933701
 20
104.916252
 11
251.183807
 21
104.916252
  0
CIRCLE
  8
0
  6
CONTINUOUS
 10
244.777496
 20
104.916252
 40
3.250000
  0
LINE
  8
0
  6
CENTER
 10
244.777496
 20
25.053749
 11
244.777496
 21
13.553750
  0
LINE
  8
0
  6
CENTER
 10
238.933701
 20
18.916250
 11
251.183807
 21
18.916250
  0
CIRCLE
  8
0
  6
CONTINUOUS
 10
244.777496
 20
18.916250
 40
3.250000
  0
LINE
  8
0
  6
CONTINUOUS
 10
170.277496
 20
87.616249
 11
170.277496
 21
36.216259
  0
LINE
  8
0
  6
CONTINUOUS
 10
172.854797
 20
106.025414
 11
170.277496
 21
87.616249
  0
LINE
  8
0
  6
CONTINUOUS
 10
172.854797
 20
17.807131
 11
170.277496
 21
36.216259
  0
LINE
  8
0
  6
CONTINUOUS
 10
252.700195
 20
17.807051
 11
253.861603
 21
26.102551
  0
LINE
  8
0
  6
CONTINUOUS
 10
252.700195
 20
106.025398
 11
255.277496
 21
87.616249
  0
LINE
  8
0
  6
CENTER
 10
246.927505
 20
74.916252
 11
182.172501
 21
74.916252
  0
LINE
  8
0
  6
CONTINUOUS
 10
203.277496
 20
77.416252
 11
203.277496
 21
72.416252
  0
LINE
  8
0
  6
CONTINUOUS
 10
208.277496
 20
72.416252
 11
208.277496
 21
77.416252
  0
LINE
  8
0
  6
CONTINUOUS
 10
208.277496
 20
77.416252
 11
203.277496
 21
77.416252
  0
LINE
  8
0
  6
CONTINUOUS
 10
208.277496
 20
72.416252
 11
203.277496
 21
72.416252
  0
ARC
  8
0
  6
CONTINUOUS
 10
212.777496
 20
74.916252
 40
7.500000
 50
-160.528793
 51
160.528793
  0
ARC
  8
0
  6
CONTINUOUS
 10
180.777496
 20
104.916252
 40
8.000000
 50
90.000000
 51
172.030304
  0
ARC
  8
0
  6
CONTINUOUS
 10
244.777496
 20
104.916252
 40
8.000000
 50
7.969498
 51
90.000000
  0
ARC
  8
0
  6
CONTINUOUS
 10
244.777496
 20
18.916250
 40
8.000000
 50
-90.000000
 51
-7.969604
  0
ARC
  8
0
  6
CONTINUOUS
 10
180.777496
 20
18.916250
 40
8.000000
 50
-172.030304
 51
-90.000000
  0
LINE
  8
0
  6
CONTINUOUS
 10
255.277496
 20
16.616249
 11
255.277496
 21
22.616261
  0
ARC
  8
0
  6
CONTINUOUS
 10
257.277496
 20
16.616249
 40
2.000000
 50
180.000000
 51
270.000000
  0
ARC
  8
0
  6
CONTINUOUS
 10
250.277496
 20
22.616270
 40
5.000000
 50
0.000000
 51
90.000000
  0
LINE
  8
0
  6
CONTINUOUS
 10
327.777496
 20
82.865219
 11
256.027496
 21
82.865219
  0
LINE
  8
0
  6
CONTINUOUS
 10
327.777496
 20
22.367290
 11
255.777496
 21
22.367290
  0
LINE
  8
0
  6
CONTINUOUS
 10
199.356995
 20
106.916252
 11
226.197998
 21
106.916252
  0
LINE
  8
0
  6
CONTINUOUS
 10
226.197998
 20
16.916250
 11
199.356995
 21
16.916250
  0
LINE
  8
0
  6
CONTINUOUS
 10
229.070297
 20
106.008911
 11
255.277496
 21
87.616249
  0
LINE
  8
0
  6
CONTINUOUS
 10
196.484695
 20
106.008911
 11
170.277496
 21
87.616249
  0
LINE
  8
0
  6
CONTINUOUS
 10
196.484695
 20
17.823589
 11
170.277496
 21
36.216259
  0
LINE
  8
0
  6
CONTINUOUS
 10
241.730804
 20
26.708910
 11
229.070297
 21
17.823589
  0
LINE
  8
0
  6
CONTINUOUS
 10
244.603104
 20
27.616249
 11
250.277496
 21
27.616249
  0
ARC
  8
0
  6
CONTINUOUS
 10
226.198105
 20
101.916252
 40
5.000000
 50
54.938221
 51
90.000000
  0
ARC
  8
0
  6
CONTINUOUS
 10
199.356995
 20
101.916260
 40
5.000000
 50
90.000000
 51
125.062103
  0
ARC
  8
0
  6
CONTINUOUS
 10
199.356995
 20
21.916250
 40
5.000000
 50
234.938095
 51
270.000000
  0
ARC
  8
0
  6
CONTINUOUS
 10
226.197998
 20
21.916250
 40
5.000000
 50
270.000000
 51
305.061890
  0
ARC
  8
0
  6
CONTINUOUS
 10
244.603104
 20
22.616261
 40
5.000000
 50
90.000000
 51
125.062103
  0
CIRCLE
  8
0
  6
CONTINUOUS
 10
212.777496
 20
74.916252
 40
20.000000
  0
LINE
  8
0
  6
CENTER
 10
175.464996
 20
104.916252
 11
186.152496
 21
104.916252
  0
LINE
  8
0
  6
CONTINUOUS
 10
204.411301
 20
38.916248
 11
200.945694
 21
38.916248
  0
LINE
  8
0
  6
CONTINUOUS
 10
206.324203
 20
44.721210
 11
206.324203
 21
38.916248
  0
LINE
  8
0
  6
CONTINUOUS
 10
209.656204
 20
46.829746
 11
209.656204
 21
48.912235
  0
LINE
  8
0
  6
CONTINUOUS
 10
216.320206
 20
46.829746
 11
216.320206
 21
48.912235
  0
LINE
  8
0
  6
CONTINUOUS
 10
212.337402
 20
47.688770
 11
212.337402
 21
40.009560
  0
LINE
  8
0
  6
CONTINUOUS
 10
213.586899
 20
47.688770
 11
213.586899
 21
40.009560
  0
LINE
  8
0
  6
CONTINUOUS
 10
220.146805
 20
47.688770
 11
220.146805
 21
39.957489
  0
LINE
  8
0
  6
CONTINUOUS
 10
221.292206
 20
43.588856
 11
221.292206
 21
39.957489
  0
LINE
  8
0
  6
CONTINUOUS
 10
204.743103
 20
47.584644
 11
201.531998
 21
47.584644
  0
LINE
  8
0
  6
CONTINUOUS
 10
202.029099
 20
40.087650
 11
201.544006
 21
40.087650
  0
LINE
  8
0
  6
CONTINUOUS
 10
201.531998
 20
47.584644
 11
200.779602
 21
46.651691
  0
LINE
  8
0
  6
CONTINUOUS
 10
200.870102
 20
48.912235
 11
199.660202
 21
47.363071
  0
LINE
  8
0
  6
CONTINUOUS
 10
200.779602
 20
40.892872
 11
201.544006
 21
40.087650
  0
LINE
  8
0
  6
CONTINUOUS
 10
199.660202
 20
40.213348
 11
200.945694
 21
38.916248
  0
LINE
  8
0
  6
CONTINUOUS
 10
199.660202
 20
47.363071
 11
199.660202
 21
40.213348
  0
LINE
  8
0
  6
CONTINUOUS
 10
200.779602
 20
46.651691
 11
200.779602
 21
40.892872
  0
LINE
  8
0
  6
CONTINUOUS
 10
205.361099
 20
46.987309
 11
204.730499
 21
47.584644
  0
LINE
  8
0
  6
CONTINUOUS
 10
205.351105
 20
48.912235
 11
206.324203
 21
47.832264
  0
LINE
  8
0
  6
CONTINUOUS
 10
205.361099
 20
46.829746
 11
206.324203
 21
46.829746
  0
LINE
  8
0
  6
CONTINUOUS
 10
200.870102
 20
48.912235
 11
205.351105
 21
48.912235
  0
LINE
  8
0
  6
CONTINUOUS
 10
203.617004
 20
44.721210
 11
206.324203
 21
44.721210
  0
LINE
  8
0
  6
CONTINUOUS
 10
205.361099
 20
43.627903
 11
203.617004
 21
43.627903
  0
LINE
  8
0
  6
CONTINUOUS
 10
202.862106
 20
40.087650
 11
202.029099
 21
40.087650
  0
LINE
  8
0
  6
CONTINUOUS
 10
205.361099
 20
42.586658
 11
205.361099
 21
43.419651
  0
LINE
  8
0
  6
CONTINUOUS
 10
203.278595
 20
40.087650
 11
202.862106
 21
40.087650
  0
LINE
  8
0
  6
CONTINUOUS
 10
205.361099
 20
42.170158
 11
205.361099
 21
42.586658
  0
LINE
  8
0
  6
CONTINUOUS
 10
205.361099
 20
42.114841
 11
205.361099
 21
42.170158
  0
ARC
  8
0
  6
CONTINUOUS
 10
203.278595
 20
42.170158
 40
2.082500
 50
-89.999786
 51
0.000109
  0
LINE
  8
0
  6
CONTINUOUS
 10
205.361099
 20
39.713081
 11
205.361099
 21
38.916248
  0
LINE
  8
0
  6
CONTINUOUS
 10
206.324203
 20
47.832264
 11
206.324203
 21
46.829746
  0
LINE
  8
0
  6
CONTINUOUS
 10
205.361099
 20
43.627903
 11
205.361099
 21
42.170158
  0
LINE
  8
0
  6
CONTINUOUS
 10
203.617004
 20
44.721210
 11
203.617004
 21
43.627903
  0
LINE
  8
0
  6
CONTINUOUS
 10
205.361099
 20
43.419651
 11
205.361099
 21
43.627903
  0
LINE
  8
0
  6
CONTINUOUS
 10
205.361099
 20
38.916248
 11
206.324203
 21
38.916248
  0
LINE
  8
0
  6
CONTINUOUS
 10
205.361099
 20
39.713081
 11
204.411301
 21
38.916248
  0
LINE
  8
0
  6
CONTINUOUS
 10
213.586899
 20
40.009560
 11
214.003403
 21
40.009560
  0
LINE
  8
0
  6
CONTINUOUS
 10
211.842804
 20
40.009560
 11
211.842804
 21
38.916248
  0
LINE
  8
0
  6
CONTINUOUS
 10
214.003403
 20
40.009560
 11
214.003403
 21
38.916248
  0
LINE
  8
0
  6
CONTINUOUS
 10
215.625107
 20
46.829746
 11
216.320206
 21
46.829746
  0
LINE
  8
0
  6
CONTINUOUS
 10
209.656204
 20
46.829746
 11
210.395905
 21
46.829746
  0
LINE
  8
0
  6
CONTINUOUS
 10
209.656204
 20
48.912235
 11
216.320206
 21
48.912235
  0
LINE
  8
0
  6
CONTINUOUS
 10
211.842804
 20
38.916248
 11
214.003403
 21
38.916248
  0
LINE
  8
0
  6
CONTINUOUS
 10
211.842804
 20
40.009560
 11
212.337402
 21
40.009560
  0
ARC
  8
0
  6
CONTINUOUS
 10
223.647995
 20
46.244038
 40
2.668203
 50
-73.981873
 51
90.003510
  0
ARC
  8
0
  6
CONTINUOUS
 10
223.647995
 20
46.244038
 40
1.627786
 50
-82.585274
 51
62.411850
  0
LINE
  8
0
  6
CONTINUOUS
 10
219.652206
 20
48.912235
 11
223.647995
 21
48.912235
  0
LINE
  8
0
  6
CONTINUOUS
 10
223.858093
 20
44.629856
 11
221.292206
 21
44.629856
  0
LINE
  8
0
  6
CONTINUOUS
 10
219.652206
 20
48.912235
 11
219.652206
 21
47.688770
  0
LINE
  8
0
  6
CONTINUOUS
 10
221.292206
 20
47.688770
 11
221.292206
 21
44.629856
  0
LINE
  8
0
  6
CONTINUOUS
 10
224.384293
 20
43.679432
 11
226.035706
 21
39.957489
  0
LINE
  8
0
  6
CONTINUOUS
 10
223.425095
 20
43.588856
 11
224.988007
 21
39.957489
  0
LINE
  8
0
  6
CONTINUOUS
 10
219.652206
 20
39.957489
 11
220.146805
 21
39.957489
  0
LINE
  8
0
  6
CONTINUOUS
 10
221.292206
 20
39.957489
 11
221.747696
 21
39.957489
  0
LINE
  8
0
  6
CONTINUOUS
 10
221.747696
 20
38.916248
 11
219.652206
 21
38.916248
  0
LINE
  8
0
  6
CONTINUOUS
 10
224.780396
 20
39.957489
 11
224.988007
 21
39.957489
  0
LINE
  8
0
  6
CONTINUOUS
 10
226.035706
 20
39.957489
 11
226.316193
 21
39.957489
  0
LINE
  8
0
  6
CONTINUOUS
 10
224.780396
 20
38.916248
 11
226.316193
 21
38.916248
  0
LINE
  8
0
  6
CONTINUOUS
 10
226.316193
 20
39.957489
 11
226.316193
 21
38.916248
  0
LINE
  8
0
  6
CONTINUOUS
 10
224.780396
 20
39.957489
 11
224.780396
 21
38.916248
  0
LINE
  8
0
  6
CONTINUOUS
 10
221.747696
 20
39.957489
 11
221.747696
 21
38.916248
  0
LINE
  8
0
  6
CONTINUOUS
 10
219.652206
 20
39.957489
 11
219.652206
 21
38.916248
  0
LINE
  8
0
  6
CONTINUOUS
 10
210.753906
 20
47.688770
 11
210.395905
 21
46.829746
  0
LINE
  8
0
  6
CONTINUOUS
 10
215.323303
 20
47.688770
 11
215.625107
 21
46.829746
  0
LINE
  8
0
  6
CONTINUOUS
 10
213.586899
 20
47.688770
 11
215.323303
 21
47.688770
  0
LINE
  8
0
  6
CONTINUOUS
 10
212.337402
 20
47.688770
 11
210.753906
 21
47.688770
  0
LINE
  8
0
  6
CONTINUOUS
 10
221.292206
 20
43.588856
 11
223.425095
 21
43.588856
  0
LINE
  8
0
  6
CONTINUOUS
 10
219.652206
 20
47.688770
 11
220.146805
 21
47.688770
  0
LINE
  8
0
  6
CONTINUOUS
 10
221.292206
 20
47.688770
 11
224.401901
 21
47.686756
  0
LINE
  8
0
  6
CONTINUOUS
 10
205.361099
 20
46.987309
 11
205.361099
 21
46.829746
  0
LINE
  8
0
  6
CONTINUOUS
 10
337.277496
 20
90.616249
 11
327.777496
 21
90.616249
  0
LINE
  8
0
  6
CONTINUOUS
 10
337.277496
 20
14.616250
 11
327.777496
 21
14.616250
  0
LINE
  8
0
  6
CONTINUOUS
 10
337.277496
 20
12.616250
 11
337.277496
 21
92.616249
  0
LINE
  8
0
  6
CONTINUOUS
 10
327.277496
 20
92.116249
 11
327.277496
 21
90.616249
  0
LINE
  8
0
  6
CONTINUOUS
 10
334.277496
 20
92.116249
 11
334.277496
 21
90.616249
  0
LINE
  8
0
  6
CONTINUOUS
 10
334.277496
 20
92.116249
 11
327.277496
 21
92.116249
  0
LINE
  8
0
  6
CONTINUOUS
 10
329.877502
 20
105.116249
 11
329.877502
 21
92.116249
  0
LINE
  8
0
  6
CONTINUOUS
 10
331.677490
 20
105.741249
 11
331.677490
 21
92.116249
  0
LINE
  8
0
  6
CONTINUOUS
 10
333.477509
 20
103.678749
 11
333.477509
 21
92.116249
  0
LINE
  8
0
  6
CONTINUOUS
 10
328.077515
 20
104.491249
 11
328.077515
 21
92.116249
  0
LINE
  8
0
  6
CONTINUOUS
 10
331.677490
 20
105.741249
 11
329.877502
 21
105.116249
  0
LINE
  8
0
  6
CONTINUOUS
 10
333.477509
 20
103.678749
 11
331.677490
 21
104.303749
  0
LINE
  8
0
  6
CONTINUOUS
 10
328.077515
 20
104.491249
 11
329.876495
 21
104.043541
  0
LINE
  8
0
  6
CONTINUOUS
 10
337.277496
 20
82.865250
 11
327.777496
 21
82.865250
  0
LINE
  8
0
  6
CONTINUOUS
 10
337.277496
 20
22.367250
 11
327.777496
 21
22.367250
  0
LINE
  8
0
  6
CONTINUOUS
 10
381.277496
 20
92.616249
 11
337.277496
 21
92.616249
  0
LINE
  8
0
  6
CONTINUOUS
 10
381.277496
 20
12.616250
 11
337.277496
 21
12.616250
  0
LINE
  8
0
  6
CONTINUOUS
 10
386.277496
 20
17.616249
 11
386.277496
 21
87.616249
  0
ARC
  8
0
  6
CONTINUOUS
 10
381.277496
 20
87.616272
 40
5.000000
 50
0.000000
 51
90.000000
  0
ARC
  8
0
  6
CONTINUOUS
 10
381.277496
 20
17.616249
 40
5.000000
 50
-90.000000
 51
0.000000
  0
LINE
  8
0
  6
CONTINUOUS
 10
383.777496
 20
26.616249
 11
337.277496
 21
26.616249
  0
LINE
  8
0
  6
CONTINUOUS
 10
383.777496
 20
76.616249
 11
337.277496
 21
76.616249
  0
LINE
  8
0
  6
CENTER
 10
212.777496
 20
173.336243
 11
212.777496
 21
294.369995
  0
LINE
  8
0
  6
CENTER
 10
396.128113
 20
241.836243
 11
164.277496
 21
241.836243
  0
LINE
  8
0
  6
CONTINUOUS
 10
174.085007
 20
210.836243
 11
253.329193
 21
210.836243
  0
LINE
  8
0
  6
CONTINUOUS
 10
337.277496
 20
203.836243
 11
327.777496
 21
203.836243
  0
LINE
  8
0
  6
CONTINUOUS
 10
337.277496
 20
279.836243
 11
327.777496
 21
279.836243
  0
LINE
  8
0
  6
CONTINUOUS
 10
337.277496
 20
218.836243
 11
327.777496
 21
218.836243
  0
LINE
  8
0
  6
CONTINUOUS
 10
327.777496
 20
279.836243
 11
327.777496
 21
248.702271
  0
LINE
  8
0
  6
CONTINUOUS
 10
337.277496
 20
264.836243
 11
327.777496
 21
264.836243
  0
LINE
  8
0
  6
CONTINUOUS
 10
257.409119
 20
203.836243
 11
327.777496
 21
203.836243
  0
LINE
  8
0
  6
CONTINUOUS
 10
327.777496
 20
218.836243
 11
251.857819
 21
218.836243
  0
LINE
  8
0
  6
CONTINUOUS
 10
254.486649
 20
272.836243
 11
171.487335
 21
272.836243
  0
LINE
  8
0
  6
CONTINUOUS
 10
256.791107
 20
279.836243
 11
327.777496
 21
279.836243
  0
LINE
  8
0
  6
CONTINUOUS
 10
327.777496
 20
264.836243
 11
255.722656
 21
264.836243
  0
LINE
  8
0
  6
CONTINUOUS
 10
232.777496
 20
207.836243
 11
232.777496
 21
210.836243
  0
LINE
  8
0
  6
CONTINUOUS
 10
192.777496
 20
207.836243
 11
192.777496
 21
210.836243
  0
LINE
  8
0
  6
CONTINUOUS
 10
193.777496
 20
206.836243
 11
231.777496
 21
206.836243
  0
ARC
  8
0
  6
CONTINUOUS
 10
231.777496
 20
207.836243
 40
1.000000
 50
-90.000000
 51
0.000000
  0
ARC
  8
0
  6
CONTINUOUS
 10
193.777496
 20
207.836243
 40
1.000000
 50
180.000000
 51
270.000000
  0
LINE
  8
0
  6
CONTINUOUS
 10
220.277496
 20
177.836243
 11
220.277496
 21
204.836243
  0
LINE
  8
0
  6
CONTINUOUS
 10
220.277496
 20
177.836243
 11
203.277496
 21
177.836243
  0
LINE
  8
0
  6
CONTINUOUS
 10
221.277496
 20
204.836243
 11
204.277496
 21
204.836243
  0
LINE
  8
0
  6
CONTINUOUS
 10
221.277496
 20
204.836243
 11
221.277496
 21
206.836243
  0
LINE
  8
0
  6
CONTINUOUS
 10
204.277496
 20
204.836243
 11
204.277496
 21
206.836243
  0
LINE
  8
0
  6
CONTINUOUS
 10
203.277496
 20
201.836243
 11
203.277496
 21
177.836243
  0
LINE
  8
0
  6
CONTINUOUS
 10
205.706497
 20
201.836243
 11
205.706497
 21
177.836243
  0
LINE
  8
0
  6
CONTINUOUS
 10
205.706497
 20
201.836243
 11
203.277496
 21
201.836243
  0
LINE
  8
0
  6
CONTINUOUS
 10
205.277496
 20
201.836243
 11
205.277496
 21
204.836243
  0
LINE
  8
0
  6
CONTINUOUS
 10
197.777496
 20
271.836243
 11
197.777496
 21
212.801346
  0
LINE
  8
0
  6
CONTINUOUS
 10
227.777496
 20
271.836243
 11
227.777496
 21
212.801346
  0
LINE
  8
0
  6
CONTINUOUS
 10
255.486923
 20
218.833511
 11
255.328506
 21
212.783890
  0
LINE
  8
0
  6
CONTINUOUS
 10
251.002884
 20
271.654999
 11
251.002884
 21
220.835983
  0
LINE
  8
0
  6
CONTINUOUS
 10
334.277496
 20
247.836243
 11
334.277496
 21
235.836243
  0
LINE
  8
0
  6
CONTINUOUS
 10
327.277496
 20
247.836243
 11
327.277496
 21
235.836243
  0
LINE
  8
0
  6
CONTINUOUS
 10
333.277496
 20
234.836243
 11
328.277496
 21
234.836243
  0
LINE
  8
0
  6
CONTINUOUS
 10
328.277496
 20
248.836243
 11
333.277496
 21
248.836243
  0
ARC
  8
0
  6
CONTINUOUS
 10
328.277496
 20
235.836243
 40
1.000000
 50
180.000000
 51
270.000000
  0
ARC
  8
0
  6
CONTINUOUS
 10
333.277496
 20
235.836243
 40
1.000000
 50
-90.000000
 51
0.000000
  0
ARC
  8
0
  6
CONTINUOUS
 10
333.277496
 20
247.836243
 40
1.000000
 50
0.000000
 51
90.000000
  0
ARC
  8
0
  6
CONTINUOUS
 10
328.277496
 20
247.836243
 40
1.000000
 50
90.000000
 51
180.000000
  0
LINE
  8
0
  6
CONTINUOUS
 10
329.777496
 20
245.336243
 11
329.777496
 21
238.336243
  0
LINE
  8
0
  6
CONTINUOUS
 10
331.777496
 20
245.336243
 11
331.777496
 21
238.336243
  0
ARC
  8
0
  6
CONTINUOUS
 10
330.777496
 20
238.336243
 40
1.000000
 50
-90.000000
 51
0.000000
  0
ARC
  8
0
  6
CONTINUOUS
 10
330.777496
 20
238.336243
 40
1.000000
 50
180.000000
 51
270.000000
  0
ARC
  8
0
  6
CONTINUOUS
 10
330.777496
 20
245.336243
 40
1.000000
 50
0.000000
 51
90.000000
  0
ARC
  8
0
  6
CONTINUOUS
 10
330.777496
 20
245.336243
 40
1.000000
 50
90.000000
 51
180.000000
  0
LINE
  8
0
  6
CONTINUOUS
 10
327.777496
 20
234.970230
 11
327.777496
 21
203.836243
  0
LINE
  8
0
  6
CONTINUOUS
 10
255.277496
 20
281.836243
 11
170.277496
 21
281.836243
  0
LINE
  8
0
  6
CONTINUOUS
 10
172.085693
 20
212.783890
 11
170.277496
 21
281.836243
  0
ARC
  8
0
  6
CONTINUOUS
 10
174.085007
 20
212.836243
 40
2.000000
 50
181.500000
 51
270.000000
  0
LINE
  8
0
  6
CONTINUOUS
 10
256.324951
 20
241.836243
 11
255.277496
 21
281.836243
  0
LINE
  8
0
  6
CONTINUOUS
 10
172.854797
 20
281.836243
 11
172.854797
 21
274.146576
  0
LINE
  8
0
  6
CONTINUOUS
 10
252.700195
 20
281.836243
 11
252.700195
 21
274.146576
  0
ARC
  8
0
  6
CONTINUOUS
 10
228.777496
 20
271.836243
 40
1.000000
 50
90.000000
 51
180.000000
  0
ARC
  8
0
  6
CONTINUOUS
 10
196.777496
 20
271.836243
 40
1.000000
 50
0.000000
 51
90.000000
  0
LINE
  8
0
  6
CONTINUOUS
 10
227.777496
 20
271.516235
 11
197.777496
 21
271.516235
  0
ARC
  8
0
  6
CONTINUOUS
 10
171.487335
 20
273.836243
 40
1.000000
 50
181.500000
 51
270.000000
  0
LINE
  8
0
  6
CONTINUOUS
 10
255.409805
 20
205.783890
 11
255.328506
 21
208.888611
  0
ARC
  8
0
  6
CONTINUOUS
 10
254.486649
 20
273.836243
 40
1.000000
 50
-90.000000
 51
1.499999
  0
ARC
  8
0
  6
CONTINUOUS
 10
256.791107
 20
281.336243
 40
1.500000
 50
181.500000
 51
270.000000
  0
ARC
  8
0
  6
CONTINUOUS
 10
257.409119
 20
205.836243
 40
2.000000
 50
181.500000
 51
270.000000
  0
ARC
  8
0
  6
CONTINUOUS
 10
253.329193
 20
208.836243
 40
2.000000
 50
1.500000
 51
90.000000
  0
ARC
  8
0
  6
CONTINUOUS
 10
253.329193
 20
212.836243
 40
2.000000
 50
270.000000
 51
358.500000
  0
LINE
  8
0
  6
CENTER
 10
180.777496
 20
285.726410
 11
180.777496
 21
268.585632
  0
LINE
  8
0
  6
DASHED
 10
177.527496
 20
272.836243
 11
177.527496
 21
281.836243
  0
LINE
  8
0
  6
DASHED
 10
184.027496
 20
272.836243
 11
184.027496
 21
281.836243
  0
LINE
  8
0
  6
CENTER
 10
244.777496
 20
285.726410
 11
244.777496
 21
268.585632
  0
LINE
  8
0
  6
DASHED
 10
248.027496
 20
272.836243
 11
248.027496
 21
281.836243
  0
LINE
  8
0
  6
DASHED
 10
241.527496
 20
272.836243
 11
241.527496
 21
281.836243
  0
LINE
  8
0
  6
CONTINUOUS
 10
337.277496
 20
281.836243
 11
337.277496
 21
201.836243
  0
LINE
  8
0
  6
CONTINUOUS
 10
381.277496
 20
201.836243
 11
337.277496
 21
201.836243
  0
LINE
  8
0
  6
CONTINUOUS
 10
381.277496
 20
281.836243
 11
337.277496
 21
281.836243
  0
LINE
  8
0
  6
CONTINUOUS
 10
386.277496
 20
276.836243
 11
386.277496
 21
206.836243
  0
ARC
  8
0
  6
CONTINUOUS
 10
381.277466
 20
206.836227
 40
5.000000
 50
-90.000000
 51
0.000000
  0
ARC
  8
0
  6
CONTINUOUS
 10
381.277496
 20
276.836243
 40
5.000000
 50
0.000000
 51
90.000000
  0
LINE
  8
0
  6
CONTINUOUS
 10
383.777496
 20
267.836243
 11
337.277496
 21
267.836243
  0
LINE
  8
0
  6
CONTINUOUS
 10
383.777496
 20
217.836243
 11
337.277496
 21
217.836243
  0
TEXT
  8
0
 10
-72.000000
 20
1.000000
 40
4.000000
 41
1.000000
  1
HFM-15L-10~120-T40W
 50
0.000000
  0
ENDSEC
  0
EOF
