  0
SECTION
  2
HEADER
  9
$ACADVER
  1
AC1014
  9
$ACADMAINTVER
 70
     9
  9
$DWGCODEPAGE
  3
ANSI_932
  9
$INSBASE
 10
0.0
 20
0.0
 30
0.0
  9
$EXTMIN
 10
39.60014392272124
 20
45.19838010361897
 30
0.0
  9
$EXTMAX
 10
421.4701029765051
 20
362.1793101036189
 30
0.0
  9
$LIMMIN
 10
0.0
 20
0.0
  9
$LIMMAX
 10
297.0
 20
210.0
  9
$ORTHOMODE
 70
     1
  9
$REGENMODE
 70
     1
  9
$FILLMODE
 70
     1
  9
$QTEXTMODE
 70
     0
  9
$MIRRTEXT
 70
     0
  9
$DRAGMODE
 70
     2
  9
$LTSCALE
 40
2.0
  9
$OSMODE
 70
    37
  9
$ATTMODE
 70
     1
  9
$TEXTSIZE
 40
2.0
  9
$TRACEWID
 40
1.0
  9
$TEXTSTYLE
  7
STANDARD
  9
$CLAYER
  8
0
  9
$CELTYPE
  6
BYLAYER
  9
$CECOLOR
 62
   256
  9
$CELTSCALE
 40
1.0
  9
$DELOBJ
 70
     1
  9
$DISPSILH
 70
     0
  9
$DIMSCALE
 40
2.0
  9
$DIMASZ
 40
1.8
  9
$DIMEXO
 40
0.625
  9
$DIMDLI
 40
3.75
  9
$DIMRND
 40
0.0
  9
$DIMDLE
 40
0.0
  9
$DIMEXE
 40
0.8
  9
$DIMTP
 40
0.0
  9
$DIMTM
 40
0.0
  9
$DIMTXT
 40
1.8
  9
$DIMCEN
 40
2.5
  9
$DIMTSZ
 40
0.0
  9
$DIMTOL
 70
     0
  9
$DIMLIM
 70
     0
  9
$DIMTIH
 70
     0
  9
$DIMTOH
 70
     0
  9
$DIMSE1
 70
     0
  9
$DIMSE2
 70
     0
  9
$DIMTAD
 70
     1
  9
$DIMZIN
 70
     8
  9
$DIMBLK
  1

  9
$DIMASO
 70
     1
  9
$DIMSHO
 70
     1
  9
$DIMPOST
  1

  9
$DIMAPOST
  1

  9
$DIMALT
 70
     0
  9
$DIMALTD
 70
     4
  9
$DIMALTF
 40
0.0394
  9
$DIMLFAC
 40
1.0
  9
$DIMTOFL
 70
     1
  9
$DIMTVP
 40
0.0
  9
$DIMTIX
 70
     0
  9
$DIMSOXD
 70
     0
  9
$DIMSAH
 70
     0
  9
$DIMBLK1
  1

  9
$DIMBLK2
  1

  9
$DIMSTYLE
  2
STANDARD
  9
$DIMCLRD
 70
     0
  9
$DIMCLRE
 70
     0
  9
$DIMCLRT
 70
     0
  9
$DIMTFAC
 40
1.0
  9
$DIMGAP
 40
0.75
  9
$DIMJUST
 70
     0
  9
$DIMSD1
 70
     0
  9
$DIMSD2
 70
     0
  9
$DIMTOLJ
 70
     1
  9
$DIMTZIN
 70
     0
  9
$DIMALTZ
 70
     0
  9
$DIMALTTZ
 70
     0
  9
$DIMFIT
 70
     3
  9
$DIMUPT
 70
     0
  9
$DIMUNIT
 70
     8
  9
$DIMDEC
 70
     2
  9
$DIMTDEC
 70
     2
  9
$DIMALTU
 70
     8
  9
$DIMALTTD
 70
     4
  9
$DIMTXSTY
  7
STANDARD
  9
$DIMAUNIT
 70
     0
  9
$LUNITS
 70
     2
  9
$LUPREC
 70
     3
  9
$SKETCHINC
 40
1.0
  9
$FILLETRAD
 40
10.0
  9
$AUNITS
 70
     0
  9
$AUPREC
 70
     2
  9
$MENU
  1
.
  9
$ELEVATION
 40
0.0
  9
$PELEVATION
 40
0.0
  9
$THICKNESS
 40
0.0
  9
$LIMCHECK
 70
     0
  9
$BLIPMODE
 70
     0
  9
$CHAMFERA
 40
0.0
  9
$CHAMFERB
 40
0.0
  9
$CHAMFERC
 40
20.0
  9
$CHAMFERD
 40
0.0
  9
$SKPOLY
 70
     0
  9
$TDCREATE
 40
2453753.375023680
  9
$TDUPDATE
 40
2454399.553347071
  9
$TDINDWG
 40
0.2025573264
  9
$TDUSRTIMER
 40
0.2025573264
  9
$USRTIMER
 70
     1
  9
$ANGBASE
 50
0.0
  9
$ANGDIR
 70
     0
  9
$PDMODE
 70
     0
  9
$PDSIZE
 40
-10.0
  9
$PLINEWID
 40
0.0
  9
$COORDS
 70
     1
  9
$SPLFRAME
 70
     0
  9
$SPLINETYPE
 70
     6
  9
$SPLINESEGS
 70
     8
  9
$ATTDIA
 70
     0
  9
$ATTREQ
 70
     1
  9
$HANDLING
 70
-16383
  9
$HANDSEED
  5
17C4
  9
$SURFTAB1
 70
     6
  9
$SURFTAB2
 70
     6
  9
$SURFTYPE
 70
     6
  9
$SURFU
 70
     6
  9
$SURFV
 70
     6
  9
$UCSNAME
  2

  9
$UCSORG
 10
0.0
 20
0.0
 30
0.0
  9
$UCSXDIR
 10
1.0
 20
0.0
 30
0.0
  9
$UCSYDIR
 10
0.0
 20
1.0
 30
0.0
  9
$PUCSNAME
  2

  9
$PUCSORG
 10
0.0
 20
0.0
 30
0.0
  9
$PUCSXDIR
 10
1.0
 20
0.0
 30
0.0
  9
$PUCSYDIR
 10
0.0
 20
1.0
 30
0.0
  9
$USERI1
 70
     0
  9
$USERI2
 70
     0
  9
$USERI3
 70
     0
  9
$USERI4
 70
     0
  9
$USERI5
 70
     0
  9
$USERR1
 40
0.0
  9
$USERR2
 40
0.0
  9
$USERR3
 40
0.0
  9
$USERR4
 40
0.0
  9
$USERR5
 40
0.0
  9
$WORLDVIEW
 70
     1
  9
$SHADEDGE
 70
     3
  9
$SHADEDIF
 70
    70
  9
$TILEMODE
 70
     1
  9
$MAXACTVP
 70
    48
  9
$PINSBASE
 10
0.0
 20
0.0
 30
0.0
  9
$PLIMCHECK
 70
     0
  9
$PEXTMIN
 10
0.0
 20
0.0
 30
0.0
  9
$PEXTMAX
 10
0.0
 20
0.0
 30
0.0
  9
$PLIMMIN
 10
0.0
 20
0.0
  9
$PLIMMAX
 10
12.0
 20
9.0
  9
$UNITMODE
 70
     0
  9
$VISRETAIN
 70
     1
  9
$PLINEGEN
 70
     0
  9
$PSLTSCALE
 70
     1
  9
$TREEDEPTH
 70
  3020
  9
$PICKSTYLE
 70
     1
  9
$CMLSTYLE
  2
STANDARD
  9
$CMLJUST
 70
     0
  9
$CMLSCALE
 40
1.0
  9
$PROXYGRAPHICS
 70
     1
  9
$MEASUREMENT
 70
     0
  0
ENDSEC
  0
SECTION
  2
CLASSES
  0
CLASS
  1
DICTIONARYVAR
  2
AcDbDictionaryVar
  3
AutoCAD 2000
 90
        0
280
     0
281
     0
  0
CLASS
  1
ACDBDICTIONARYWDFLT
  2
AcDbDictionaryWithDefault
  3
AutoCAD 2000
 90
        0
280
     0
281
     0
  0
CLASS
  1
ACDBPLACEHOLDER
  2
AcDbPlaceHolder
  3
AutoCAD 2000
 90
        0
280
     0
281
     0
  0
CLASS
  1
LAYOUT
  2
AcDbLayout
  3
AutoCAD 2000
 90
        0
280
     0
281
     0
  0
CLASS
  1
LONG_TRANSACTION
  2
AcDbLongTransaction
  3
AutoCAD 2000
 90
        0
280
     0
281
     0
  0
CLASS
  1
LWPOLYLINE
  2
AcDbPolyline
  3
AutoCAD 2000
 90
        0
280
     0
281
     1
  0
CLASS
  1
HATCH
  2
AcDbHatch
  3
AutoCAD 2000
 90
        0
280
     0
281
     1
  0
CLASS
  1
XRECORD
  2
AcDbXrecord
  3
AutoCAD 2000
 90
        0
280
     0
281
     0
  0
ENDSEC
  0
SECTION
  2
TABLES
  0
TABLE
  2
VPORT
  5
6E
330
0
100
AcDbSymbolTable
 70
     2
  0
VPORT
  5
179E
330
6E
100
AcDbSymbolTableRecord
100
AcDbViewportTableRecord
  2
*ACTIVE
 70
     0
 10
0.0
 20
0.0
 11
1.0
 21
1.0
 12
223.0667315985662
 22
191.7817601297747
 13
0.0
 23
0.0
 14
10.0
 24
10.0
 15
10.0
 25
10.0
 16
0.0
 26
0.0
 36
1.0
 17
0.0
 27
0.0
 37
0.0
 40
343.4090930323424
 41
1.540920716112531
 42
50.0
 43
0.0
 44
0.0
 50
0.0
 51
0.0
 71
     0
 72
   100
 73
     1
 74
     3
 75
     0
 76
     0
 77
     0
 78
     0
  0
ENDTAB
  0
TABLE
  2
LTYPE
  5
69
330
0
100
AcDbSymbolTable
 70
     4
  0
LTYPE
  5
6A
330
69
100
AcDbSymbolTableRecord
100
AcDbLinetypeTableRecord
  2
BYBLOCK
 70
     0
  3

 72
    65
 73
     0
 40
0.0
  0
LTYPE
  5
6B
330
69
100
AcDbSymbolTableRecord
100
AcDbLinetypeTableRecord
  2
BYLAYER
 70
     0
  3

 72
    65
 73
     0
 40
0.0
  0
LTYPE
  5
8
330
69
100
AcDbSymbolTableRecord
100
AcDbLinetypeTableRecord
  2
CONTINUOUS
 70
     0
  3
Solid line
 72
    65
 73
     0
 40
0.0
  0
LTYPE
  5
27C
330
69
100
AcDbSymbolTableRecord
100
AcDbLinetypeTableRecord
  2
SEKKEI_A2_
 70
     0
  3
center(A2)  ____ _ ____ _ ____ _ ____ _ ____ _ 
 72
    65
 73
     4
 40
14.28749999999999
 49
9.525
 74
     0
 49
-1.587499999999999
 74
     0
 49
1.587499999999999
 74
     0
 49
-1.587499999999999
 74
     0
  0
LTYPE
  5
2B4
330
69
100
AcDbSymbolTableRecord
100
AcDbLinetypeTableRecord
  2
HIDDEN2
 70
     0
  3
Hidden (.5x) _ _ _ _ _ _ _ _ _ _ _ _ _ _ _ _ _
 72
    65
 73
     2
 40
4.762499999999999
 49
3.174999999999999
 74
     0
 49
-1.587499999999999
 74
     0
  0
LTYPE
  5
48F
330
69
100
AcDbSymbolTableRecord
100
AcDbLinetypeTableRecord
  2
SEKKEI_H
 70
     0
  3
Hidden-S _ _ _ _ _ _ _ _ _ _ _ _ _ _ _ _ _
 72
    65
 73
     2
 40
2.381249999999999
 49
1.587499999999999
 74
     0
 49
-0.79375
 74
     0
  0
ENDTAB
  0
TABLE
  2
LAYER
  5
66
330
0
100
AcDbSymbolTable
 70
     9
  0
LAYER
  5
5E
330
66
100
AcDbSymbolTableRecord
100
AcDbLayerTableRecord
  2
0
 70
     0
 62
     7
  6
CONTINUOUS
  0
LAYER
  5
3E
330
66
100
AcDbSymbolTableRecord
100
AcDbLayerTableRecord
  2
CENTER
 70
     0
 62
     3
  6
SEKKEI_A2_
  0
LAYER
  5
2B5
330
66
100
AcDbSymbolTableRecord
100
AcDbLayerTableRecord
  2
HIDS
 70
     0
 62
     1
  6
HIDDEN2
  0
LAYER
  5
2BA
330
66
100
AcDbSymbolTableRecord
100
AcDbLayerTableRecord
  2
HOJO
 70
     0
 62
     4
  6
CONTINUOUS
  0
LAYER
  5
3FA
330
66
100
AcDbSymbolTableRecord
100
AcDbLayerTableRecord
  2
TITLE
 70
     0
 62
     4
  6
CONTINUOUS
  0
ENDTAB
  0
TABLE
  2
STYLE
  5
67
330
0
100
AcDbSymbolTable
 70
     1
  0
STYLE
  5
16
330
67
100
AcDbSymbolTableRecord
100
AcDbTextStyleTableRecord
  2
STANDARD
 70
     0
 40
0.0
 41
1.0
 50
0.0
 71
     0
 42
2.0
  3
simplex.shx
  4
extfont.shx
  0
ENDTAB
  0
TABLE
  2
VIEW
  5
6C
330
0
100
AcDbSymbolTable
 70
     0
  0
ENDTAB
  0
TABLE
  2
UCS
  5
6D
330
0
100
AcDbSymbolTable
 70
     0
  0
ENDTAB
  0
TABLE
  2
APPID
  5
70
330
0
100
AcDbSymbolTable
 70
     1
  0
APPID
  5
71
330
70
100
AcDbSymbolTableRecord
100
AcDbRegAppTableRecord
  2
ACAD
 70
     0
  0
ENDTAB
  0
TABLE
  2
DIMSTYLE
  5
72
330
0
100
AcDbSymbolTable
 70
     1
  0
DIMSTYLE
105
73
330
72
100
AcDbSymbolTableRecord
100
AcDbDimStyleTableRecord
  2
STANDARD
 70
     0
  3

  4

  5

  6

  7

 40
2.0
 41
1.8
 42
0.625
 43
3.75
 44
0.8
 45
0.0
 46
0.0
 47
0.0
 48
0.0
140
1.8
141
2.5
142
0.0
143
0.0394
144
1.0
145
0.0
146
1.0
147
0.75
 71
     0
 72
     0
 73
     0
 74
     0
 75
     0
 76
     0
 77
     1
 78
     8
170
     0
171
     4
172
     1
173
     0
174
     0
175
     0
176
     0
177
     0
178
     0
270
     8
271
     2
272
     2
273
     8
274
     4
340
16
275
     0
280
     0
281
     0
282
     0
283
     1
284
     0
285
     0
286
     0
287
     3
288
     0
  0
ENDTAB
  0
TABLE
  2
BLOCK_RECORD
  5
1
330
0
100
AcDbSymbolTable
 70
    49
  0
BLOCK_RECORD
  5
2
102
{ACAD_XDICTIONARY
360
17C0
102
}
330
1
100
AcDbSymbolTableRecord
100
AcDbBlockTableRecord
  2
*MODEL_SPACE
  0
BLOCK_RECORD
  5
1799
102
{ACAD_XDICTIONARY
360
17C2
102
}
330
1
100
AcDbSymbolTableRecord
100
AcDbBlockTableRecord
  2
*PAPER_SPACE
  0
ENDTAB
  0
ENDSEC
  0
SECTION
  2
BLOCKS
  0
BLOCK
  5
5D
330
2
100
AcDbEntity
  8
0
100
AcDbBlockBegin
  2
*MODEL_SPACE
 70
     0
 10
0.0
 20
0.0
 30
0.0
  3
*MODEL_SPACE
  1

  0
ENDBLK
  5
5F
330
2
100
AcDbEntity
  8
0
100
AcDbBlockEnd
  0
BLOCK
  5
179B
330
1799
100
AcDbEntity
 67
     1
  8
0
100
AcDbBlockBegin
  2
*PAPER_SPACE
 70
     0
 10
0.0
 20
0.0
 30
0.0
  3
*PAPER_SPACE
  1

  0
ENDBLK
  5
179C
330
1799
100
AcDbEntity
 67
     1
  8
0
100
AcDbBlockEnd
  0
ENDSEC
  0
SECTION
  2
ENTITIES
  0
LINE
  5
61A
330
2
100
AcDbEntity
  8
0
100
AcDbLine
 10
139.6001419227212
 20
280.179310103619
 30
0.0
 11
224.6001489227212
 21
280.179310103619
 31
0.0
  0
LINE
  5
61B
330
2
100
AcDbEntity
  8
0
100
AcDbLine
 10
140.3909969227212
 20
289.1793101036189
 30
0.0
 11
223.3903109227212
 21
289.1793101036189
 31
0.0
  0
LINE
  5
61C
330
2
100
AcDbEntity
  8
0
100
AcDbLine
 10
220.7926239227212
 20
351.179310103619
 30
0.0
 11
141.5484599227212
 21
351.179310103619
 31
0.0
  0
LINE
  5
61D
330
2
100
AcDbEntity
  8
CENTER
100
AcDbLine
 10
39.60014392272126
 20
320.1793101036189
 30
0.0
 11
230.5527050465026
 21
320.1793101036189
 31
0.0
  0
ARC
  5
61E
330
2
100
AcDbEntity
  8
0
100
AcDbCircle
 10
214.1001489227212
 20
60.19838010361898
 30
0.0
 40
8.0
100
AcDbArc
 50
270.0
 51
352.0303040000003
  0
ARC
  5
61F
330
2
100
AcDbEntity
  8
0
100
AcDbCircle
 10
215.7639369227212
 20
72.08247910361897
 30
0.0
 40
4.0
100
AcDbArc
 50
262.0302429999998
 51
352.0302989999998
  0
ARC
  5
620
330
2
100
AcDbEntity
  8
0
100
AcDbCircle
 10
214.1001489227212
 20
146.1983831036189
 30
0.0
 40
8.0
100
AcDbArc
 50
7.969647000000191
 51
90.0
  0
ARC
  5
621
330
2
100
AcDbEntity
  8
0
100
AcDbCircle
 10
215.7639369227212
 20
134.3142811036189
 30
0.0
 40
4.0
100
AcDbArc
 50
7.969701000000192
 51
97.96975700000015
  0
ARC
  5
622
330
2
100
AcDbEntity
  8
0
100
AcDbCircle
 10
182.1001489227212
 20
103.1983791036189
 30
0.0
 40
42.5
100
AcDbArc
 50
199.7498930000002
 51
340.2500920000002
  0
ARC
  5
623
330
2
100
AcDbEntity
  8
0
100
AcDbCircle
 10
182.1001489227212
 20
103.1983791036189
 30
0.0
 40
42.5
100
AcDbArc
 50
19.749901
 51
160.2501069999997
  0
LINE
  5
624
330
2
100
AcDbEntity
  8
CENTER
100
AcDbLine
 10
208.2564449227212
 20
146.1983831036189
 30
0.0
 11
219.9438529227212
 21
146.1983831036189
 31
0.0
  0
LINE
  5
626
330
2
100
AcDbEntity
  8
0
100
AcDbLine
 10
67.10014392272126
 20
63.64942010361898
 30
0.0
 11
139.1001419227212
 21
63.64942010361898
 31
0.0
  0
LINE
  5
627
330
2
100
AcDbEntity
  8
0
100
AcDbLine
 10
67.10014392272126
 20
124.1473501036189
 30
0.0
 11
138.8501419227212
 21
124.1473501036189
 31
0.0
  0
LINE
  5
628
330
2
100
AcDbEntity
  8
0
100
AcDbLine
 10
137.6001419227212
 20
55.89838010361898
 30
0.0
 11
67.10014392272126
 21
55.89838010361898
 31
0.0
  0
LINE
  5
629
330
2
100
AcDbEntity
  8
0
100
AcDbLine
 10
67.10014392272126
 20
131.8983801036189
 30
0.0
 11
140.0201319227212
 21
131.8983801036189
 31
0.0
  0
LINE
  5
62A
330
2
100
AcDbEntity
  8
CENTER
100
AcDbLine
 10
39.60014392272124
 20
93.89838010361899
 30
0.0
 11
157.4001449227212
 21
93.89838010361899
 31
0.0
  0
LINE
  5
62B
330
2
100
AcDbEntity
  8
0
100
AcDbLine
 10
67.10014392272126
 20
55.89838010361898
 30
0.0
 11
67.10014392272126
 21
131.8983801036189
 31
0.0
  0
LINE
  5
62C
330
2
100
AcDbEntity
  8
0
100
AcDbLine
 10
47.10014392272124
 20
58.89838010361898
 30
0.0
 11
47.10014392272124
 21
128.898380103619
 31
0.0
  0
LINE
  5
62D
330
2
100
AcDbEntity
  8
0
100
AcDbLine
 10
46.60014392272124
 20
61.89838010361897
 30
0.0
 11
46.60014392272124
 21
125.898380103619
 31
0.0
  0
ARC
  5
62E
330
2
100
AcDbEntity
  8
0
100
AcDbCircle
 10
50.56425192272126
 20
58.89837010361897
 30
0.0
 40
3.0
100
AcDbArc
 50
209.9996030000002
 51
270.0
  0
LINE
  5
630
330
2
100
AcDbEntity
  8
0
100
AcDbLine
 10
47.96616192272125
 20
57.39839010361897
 30
0.0
 11
47.10014392272124
 21
58.89838010361898
 31
0.0
  0
LINE
  5
631
330
2
100
AcDbEntity
  8
0
100
AcDbLine
 10
46.60014392272124
 20
61.89838010361897
 30
0.0
 11
47.10014392272124
 21
61.39838010361898
 31
0.0
  0
LINE
  5
632
330
2
100
AcDbEntity
  8
0
100
AcDbLine
 10
67.10014392272126
 20
63.64938010361898
 30
0.0
 11
48.68177992272125
 21
63.64938010361898
 31
0.0
  0
LINE
  5
633
330
2
100
AcDbEntity
  8
0
100
AcDbLine
 10
50.56424692272125
 20
55.89838010361898
 30
0.0
 11
67.10014392272126
 21
55.89838010361898
 31
0.0
  0
ARC
  5
634
330
2
100
AcDbEntity
  8
0
100
AcDbCircle
 10
50.56425192272126
 20
128.8983881036189
 30
0.0
 40
3.0
100
AcDbArc
 50
90.0
 51
150.0003969999997
  0
LINE
  5
635
330
2
100
AcDbEntity
  8
0
100
AcDbLine
 10
46.60014392272124
 20
125.898380103619
 30
0.0
 11
47.10014392272124
 21
126.3983801036189
 31
0.0
  0
LINE
  5
636
330
2
100
AcDbEntity
  8
0
100
AcDbLine
 10
47.96616192272125
 20
130.3983721036189
 30
0.0
 11
47.10014392272124
 21
128.898380103619
 31
0.0
  0
LINE
  5
63C
330
2
100
AcDbEntity
  8
0
100
AcDbLine
 10
48.68177992272125
 20
124.1473811036189
 30
0.0
 11
67.10014392272126
 21
124.1473811036189
 31
0.0
  0
LINE
  5
63D
330
2
100
AcDbEntity
  8
0
100
AcDbLine
 10
50.56424092272125
 20
131.8983801036189
 30
0.0
 11
67.10014392272126
 21
131.8983801036189
 31
0.0
  0
CIRCLE
  5
643
330
2
100
AcDbEntity
  8
0
100
AcDbCircle
 10
182.1001489227212
 20
116.198383103619
 30
0.0
 40
20.0
  0
LINE
  5
644
330
2
100
AcDbEntity
  8
0
100
AcDbLine
 10
142.1001419227212
 20
117.5596501036189
 30
0.0
 11
142.1001419227212
 21
88.83684110361897
 31
0.0
  0
LINE
  5
645
330
2
100
AcDbEntity
  8
CENTER
100
AcDbLine
 10
182.1001489227212
 20
161.198383103619
 30
0.0
 11
182.1001489227212
 21
45.19838010361897
 31
0.0
  0
LINE
  5
646
330
2
100
AcDbEntity
  8
0
100
AcDbLine
 10
139.6001419227212
 20
128.898380103619
 30
0.0
 11
139.6001419227212
 21
77.49838010361898
 31
0.0
  0
LINE
  5
647
330
2
100
AcDbEntity
  8
0
100
AcDbLine
 10
162.1001419227212
 20
56.19838010361897
 30
0.0
 11
202.1001489227212
 21
56.19838010361897
 31
0.0
  0
LINE
  5
648
330
2
100
AcDbEntity
  8
0
100
AcDbLine
 10
150.1001419227212
 20
52.19838010361897
 30
0.0
 11
214.1001489227212
 21
52.19838010361897
 31
0.0
  0
ARC
  5
649
330
2
100
AcDbEntity
  8
0
100
AcDbCircle
 10
150.1001419227212
 20
60.19838010361898
 30
0.0
 40
8.0
100
AcDbArc
 50
187.9696039999998
 51
270.0
  0
LINE
  5
64A
330
2
100
AcDbEntity
  8
0
100
AcDbLine
 10
142.1506709227212
 20
88.13045910361898
 30
0.0
 11
144.4750119227212
 21
71.52788910361898
 31
0.0
  0
LINE
  5
64B
330
2
100
AcDbEntity
  8
0
100
AcDbLine
 10
142.1774119227212
 20
59.08918010361898
 30
0.0
 11
139.6001419227212
 21
77.49838010361898
 31
0.0
  0
ARC
  5
64C
330
2
100
AcDbEntity
  8
0
100
AcDbCircle
 10
148.4363459227212
 20
72.08247910361897
 30
0.0
 40
4.0
100
AcDbArc
 50
187.9696959999997
 51
277.9697570000001
  0
CIRCLE
  5
64D
330
2
100
AcDbEntity
  8
0
100
AcDbCircle
 10
150.1001419227212
 20
60.19838010361898
 30
0.0
 40
3.25
  0
LINE
  5
64F
330
2
100
AcDbEntity
  8
0
100
AcDbLine
 10
139.6001419227212
 20
57.89838010361897
 30
0.0
 11
139.6001419227212
 21
63.89839010361898
 31
0.0
  0
ARC
  5
650
330
2
100
AcDbEntity
  8
0
100
AcDbCircle
 10
137.6001419227212
 20
57.89838010361897
 30
0.0
 40
2.0
100
AcDbArc
 50
270.0
 51
0.0
  0
ARC
  5
651
330
2
100
AcDbEntity
  8
0
100
AcDbCircle
 10
144.6001649227212
 20
63.89840010361897
 30
0.0
 40
5.0
100
AcDbArc
 50
135.7928009999995
 51
180.0
  0
ARC
  5
652
330
2
100
AcDbEntity
  8
0
100
AcDbCircle
 10
150.1001419227212
 20
60.19838010361898
 30
0.0
 40
8.0
100
AcDbArc
 50
0.0
 51
97.96981799999995
  0
ARC
  5
654
330
2
100
AcDbEntity
  8
0
100
AcDbCircle
 10
162.1001419227212
 20
60.19838010361898
 30
0.0
 40
4.0
100
AcDbArc
 50
180.0
 51
270.0
  0
LINE
  5
655
330
2
100
AcDbEntity
  8
0
100
AcDbLine
 10
190.0439509227212
 20
82.668350103619
 30
0.0
 11
192.0844479227212
 21
82.668350103619
 31
0.0
  0
LINE
  5
656
330
2
100
AcDbEntity
  8
0
100
AcDbLine
 10
190.0439509227212
 20
83.66421910361898
 30
0.0
 11
192.4986479227212
 21
83.66421910361898
 31
0.0
  0
LINE
  5
657
330
2
100
AcDbEntity
  8
0
100
AcDbLine
 10
190.0439509227212
 20
86.59047310361899
 30
0.0
 11
193.0188509227212
 21
86.58852810361898
 31
0.0
  0
LINE
  5
658
330
2
100
AcDbEntity
  8
0
100
AcDbLine
 10
188.4751489227212
 20
87.76088310361897
 30
0.0
 11
192.2976439227212
 21
87.76088310361897
 31
0.0
  0
LINE
  5
659
330
2
100
AcDbEntity
  8
0
100
AcDbLine
 10
175.7251489227212
 20
86.72774110361897
 30
0.0
 11
175.7251489227212
 21
85.76869610361899
 31
0.0
  0
LINE
  5
65A
330
2
100
AcDbEntity
  8
0
100
AcDbLine
 10
170.5075439227212
 20
87.76088310361897
 30
0.0
 11
169.3501419227212
 21
86.27888110361897
 31
0.0
  0
ARC
  5
65B
330
2
100
AcDbEntity
  8
0
100
AcDbCircle
 10
172.8115449227212
 20
81.31117010361895
 30
0.0
 40
1.992186999999999
100
AcDbArc
 50
270.0002139999998
 51
0.0001089999998967
  0
LINE
  5
65C
330
2
100
AcDbEntity
  8
0
100
AcDbLine
 10
170.4209429227212
 20
85.59835410361898
 30
0.0
 11
170.4209429227212
 21
80.08930010361899
 31
0.0
  0
LINE
  5
65D
330
2
100
AcDbEntity
  8
0
100
AcDbLine
 10
169.3501419227212
 20
86.27888110361897
 30
0.0
 11
169.3501419227212
 21
79.43923910361897
 31
0.0
  0
LINE
  5
65E
330
2
100
AcDbEntity
  8
0
100
AcDbLine
 10
175.7251489227212
 20
83.75161010361898
 30
0.0
 11
175.7251489227212
 21
78.19837910361897
 31
0.0
  0
LINE
  5
65F
330
2
100
AcDbEntity
  8
0
100
AcDbLine
 10
170.5799469227212
 20
78.19837910361897
 30
0.0
 11
173.8952389227212
 21
78.19837910361897
 31
0.0
  0
LINE
  5
660
330
2
100
AcDbEntity
  8
0
100
AcDbLine
 10
172.8115449227212
 20
79.31899110361896
 30
0.0
 11
171.1522429227212
 21
79.31899110361896
 31
0.0
  0
LINE
  5
661
330
2
100
AcDbEntity
  8
0
100
AcDbLine
 10
169.3501419227212
 20
79.43923910361897
 30
0.0
 11
170.5799469227212
 21
78.19837910361897
 31
0.0
  0
LINE
  5
662
330
2
100
AcDbEntity
  8
0
100
AcDbLine
 10
170.4209429227212
 20
80.08930010361899
 30
0.0
 11
171.1522429227212
 21
79.31899110361896
 31
0.0
  0
LINE
  5
663
330
2
100
AcDbEntity
  8
0
100
AcDbLine
 10
174.8037479227212
 20
78.96064010361897
 30
0.0
 11
173.8952389227212
 21
78.19837910361897
 31
0.0
  0
LINE
  5
664
330
2
100
AcDbEntity
  8
0
100
AcDbLine
 10
174.8037479227212
 20
78.19837910361897
 30
0.0
 11
175.7251489227212
 21
78.19837910361897
 31
0.0
  0
LINE
  5
665
330
2
100
AcDbEntity
  8
0
100
AcDbLine
 10
174.8037479227212
 20
78.96064010361897
 30
0.0
 11
174.8037479227212
 21
78.19837910361897
 31
0.0
  0
LINE
  5
666
330
2
100
AcDbEntity
  8
0
100
AcDbLine
 10
174.2126369227212
 20
86.49086410361897
 30
0.0
 11
171.1407459227212
 21
86.49086410361897
 31
0.0
  0
LINE
  5
667
330
2
100
AcDbEntity
  8
0
100
AcDbLine
 10
171.1407459227212
 20
86.49086410361897
 30
0.0
 11
170.4209429227212
 21
85.59835410361898
 31
0.0
  0
LINE
  5
668
330
2
100
AcDbEntity
  8
0
100
AcDbLine
 10
173.1353519227212
 20
83.75161010361898
 30
0.0
 11
175.7251489227212
 21
83.75161010361898
 31
0.0
  0
LINE
  5
669
330
2
100
AcDbEntity
  8
0
100
AcDbLine
 10
174.8037479227212
 20
85.91941410361897
 30
0.0
 11
174.8037479227212
 21
85.76869610361899
 31
0.0
  0
LINE
  5
66A
330
2
100
AcDbEntity
  8
0
100
AcDbLine
 10
173.1353519227212
 20
83.75161010361898
 30
0.0
 11
173.1353519227212
 21
82.70571110361897
 31
0.0
  0
LINE
  5
66B
330
2
100
AcDbEntity
  8
0
100
AcDbLine
 10
174.8037479227212
 20
82.70571110361897
 30
0.0
 11
174.8037479227212
 21
81.31117010361895
 31
0.0
  0
LINE
  5
66C
330
2
100
AcDbEntity
  8
0
100
AcDbLine
 10
174.8037479227212
 20
81.70961010361898
 30
0.0
 11
174.8037479227212
 21
82.50648910361897
 31
0.0
  0
LINE
  5
66D
330
2
100
AcDbEntity
  8
0
100
AcDbLine
 10
174.8037479227212
 20
82.70571110361897
 30
0.0
 11
173.1353519227212
 21
82.70571110361897
 31
0.0
  0
LINE
  5
66E
330
2
100
AcDbEntity
  8
0
100
AcDbLine
 10
174.8037479227212
 20
85.76869610361899
 30
0.0
 11
175.7251489227212
 21
85.76869610361899
 31
0.0
  0
LINE
  5
66F
330
2
100
AcDbEntity
  8
0
100
AcDbLine
 10
174.8037479227212
 20
85.91941410361897
 30
0.0
 11
174.2005369227212
 21
86.49086410361897
 31
0.0
  0
LINE
  5
670
330
2
100
AcDbEntity
  8
0
100
AcDbLine
 10
170.5075439227212
 20
87.76088310361897
 30
0.0
 11
174.7941499227212
 21
87.76088310361897
 31
0.0
  0
LINE
  5
671
330
2
100
AcDbEntity
  8
0
100
AcDbLine
 10
174.7941499227212
 20
87.76088310361897
 30
0.0
 11
175.7251489227212
 21
86.72774110361897
 31
0.0
  0
LINE
  5
672
330
2
100
AcDbEntity
  8
0
100
AcDbLine
 10
184.3339449227212
 20
86.59047310361899
 30
0.0
 11
184.6226409227212
 21
85.76869610361899
 31
0.0
  0
LINE
  5
673
330
2
100
AcDbEntity
  8
0
100
AcDbLine
 10
179.9626369227212
 20
86.59047310361899
 30
0.0
 11
179.6202449227212
 21
85.76869610361899
 31
0.0
  0
LINE
  5
674
330
2
100
AcDbEntity
  8
0
100
AcDbLine
 10
190.0439509227212
 20
86.59047310361899
 30
0.0
 11
190.0439509227212
 21
83.66421910361898
 31
0.0
  0
LINE
  5
675
330
2
100
AcDbEntity
  8
0
100
AcDbLine
 10
188.9482479227212
 20
86.59047310361899
 30
0.0
 11
188.9482479227212
 21
79.19448110361898
 31
0.0
  0
LINE
  5
676
330
2
100
AcDbEntity
  8
0
100
AcDbLine
 10
182.6729489227212
 20
86.59047310361899
 30
0.0
 11
182.6729489227212
 21
79.24428010361896
 31
0.0
  0
LINE
  5
677
330
2
100
AcDbEntity
  8
0
100
AcDbLine
 10
181.4775449227212
 20
86.59047310361899
 30
0.0
 11
181.4775449227212
 21
79.24428010361896
 31
0.0
  0
LINE
  5
678
330
2
100
AcDbEntity
  8
0
100
AcDbLine
 10
185.2876489227212
 20
85.76869610361899
 30
0.0
 11
185.2876489227212
 21
87.76088310361897
 31
0.0
  0
LINE
  5
679
330
2
100
AcDbEntity
  8
0
100
AcDbLine
 10
178.9126489227212
 20
85.76869610361899
 30
0.0
 11
178.9126489227212
 21
87.76088310361897
 31
0.0
  0
LINE
  5
67A
330
2
100
AcDbEntity
  8
0
100
AcDbLine
 10
181.0044459227212
 20
79.24428010361896
 30
0.0
 11
181.4775449227212
 21
79.24428010361896
 31
0.0
  0
LINE
  5
67B
330
2
100
AcDbEntity
  8
0
100
AcDbLine
 10
181.0044459227212
 20
78.19837910361897
 30
0.0
 11
183.0713409227212
 21
78.19837910361897
 31
0.0
  0
LINE
  5
67C
330
2
100
AcDbEntity
  8
0
100
AcDbLine
 10
183.0713409227212
 20
79.24428010361896
 30
0.0
 11
183.0713409227212
 21
78.19837910361897
 31
0.0
  0
LINE
  5
67D
330
2
100
AcDbEntity
  8
0
100
AcDbLine
 10
181.0044459227212
 20
79.24428010361896
 30
0.0
 11
181.0044459227212
 21
78.19837910361897
 31
0.0
  0
LINE
  5
67E
330
2
100
AcDbEntity
  8
0
100
AcDbLine
 10
182.6729489227212
 20
79.24428010361896
 30
0.0
 11
183.0713409227212
 21
79.24428010361896
 31
0.0
  0
LINE
  5
67F
330
2
100
AcDbEntity
  8
0
100
AcDbLine
 10
178.9126489227212
 20
85.76869610361899
 30
0.0
 11
179.6202449227212
 21
85.76869610361899
 31
0.0
  0
LINE
  5
680
330
2
100
AcDbEntity
  8
0
100
AcDbLine
 10
190.0439509227212
 20
82.668350103619
 30
0.0
 11
190.0439509227212
 21
79.19448110361898
 31
0.0
  0
LINE
  5
681
330
2
100
AcDbEntity
  8
0
100
AcDbLine
 10
188.4751489227212
 20
79.19448110361898
 30
0.0
 11
188.4751489227212
 21
78.19837910361897
 31
0.0
  0
LINE
  5
682
330
2
100
AcDbEntity
  8
0
100
AcDbLine
 10
190.4797419227212
 20
79.19448110361898
 30
0.0
 11
190.4797419227212
 21
78.19837910361897
 31
0.0
  0
LINE
  5
683
330
2
100
AcDbEntity
  8
0
100
AcDbLine
 10
190.4797419227212
 20
78.19837910361897
 30
0.0
 11
188.4751489227212
 21
78.19837910361897
 31
0.0
  0
LINE
  5
684
330
2
100
AcDbEntity
  8
0
100
AcDbLine
 10
190.0439509227212
 20
79.19448110361898
 30
0.0
 11
190.4797419227212
 21
79.19448110361898
 31
0.0
  0
LINE
  5
685
330
2
100
AcDbEntity
  8
0
100
AcDbLine
 10
188.4751489227212
 20
79.19448110361898
 30
0.0
 11
188.9482479227212
 21
79.19448110361898
 31
0.0
  0
LINE
  5
686
330
2
100
AcDbEntity
  8
0
100
AcDbLine
 10
184.6226409227212
 20
85.76869610361899
 30
0.0
 11
185.2876489227212
 21
85.76869610361899
 31
0.0
  0
LINE
  5
687
330
2
100
AcDbEntity
  8
0
100
AcDbLine
 10
182.6729489227212
 20
86.59047310361899
 30
0.0
 11
184.3339449227212
 21
86.59047310361899
 31
0.0
  0
LINE
  5
688
330
2
100
AcDbEntity
  8
0
100
AcDbLine
 10
178.9126489227212
 20
87.76088310361897
 30
0.0
 11
185.2876489227212
 21
87.76088310361897
 31
0.0
  0
LINE
  5
689
330
2
100
AcDbEntity
  8
0
100
AcDbLine
 10
181.4775449227212
 20
86.59047310361899
 30
0.0
 11
179.9626369227212
 21
86.59047310361899
 31
0.0
  0
LINE
  5
68A
330
2
100
AcDbEntity
  8
0
100
AcDbLine
 10
188.4751489227212
 20
86.59047310361899
 30
0.0
 11
188.9482479227212
 21
86.59047310361899
 31
0.0
  0
LINE
  5
68B
330
2
100
AcDbEntity
  8
0
100
AcDbLine
 10
188.4751489227212
 20
87.76088310361897
 30
0.0
 11
188.4751489227212
 21
86.59047310361899
 31
0.0
  0
ARC
  5
68C
330
2
100
AcDbEntity
  8
0
100
AcDbCircle
 10
214.1001489227212
 20
60.19838010361898
 30
0.0
 40
8.0
100
AcDbArc
 50
82.03034999999957
 51
180.0
  0
ARC
  5
68D
330
2
100
AcDbEntity
  8
0
100
AcDbCircle
 10
202.1001489227212
 20
60.19838010361898
 30
0.0
 40
4.0
100
AcDbArc
 50
270.0
 51
0.0
  0
CIRCLE
  5
68F
330
2
100
AcDbEntity
  8
0
100
AcDbCircle
 10
214.1001489227212
 20
60.19838010361898
 30
0.0
 40
3.25
  0
ARC
  5
690
330
2
100
AcDbEntity
  8
0
100
AcDbCircle
 10
192.2976439227212
 20
85.20839310361898
 30
0.0
 40
1.557193
100
AcDbArc
 50
277.4147259999995
 51
62.41184999999949
  0
ARC
  5
691
330
2
100
AcDbEntity
  8
0
100
AcDbCircle
 10
192.2976439227212
 20
85.20839310361898
 30
0.0
 40
2.55249
100
AcDbArc
 50
286.0181269999995
 51
90.00350999999964
  0
LINE
  5
692
330
2
100
AcDbEntity
  8
0
100
AcDbLine
 10
192.0844479227212
 20
82.668350103619
 30
0.0
 11
193.5794429227212
 21
79.19448110361898
 31
0.0
  0
LINE
  5
693
330
2
100
AcDbEntity
  8
0
100
AcDbLine
 10
193.0019439227212
 20
82.75500110361898
 30
0.0
 11
194.5818389227212
 21
79.19448110361898
 31
0.0
  0
LINE
  5
694
330
2
100
AcDbEntity
  8
0
100
AcDbLine
 10
193.3809419227212
 20
78.19837910361897
 30
0.0
 11
194.8501489227212
 21
78.19837910361897
 31
0.0
  0
LINE
  5
695
330
2
100
AcDbEntity
  8
0
100
AcDbLine
 10
193.3809419227212
 20
79.19448110361898
 30
0.0
 11
193.3809419227212
 21
78.19837910361897
 31
0.0
  0
LINE
  5
696
330
2
100
AcDbEntity
  8
0
100
AcDbLine
 10
193.3809419227212
 20
79.19448110361898
 30
0.0
 11
193.5794429227212
 21
79.19448110361898
 31
0.0
  0
LINE
  5
697
330
2
100
AcDbEntity
  8
0
100
AcDbLine
 10
194.8501489227212
 20
79.19448110361898
 30
0.0
 11
194.8501489227212
 21
78.19837910361897
 31
0.0
  0
LINE
  5
698
330
2
100
AcDbEntity
  8
0
100
AcDbLine
 10
194.5818389227212
 20
79.19448110361898
 30
0.0
 11
194.8501489227212
 21
79.19448110361898
 31
0.0
  0
LINE
  5
699
330
2
100
AcDbEntity
  8
0
100
AcDbLine
 10
162.1001419227212
 20
150.1983831036189
 30
0.0
 11
202.1001489227212
 21
150.1983831036189
 31
0.0
  0
LINE
  5
69A
330
2
100
AcDbEntity
  8
CENTER
100
AcDbLine
 10
155.1001489227212
 20
116.198383103619
 30
0.0
 11
209.1001489227212
 21
116.198383103619
 31
0.0
  0
LINE
  5
69B
330
2
100
AcDbEntity
  8
0
100
AcDbLine
 10
150.1001419227212
 20
154.1983831036189
 30
0.0
 11
214.1001489227212
 21
154.1983831036189
 31
0.0
  0
ARC
  5
69C
330
2
100
AcDbEntity
  8
0
100
AcDbCircle
 10
150.1001419227212
 20
146.1983831036189
 30
0.0
 40
8.0
100
AcDbArc
 50
262.0304029999998
 51
0.0
  0
LINE
  5
69D
330
2
100
AcDbEntity
  8
0
100
AcDbLine
 10
142.1774049227212
 20
147.3075291036189
 30
0.0
 11
139.6001419227212
 21
128.898380103619
 31
0.0
  0
CIRCLE
  5
69E
330
2
100
AcDbEntity
  8
0
100
AcDbCircle
 10
150.1001419227212
 20
146.1983831036189
 30
0.0
 40
3.25
  0
LINE
  5
6A0
330
2
100
AcDbEntity
  8
0
100
AcDbLine
 10
144.4750119227212
 20
134.8688701036189
 30
0.0
 11
142.0168059227212
 21
117.3100621036189
 31
0.0
  0
ARC
  5
6A1
330
2
100
AcDbEntity
  8
0
100
AcDbCircle
 10
148.4363459227212
 20
134.3142811036189
 30
0.0
 40
4.0
100
AcDbArc
 50
82.03024299999984
 51
172.0303040000002
  0
ARC
  5
6A2
330
2
100
AcDbEntity
  8
0
100
AcDbCircle
 10
150.1001419227212
 20
146.1983831036189
 30
0.0
 40
8.0
100
AcDbArc
 50
90.0
 51
172.030502
  0
ARC
  5
6A4
330
2
100
AcDbEntity
  8
0
100
AcDbCircle
 10
162.1001419227212
 20
146.1983831036189
 30
0.0
 40
4.0
100
AcDbArc
 50
90.0
 51
180.0
  0
ARC
  5
6A5
330
2
100
AcDbEntity
  8
0
100
AcDbCircle
 10
214.1001489227212
 20
146.1983831036189
 30
0.0
 40
8.0
100
AcDbArc
 50
180.0
 51
277.9695130000001
  0
CIRCLE
  5
6A6
330
2
100
AcDbEntity
  8
0
100
AcDbCircle
 10
214.1001489227212
 20
146.1983831036189
 30
0.0
 40
3.25
  0
LINE
  5
6A7
330
2
100
AcDbEntity
  8
CENTER
100
AcDbLine
 10
214.1001489227212
 20
140.3546791036189
 30
0.0
 11
214.1001489227212
 21
152.0420871036189
 31
0.0
  0
LINE
  5
6A8
330
2
100
AcDbEntity
  8
0
100
AcDbLine
 10
186.6001489227212
 20
113.6983831036189
 30
0.0
 11
191.6001489227212
 21
113.6983831036189
 31
0.0
  0
LINE
  5
6A9
330
2
100
AcDbEntity
  8
0
100
AcDbLine
 10
186.6001489227212
 20
118.6983831036189
 30
0.0
 11
191.6001489227212
 21
118.6983831036189
 31
0.0
  0
ARC
  5
6AA
330
2
100
AcDbEntity
  8
0
100
AcDbCircle
 10
182.1001489227212
 20
116.198383103619
 30
0.0
 40
7.5
100
AcDbArc
 50
19.47120099999961
 51
340.5288089999999
  0
LINE
  5
6AB
330
2
100
AcDbEntity
  8
0
100
AcDbLine
 10
186.6001489227212
 20
113.6983831036189
 30
0.0
 11
186.6001489227212
 21
118.6983831036189
 31
0.0
  0
LINE
  5
6AC
330
2
100
AcDbEntity
  8
0
100
AcDbLine
 10
191.6001489227212
 20
118.6983831036189
 30
0.0
 11
191.6001489227212
 21
113.6983831036189
 31
0.0
  0
ARC
  5
6AD
330
2
100
AcDbEntity
  8
0
100
AcDbCircle
 10
202.1001489227212
 20
146.1983831036189
 30
0.0
 40
4.0
100
AcDbArc
 50
0.0
 51
90.0
  0
LINE
  5
6AE
330
2
100
AcDbEntity
  8
0
100
AcDbLine
 10
108.0999459227213
 20
297.1793101036189
 30
0.0
 11
139.1549819227212
 21
297.1793101036189
 31
0.0
  0
LINE
  5
6AF
330
2
100
AcDbEntity
  8
0
100
AcDbLine
 10
138.0865389227212
 20
282.179310103619
 30
0.0
 11
67.10014392272126
 21
282.179310103619
 31
0.0
  0
LINE
  5
6B0
330
2
100
AcDbEntity
  8
0
100
AcDbLine
 10
108.1001439227212
 20
343.179310103619
 30
0.0
 11
143.0198269227212
 21
343.1793101036189
 31
0.0
  0
LINE
  5
6B1
330
2
100
AcDbEntity
  8
0
100
AcDbLine
 10
137.4685269227212
 20
358.179310103619
 30
0.0
 11
67.10014392272126
 21
358.179310103619
 31
0.0
  0
LINE
  5
6B2
330
2
100
AcDbEntity
  8
0
100
AcDbLine
 10
67.10014392272126
 20
282.179310103619
 30
0.0
 11
67.10014392272126
 21
295.1793101036189
 31
0.0
  0
LINE
  5
6B3
330
2
100
AcDbEntity
  8
0
100
AcDbLine
 10
47.10014392272126
 20
285.1793101036189
 30
0.0
 11
47.10014392272126
 21
355.179310103619
 31
0.0
  0
LINE
  5
6B4
330
2
100
AcDbEntity
  8
0
100
AcDbLine
 10
46.60014392272126
 20
288.179310103619
 30
0.0
 11
46.60014392272126
 21
352.179310103619
 31
0.0
  0
ARC
  5
6B5
330
2
100
AcDbEntity
  8
0
100
AcDbCircle
 10
50.56425192272127
 20
285.1793101036189
 30
0.0
 40
3.0
100
AcDbArc
 50
209.9996030000002
 51
270.0
  0
LINE
  5
6B6
330
2
100
AcDbEntity
  8
0
100
AcDbLine
 10
47.9661619227212
 20
283.6793251036189
 30
0.0
 11
47.10014392272126
 21
285.1793101036189
 31
0.0
  0
LINE
  5
6B7
330
2
100
AcDbEntity
  8
0
100
AcDbLine
 10
46.60014392272126
 20
288.179310103619
 30
0.0
 11
47.10014392272126
 21
287.679310103619
 31
0.0
  0
LINE
  5
6B8
330
2
100
AcDbEntity
  8
0
100
AcDbLine
 10
50.56424692272128
 20
282.179310103619
 30
0.0
 11
67.10014392272126
 21
282.179310103619
 31
0.0
  0
LINE
  5
6B9
330
2
100
AcDbEntity
  8
0
100
AcDbLine
 10
48.68177992272126
 20
297.1793101036189
 30
0.0
 11
58.1000369227213
 21
297.179310103619
 31
0.0
  0
ARC
  5
6BA
330
2
100
AcDbEntity
  8
0
100
AcDbCircle
 10
50.56425192272127
 20
355.179340103619
 30
0.0
 40
3.0
100
AcDbArc
 50
90.0
 51
150.0003969999997
  0
LINE
  5
6BB
330
2
100
AcDbEntity
  8
0
100
AcDbLine
 10
47.9661619227212
 20
356.679310103619
 30
0.0
 11
47.10014392272126
 21
355.179310103619
 31
0.0
  0
LINE
  5
6BC
330
2
100
AcDbEntity
  8
0
100
AcDbLine
 10
46.60014392272126
 20
352.179310103619
 30
0.0
 11
47.10014392272126
 21
352.679310103619
 31
0.0
  0
LINE
  5
6BD
330
2
100
AcDbEntity
  8
0
100
AcDbLine
 10
67.10014392272126
 20
345.1793101036189
 30
0.0
 11
67.10014392272126
 21
358.179310103619
 31
0.0
  0
LINE
  5
6CC
330
2
100
AcDbEntity
  8
0
100
AcDbLine
 10
48.68177992272126
 20
343.1793101036189
 30
0.0
 11
58.1000369227213
 21
343.1793101036189
 31
0.0
  0
LINE
  5
6CD
330
2
100
AcDbEntity
  8
0
100
AcDbLine
 10
50.5642409227213
 20
358.179310103619
 30
0.0
 11
67.10014392272126
 21
358.179310103619
 31
0.0
  0
LINE
  5
6CE
330
2
100
AcDbEntity
  8
0
100
AcDbLine
 10
138.5527099227211
 20
320.1793101036189
 30
0.0
 11
139.6001419227212
 21
280.179310103619
 31
0.0
  0
LINE
  5
6CF
330
2
100
AcDbEntity
  8
0
100
AcDbLine
 10
143.8747539227211
 20
290.3605691036189
 30
0.0
 11
143.8747539227211
 21
341.179584103619
 31
0.0
  0
LINE
  5
6D0
330
2
100
AcDbEntity
  8
0
100
AcDbLine
 10
167.1001419227212
 20
290.179310103619
 30
0.0
 11
167.1001419227212
 21
349.2142221036189
 31
0.0
  0
LINE
  5
6D1
330
2
100
AcDbEntity
  8
0
100
AcDbLine
 10
197.1001489227212
 20
290.179310103619
 30
0.0
 11
197.1001489227212
 21
349.2142221036189
 31
0.0
  0
LINE
  5
6D2
330
2
100
AcDbEntity
  8
CENTER
100
AcDbLine
 10
182.1001489227212
 20
362.1793101036189
 30
0.0
 11
182.1001489227212
 21
249.179310103619
 31
0.0
  0
LINE
  5
6D3
330
2
100
AcDbEntity
  8
HIDS
  6
SEKKEI_H
100
AcDbLine
 10
153.3501419227212
 20
289.1793101036189
 30
0.0
 11
153.3501419227212
 21
280.179310103619
 31
0.0
  0
LINE
  5
6D4
330
2
100
AcDbEntity
  8
HIDS
  6
SEKKEI_H
100
AcDbLine
 10
146.8501419227212
 20
289.1793101036189
 30
0.0
 11
146.8501419227212
 21
280.179310103619
 31
0.0
  0
LINE
  5
6D5
330
2
100
AcDbEntity
  8
CENTER
100
AcDbLine
 10
150.1001419227212
 20
276.6793101036189
 30
0.0
 11
150.1001419227212
 21
292.679310103619
 31
0.0
  0
ARC
  5
6D6
330
2
100
AcDbEntity
  8
0
100
AcDbCircle
 10
140.3909969227212
 20
288.179310103619
 30
0.0
 40
1.0
100
AcDbArc
 50
90.0
 51
181.5000000000002
  0
ARC
  5
6D7
330
2
100
AcDbEntity
  8
0
100
AcDbCircle
 10
138.0865389227212
 20
280.6793101036189
 30
0.0
 40
1.5
100
AcDbArc
 50
1.49999899999979
 51
90.0
  0
LINE
  5
6D8
330
2
100
AcDbEntity
  8
0
100
AcDbLine
 10
142.1774429227212
 20
280.179310103619
 30
0.0
 11
142.1774429227212
 21
287.8690071036189
 31
0.0
  0
LINE
  5
6D9
330
2
100
AcDbEntity
  8
0
100
AcDbLine
 10
189.1711489227212
 20
280.179310103619
 30
0.0
 11
189.1711489227212
 21
256.179310103619
 31
0.0
  0
LINE
  5
6DA
330
2
100
AcDbEntity
  8
0
100
AcDbLine
 10
191.6001489227212
 20
280.179310103619
 30
0.0
 11
191.6001489227212
 21
256.179310103619
 31
0.0
  0
LINE
  5
6DB
330
2
100
AcDbEntity
  8
0
100
AcDbLine
 10
174.6001489227212
 20
256.179310103619
 30
0.0
 11
174.6001489227212
 21
280.179310103619
 31
0.0
  0
LINE
  5
6DC
330
2
100
AcDbEntity
  8
0
100
AcDbLine
 10
174.6001489227212
 20
256.179310103619
 30
0.0
 11
191.6001489227212
 21
256.179310103619
 31
0.0
  0
LINE
  5
6DD
330
2
100
AcDbEntity
  8
0
100
AcDbLine
 10
167.1001419227212
 20
290.4993171036189
 30
0.0
 11
197.1001489227212
 21
290.4993171036189
 31
0.0
  0
ARC
  5
6DE
330
2
100
AcDbEntity
  8
0
100
AcDbCircle
 10
166.1001419227212
 20
290.179310103619
 30
0.0
 40
1.0
100
AcDbArc
 50
270.0
 51
0.0
  0
LINE
  5
6DF
330
2
100
AcDbEntity
  8
HIDS
  6
SEKKEI_H
100
AcDbLine
 10
210.8501489227212
 20
289.1793101036189
 30
0.0
 11
210.8501489227212
 21
280.179310103619
 31
0.0
  0
LINE
  5
6E0
330
2
100
AcDbEntity
  8
HIDS
  6
SEKKEI_H
100
AcDbLine
 10
217.3501489227212
 20
289.1793101036189
 30
0.0
 11
217.3501489227212
 21
280.179310103619
 31
0.0
  0
LINE
  5
6E1
330
2
100
AcDbEntity
  8
CENTER
100
AcDbLine
 10
214.1001489227213
 20
276.6793101036189
 30
0.0
 11
214.1001489227213
 21
292.679310103619
 31
0.0
  0
ARC
  5
6E2
330
2
100
AcDbEntity
  8
0
100
AcDbCircle
 10
198.1001489227212
 20
290.179310103619
 30
0.0
 40
1.0
100
AcDbArc
 50
180.0
 51
270.0
  0
ARC
  5
6E3
330
2
100
AcDbEntity
  8
0
100
AcDbCircle
 10
137.4685269227212
 20
356.179310103619
 30
0.0
 40
2.0
100
AcDbArc
 50
1.500000000000274
 51
90.0
  0
LINE
  5
6E4
330
2
100
AcDbEntity
  8
0
100
AcDbLine
 10
139.3907299227212
 20
343.182056103619
 30
0.0
 11
139.5491389227212
 21
349.2316781036189
 31
0.0
  0
ARC
  5
6E5
330
2
100
AcDbEntity
  8
0
100
AcDbCircle
 10
141.5484599227212
 20
349.179310103619
 30
0.0
 40
2.0
100
AcDbArc
 50
90.0
 51
178.4999999999997
  0
ARC
  5
6E6
330
2
100
AcDbEntity
  8
0
100
AcDbCircle
 10
141.5484599227212
 20
353.179310103619
 30
0.0
 40
2.0
100
AcDbArc
 50
181.5000000000002
 51
270.0
  0
LINE
  5
6E7
330
2
100
AcDbEntity
  8
0
100
AcDbLine
 10
139.4678409227212
 20
356.2316781036189
 30
0.0
 11
139.5491389227212
 21
353.1269721036189
 31
0.0
  0
LINE
  5
6E8
330
2
100
AcDbEntity
  8
CENTER
100
AcDbLine
 10
329.470102976505
 20
93.89838010361899
 30
0.0
 11
421.4701029765051
 21
93.89838010361899
 31
0.0
  0
LINE
  5
6E9
330
2
100
AcDbEntity
  8
0
100
AcDbLine
 10
355.4701029765051
 20
55.89838010361898
 30
0.0
 11
397.4701029765051
 21
55.89838010361898
 31
0.0
  0
LINE
  5
6EA
330
2
100
AcDbEntity
  8
0
100
AcDbLine
 10
348.4701029765051
 20
77.49838010361898
 30
0.0
 11
406.0326029765051
 21
77.49838010361898
 31
0.0
  0
LINE
  5
6EB
330
2
100
AcDbEntity
  8
0
100
AcDbLine
 10
348.9711099765051
 20
128.898380103619
 30
0.0
 11
406.0326029765051
 21
128.898380103619
 31
0.0
  0
LINE
  5
6EC
330
2
100
AcDbEntity
  8
0
100
AcDbLine
 10
405.505014976505
 20
58.14661010361898
 30
0.0
 11
347.4351909765051
 21
57.13280010361898
 31
0.0
  0
LINE
  5
6ED
330
2
100
AcDbEntity
  8
0
100
AcDbLine
 10
405.505014976505
 20
148.2326771036189
 30
0.0
 11
347.4351909765051
 21
149.2460591036189
 31
0.0
  0
LINE
  5
6EE
330
2
100
AcDbEntity
  8
CENTER
100
AcDbLine
 10
305.4701029765051
 20
116.198383103619
 30
0.0
 11
418.4701029765052
 21
116.1983831036189
 31
0.0
  0
LINE
  5
6EF
330
2
100
AcDbEntity
  8
0
100
AcDbLine
 10
345.4701029765051
 20
153.6602591036189
 30
0.0
 11
345.4701029765051
 21
92.53570210361898
 31
0.0
  0
LINE
  5
6F1
330
2
100
AcDbEntity
  8
0
100
AcDbLine
 10
336.4701029765051
 20
52.19838010361897
 30
0.0
 11
336.4701029765051
 21
108.6983791036189
 31
0.0
  0
LINE
  5
6F2
330
2
100
AcDbEntity
  8
0
100
AcDbLine
 10
341.4701029765051
 20
97.19837910361897
 30
0.0
 11
341.4701029765051
 21
135.198383103619
 31
0.0
  0
LINE
  5
6F3
330
2
100
AcDbEntity
  8
0
100
AcDbLine
 10
224.6001489227212
 20
128.898380103619
 30
0.0
 11
224.6001489227212
 21
77.49839010361899
 31
0.0
  0
LINE
  5
6F4
330
2
100
AcDbEntity
  8
0
100
AcDbLine
 10
222.1001489227212
 20
117.5597801036189
 30
0.0
 11
222.1001489227212
 21
88.83724210361895
 31
0.0
  0
LINE
  5
6F5
330
2
100
AcDbEntity
  8
0
100
AcDbLine
 10
222.1025449227212
 20
88.50811410361897
 30
0.0
 11
219.7252409227212
 21
71.52788010361899
 31
0.0
  0
LINE
  5
6F6
330
2
100
AcDbEntity
  8
0
100
AcDbLine
 10
222.0228479227212
 20
59.08926010361899
 30
0.0
 11
224.6001489227212
 21
77.49839010361899
 31
0.0
  0
ARC
  5
6F7
330
2
100
AcDbEntity
  8
0
100
AcDbCircle
 10
343.9354049765051
 20
54.19838010361897
 30
0.0
 40
2.0
100
AcDbArc
 50
270.0
 51
345.0000919999997
  0
ARC
  5
6F8
330
2
100
AcDbEntity
  8
0
100
AcDbCircle
 10
343.9701029765051
 20
53.69838010361897
 30
0.0
 40
1.5
100
AcDbArc
 50
270.0
 51
0.0
  0
ARC
  5
6F9
330
2
100
AcDbEntity
  8
0
100
AcDbCircle
 10
348.4701029765051
 20
74.49840010361898
 30
0.0
 40
3.0
100
AcDbArc
 50
90.0
 51
180.0
  0
LINE
  5
6FA
330
2
100
AcDbEntity
  8
HIDS
  6
SEKKEI_H
100
AcDbLine
 10
336.4701029765051
 20
56.94838010361897
 30
0.0
 11
345.4701029765051
 21
56.94838010361897
 31
0.0
  0
LINE
  5
6FB
330
2
100
AcDbEntity
  8
HIDS
  6
SEKKEI_H
100
AcDbLine
 10
336.4701029765051
 20
63.44838010361897
 30
0.0
 11
345.4701029765051
 21
63.44838010361897
 31
0.0
  0
LINE
  5
6FC
330
2
100
AcDbEntity
  8
CENTER
100
AcDbLine
 10
332.9701029765051
 20
60.19838010361896
 30
0.0
 11
348.9701029765051
 21
60.19838010361894
 31
0.0
  0
LINE
  5
6FD
330
2
100
AcDbEntity
  8
0
100
AcDbLine
 10
343.935495976505
 20
52.19838010361897
 30
0.0
 11
336.4701029765051
 21
52.19838010361897
 31
0.0
  0
LINE
  5
6FE
330
2
100
AcDbEntity
  8
0
100
AcDbLine
 10
345.4701029765051
 20
74.49840010361898
 30
0.0
 11
345.4701029765051
 21
53.69838010361897
 31
0.0
  0
ARC
  5
6FF
330
2
100
AcDbEntity
  8
0
100
AcDbCircle
 10
349.1019079765051
 20
54.16145010361898
 30
0.0
 40
3.0
100
AcDbArc
 50
91.00048800000001
 51
165.0003050000002
  0
ARC
  5
700
330
2
100
AcDbEntity
  8
0
100
AcDbCircle
 10
347.4701029765051
 20
55.13311010361897
 30
0.0
 40
2.0
100
AcDbArc
 50
91.00063300000034
 51
180.0
  0
LINE
  5
701
330
2
100
AcDbEntity
  8
0
100
AcDbLine
 10
345.867319976505
 20
53.68074010361898
 30
0.0
 11
346.204111976505
 21
54.93789010361898
 31
0.0
  0
ARC
  5
702
330
2
100
AcDbEntity
  8
0
100
AcDbCircle
 10
355.4701029765051
 20
57.89838010361897
 30
0.0
 40
2.0
100
AcDbArc
 50
199.2169950000003
 51
270.0
  0
LINE
  5
706
330
2
100
AcDbEntity
  8
0
100
AcDbLine
 10
342.4701029765051
 20
96.19837910361898
 30
0.0
 11
343.4770311693453
 21
96.19837910361896
 31
0.0
  0
ARC
  5
707
330
2
100
AcDbEntity
  8
0
100
AcDbCircle
 10
342.4701029765051
 20
97.19837610361899
 30
0.0
 40
1.0
100
AcDbArc
 50
180.0
 51
270.0
  0
LINE
  5
708
330
2
100
AcDbEntity
  8
0
100
AcDbLine
 10
222.0228479227212
 20
147.3075371036189
 30
0.0
 11
224.6001489227212
 21
128.898380103619
 31
0.0
  0
LINE
  5
709
330
2
100
AcDbEntity
  8
0
100
AcDbLine
 10
219.7252409227212
 20
134.8688771036189
 30
0.0
 11
222.1244409227212
 21
117.7318081036189
 31
0.0
  0
LINE
  5
70A
330
2
100
AcDbEntity
  8
0
100
AcDbLine
 10
336.4701029765051
 20
154.1983831036189
 30
0.0
 11
336.4701029765051
 21
123.698383103619
 31
0.0
  0
LINE
  5
70B
330
2
100
AcDbEntity
  8
0
100
AcDbLine
 10
333.9701029765051
 20
118.6983831036189
 30
0.0
 11
312.4701029765051
 21
118.6983831036189
 31
0.0
  0
LINE
  5
70C
330
2
100
AcDbEntity
  8
0
100
AcDbLine
 10
333.9701029765051
 20
113.6983831036189
 30
0.0
 11
312.4701029765051
 21
113.6983831036189
 31
0.0
  0
LINE
  5
70D
330
2
100
AcDbEntity
  8
0
100
AcDbLine
 10
339.4701029765051
 20
108.6983791036189
 30
0.0
 11
312.4701029765051
 21
108.6983791036189
 31
0.0
  0
LINE
  5
70E
330
2
100
AcDbEntity
  8
0
100
AcDbLine
 10
339.4701029765051
 20
123.698383103619
 30
0.0
 11
312.4701029765051
 21
123.698383103619
 31
0.0
  0
LINE
  5
70F
330
2
100
AcDbEntity
  8
0
100
AcDbLine
 10
312.4701029765051
 20
108.6983791036189
 30
0.0
 11
312.4701029765051
 21
123.698383103619
 31
0.0
  0
LINE
  5
711
330
2
100
AcDbEntity
  8
0
100
AcDbLine
 10
339.4701029765051
 20
124.698383103619
 30
0.0
 11
339.4701029765051
 21
107.6983791036189
 31
0.0
  0
LINE
  5
712
330
2
100
AcDbEntity
  8
0
100
AcDbLine
 10
339.4701029765051
 20
107.6983791036189
 30
0.0
 11
341.4701029765051
 21
107.6983791036189
 31
0.0
  0
ARC
  5
713
330
2
100
AcDbEntity
  8
0
100
AcDbCircle
 10
333.9701029765051
 20
116.198383103619
 30
0.0
 40
2.5
100
AcDbArc
 50
270.0
 51
0.0
  0
ARC
  5
714
330
2
100
AcDbEntity
  8
0
100
AcDbCircle
 10
333.9701029765051
 20
116.1983911036189
 30
0.0
 40
2.5
100
AcDbArc
 50
0.0
 51
90.0
  0
LINE
  5
718
330
2
100
AcDbEntity
  8
0
100
AcDbLine
 10
339.4701029765051
 20
124.698383103619
 30
0.0
 11
341.4701029765051
 21
124.698383103619
 31
0.0
  0
LINE
  5
71A
330
2
100
AcDbEntity
  8
HIDS
  6
SEKKEI_H
100
AcDbLine
 10
336.4701029765051
 20
142.9483831036189
 30
0.0
 11
345.4701029765051
 21
142.9483831036189
 31
0.0
  0
LINE
  5
71F
330
2
100
AcDbEntity
  8
0
100
AcDbLine
 10
342.4701029765051
 20
136.198383103619
 30
0.0
 11
343.4701029765051
 21
136.198383103619
 31
0.0
  0
ARC
  5
720
330
2
100
AcDbEntity
  8
0
100
AcDbCircle
 10
342.4701029765051
 20
135.198383103619
 30
0.0
 40
1.0
100
AcDbArc
 50
90.0
 51
180.0
  0
LINE
  5
721
330
2
100
AcDbEntity
  8
HIDS
  6
SEKKEI_H
100
AcDbLine
 10
336.4701029765051
 20
149.4483831036189
 30
0.0
 11
345.4701029765051
 21
149.4483831036189
 31
0.0
  0
LINE
  5
722
330
2
100
AcDbEntity
  8
CENTER
100
AcDbLine
 10
332.970102976505
 20
146.1983831036189
 30
0.0
 11
348.9701029765051
 21
146.1983831036189
 31
0.0
  0
LINE
  5
723
330
2
100
AcDbEntity
  8
0
100
AcDbLine
 10
336.4701029765051
 20
154.1983831036189
 30
0.0
 11
344.319101976505
 21
154.1983831036189
 31
0.0
  0
ARC
  5
724
330
2
100
AcDbEntity
  8
0
100
AcDbCircle
 10
349.1032209765051
 20
152.2174191036189
 30
0.0
 40
3.0
100
AcDbArc
 50
194.9326020000002
 51
269.0006099999996
  0
ARC
  5
725
330
2
100
AcDbEntity
  8
0
100
AcDbCircle
 10
347.4701029765051
 20
151.2457691036189
 30
0.0
 40
2.0
100
AcDbArc
 50
180.0
 51
269.0006099999996
  0
ARC
  5
726
330
2
100
AcDbEntity
  8
0
100
AcDbCircle
 10
344.319101976505
 20
152.698383103619
 30
0.0
 40
1.5
100
AcDbArc
 50
15.00007000000016
 51
90.0
  0
LINE
  5
727
330
2
100
AcDbEntity
  8
0
100
AcDbLine
 10
345.7680159765051
 20
153.086597103619
 30
0.0
 11
346.207803976505
 21
151.4452401036189
 31
0.0
  0
ARC
  5
728
330
2
100
AcDbEntity
  8
0
100
AcDbCircle
 10
376.4701029765051
 20
93.89838010361899
 30
0.0
 40
38.0
100
AcDbArc
 50
324.6655309999995
 51
22.91951900000022
  0
LINE
  5
729
330
2
100
AcDbEntity
  8
0
100
AcDbLine
 10
411.4701029765051
 20
97.19837910361897
 30
0.0
 11
411.4701029765051
 21
135.198383103619
 31
0.0
  0
LINE
  5
72A
330
2
100
AcDbEntity
  8
0
100
AcDbLine
 10
407.470102976505
 20
60.14631010361899
 30
0.0
 11
407.470102976505
 21
146.2329821036189
 31
0.0
  0
LINE
  5
72B
330
2
100
AcDbEntity
  8
CENTER
100
AcDbLine
 10
376.4701029765051
 20
48.89838010361899
 30
0.0
 11
376.470102976505
 21
169.7858781036189
 31
0.0
  0
ARC
  5
72C
330
2
100
AcDbEntity
  8
0
100
AcDbCircle
 10
397.4701029765051
 20
57.89838010361897
 30
0.0
 40
2.0
100
AcDbArc
 50
270.0
 51
0.0
  0
LINE
  5
72D
330
2
100
AcDbEntity
  8
0
100
AcDbLine
 10
399.4701029765051
 20
57.89838010361897
 30
0.0
 11
399.4701029765051
 21
58.04116010361898
 31
0.0
  0
ARC
  5
72E
330
2
100
AcDbEntity
  8
0
100
AcDbCircle
 10
405.4701029765051
 20
60.14630010361898
 30
0.0
 40
2.0
100
AcDbArc
 50
271.0003659999995
 51
0.0
  0
ARC
  5
72F
330
2
100
AcDbEntity
  8
0
100
AcDbCircle
 10
409.4701029765051
 20
94.19839110361897
 30
0.0
 40
2.0
100
AcDbArc
 50
90.0
 51
180.0
  0
ARC
  5
730
330
2
100
AcDbEntity
  8
0
100
AcDbCircle
 10
410.4701029765051
 20
97.19837610361899
 30
0.0
 40
1.0
100
AcDbArc
 50
270.0
 51
0.0
  0
LINE
  5
731
330
2
100
AcDbEntity
  8
0
100
AcDbLine
 10
410.4701029765051
 20
96.19837910361898
 30
0.0
 11
409.4701029765051
 21
96.19837910361898
 31
0.0
  0
ARC
  5
732
330
2
100
AcDbEntity
  8
0
100
AcDbCircle
 10
409.4701029765051
 20
138.198383103619
 30
0.0
 40
2.0
100
AcDbArc
 50
180.0
 51
270.0
  0
ARC
  5
733
330
2
100
AcDbEntity
  8
0
100
AcDbCircle
 10
410.4701029765051
 20
135.198383103619
 30
0.0
 40
1.0
100
AcDbArc
 50
0.0
 51
90.0
  0
LINE
  5
734
330
2
100
AcDbEntity
  8
0
100
AcDbLine
 10
410.4701029765051
 20
136.198383103619
 30
0.0
 11
409.4701029765051
 21
136.198383103619
 31
0.0
  0
ARC
  5
735
330
2
100
AcDbEntity
  8
0
100
AcDbCircle
 10
405.4701029765051
 20
146.2329671036189
 30
0.0
 40
2.0
100
AcDbArc
 50
0.0
 51
89.00035899999958
  0
LINE
  5
736
330
2
100
AcDbEntity
  8
0
100
AcDbLine
 10
222.7919369227212
 20
349.2316781036189
 30
0.0
 11
224.6001489227212
 21
280.179310103619
 31
0.0
  0
ARC
  5
737
330
2
100
AcDbEntity
  8
0
100
AcDbCircle
 10
223.3903109227212
 20
288.179310103619
 30
0.0
 40
1.0
100
AcDbArc
 50
1.499998000000141
 51
90.0
  0
LINE
  5
738
330
2
100
AcDbEntity
  8
0
100
AcDbLine
 10
222.0228479227212
 20
280.179310103619
 30
0.0
 11
222.0228479227212
 21
287.8690071036189
 31
0.0
  0
ARC
  5
73A
330
2
100
AcDbEntity
  8
0
100
AcDbCircle
 10
220.7926239227212
 20
349.179310103619
 30
0.0
 40
2.0
100
AcDbArc
 50
1.500000000000274
 51
90.0
  0
LWPOLYLINE
  5
741
330
2
100
AcDbEntity
  8
HOJO
100
AcDbPolyline
 90
       13
 70
     0
 43
0.0
 10
336.4701029765051
 20
139.4080311036189
 10
342.360697976505
 20
138.1952631036189
 10
347.6106979765051
 20
134.9452631036189
 10
348.110697976505
 20
129.8202631036189
 10
349.860697976505
 20
127.9452631036189
 10
350.610697976505
 20
118.6952631036189
 10
351.3606979765051
 20
113.4452631036189
 10
349.3606979765051
 20
107.0702591036189
 10
349.9856979765051
 20
100.5702551036189
 10
348.4856979765051
 20
94.82025510361898
 10
344.360697976505
 20
91.69525510361898
 10
339.4856979765051
 20
91.07025510361898
 10
336.4701029765051
 20
89.84166710361899
  0
LINE
  5
744
330
2
100
AcDbEntity
  8
CENTER
100
AcDbLine
 10
150.1001419227212
 20
140.3546791036189
 30
0.0
 11
150.1001419227212
 21
152.0420871036189
 31
0.0
  0
LINE
  5
745
330
2
100
AcDbEntity
  8
CENTER
100
AcDbLine
 10
144.2564379227212
 20
146.1983831036189
 30
0.0
 11
155.9438459227212
 21
146.1983831036189
 31
0.0
  0
LINE
  5
746
330
2
100
AcDbEntity
  8
CENTER
100
AcDbLine
 10
150.1001419227212
 20
54.35467610361897
 30
0.0
 11
150.1001419227212
 21
66.04208410361898
 31
0.0
  0
LINE
  5
747
330
2
100
AcDbEntity
  8
CENTER
100
AcDbLine
 10
144.2564379227212
 20
60.19838010361898
 30
0.0
 11
155.9438459227212
 21
60.19838010361898
 31
0.0
  0
LINE
  5
748
330
2
100
AcDbEntity
  8
CENTER
100
AcDbLine
 10
214.1001489227212
 20
54.35467610361897
 30
0.0
 11
214.1001489227212
 21
66.04208410361898
 31
0.0
  0
LINE
  5
749
330
2
100
AcDbEntity
  8
CENTER
100
AcDbLine
 10
208.2564449227212
 20
60.19838010361898
 30
0.0
 11
219.9438529227212
 21
60.19838010361898
 31
0.0
  0
TEXT
  5
75C
330
2
100
AcDbEntity
  8
TITLE
100
AcDbText
 10
249.3030168067178
 20
330.3265387752195
 30
0.0
 40
5.0
  1
HFM-15R-10~240-T15T
 41
0.8
100
AcDbText
  0
TEXT
  5
75D
330
2
100
AcDbEntity
  8
TITLE
100
AcDbText
 10
249.3030168067178
 20
322.3265387752195
 30
0.0
 40
5.0
  1
HFM-15R-10~240-T15WT
 41
0.8
100
AcDbText
  0
TEXT
  5
75E
330
2
100
AcDbEntity
  8
TITLE
100
AcDbText
 10
249.3030168067178
 20
314.3265387752195
 30
0.0
 40
5.0
  1
HFM-15R-10~240-T25T
 41
0.8
100
AcDbText
  0
TEXT
  5
75F
330
2
100
AcDbEntity
  8
TITLE
100
AcDbText
 10
249.3030168067178
 20
306.3265387752195
 30
0.0
 40
5.0
  1
HFM-15R-10~240-T25WT
 41
0.8
100
AcDbText
  0
TEXT
  5
760
330
2
100
AcDbEntity
  8
TITLE
100
AcDbText
 10
249.3030168067178
 20
298.3265387752195
 30
0.0
 40
5.0
  1
HFM-15R-10~120-T40T
 41
0.8
100
AcDbText
  0
TEXT
  5
761
330
2
100
AcDbEntity
  8
TITLE
100
AcDbText
 10
338.0548942437744
 20
314.3265387752195
 30
0.0
 40
5.0
  1
HFM-15R-10~240-S25T
 41
0.8
100
AcDbText
  0
TEXT
  5
762
330
2
100
AcDbEntity
  8
TITLE
100
AcDbText
 10
338.0548942437744
 20
306.3265387752195
 30
0.0
 40
5.0
  1
HFM-15R-10~240-S25WT
 41
0.8
100
AcDbText
  0
TEXT
  5
763
330
2
100
AcDbEntity
  8
TITLE
100
AcDbText
 10
338.0548942437744
 20
322.3265387752195
 30
0.0
 40
5.0
  1
HFM-15R-10~240-S15WT
 41
0.8
100
AcDbText
  0
TEXT
  5
764
330
2
100
AcDbEntity
  8
TITLE
100
AcDbText
 10
338.0548942437744
 20
330.3265387752195
 30
0.0
 40
5.0
  1
HFM-15R-10~240-S15T
 41
0.8
100
AcDbText
  0
LINE
  5
1588
330
2
100
AcDbEntity
  8
0
100
AcDbLine
 10
352.470102976505
 20
164.398378103619
 30
0.0
 11
396.6321941604789
 21
164.3983781036189
 31
0.0
  0
LINE
  5
1589
330
2
100
AcDbEntity
  8
0
100
AcDbLine
 10
351.470102976505
 20
163.398378103619
 30
0.0
 11
393.9700879765051
 21
163.398378103619
 31
0.0
  0
LINE
  5
158D
330
2
100
AcDbEntity
  8
CENTER
100
AcDbLine
 10
346.4264959952965
 20
154.898378103619
 30
0.0
 11
406.5137099577135
 21
154.898378103619
 31
0.0
  0
LINE
  5
15B3
330
2
100
AcDbEntity
  8
0
100
AcDbLine
 10
62.93805273874681
 20
164.3983781036189
 30
0.0
 11
107.1001439227212
 21
164.3983781036189
 31
0.0
  0
LINE
  5
15B4
330
2
100
AcDbEntity
  8
0
100
AcDbLine
 10
59.60013692272127
 20
133.3983801036189
 30
0.0
 11
106.1001439227212
 21
133.3983801036189
 31
0.0
  0
LINE
  5
15B5
330
2
100
AcDbEntity
  8
0
100
AcDbLine
 10
56.10013692272127
 20
145.3983801036189
 30
0.0
 11
108.1001439227212
 21
145.3983801036189
 31
0.0
  0
LINE
  5
15B6
330
2
100
AcDbEntity
  8
0
100
AcDbLine
 10
58.10013692272128
 20
135.3983801036189
 30
0.0
 11
108.1001439227212
 21
135.3983801036189
 31
0.0
  0
LINE
  5
15B7
330
2
100
AcDbEntity
  8
0
100
AcDbLine
 10
65.60013735129223
 20
163.3983781036189
 30
0.0
 11
108.1001509227213
 21
163.3983781036189
 31
0.0
  0
LINE
  5
15B8
330
2
100
AcDbEntity
  8
CENTER
100
AcDbLine
 10
50.15638792272125
 20
154.8983781036189
 30
0.0
 11
112.0524468864593
 21
154.8983781036189
 31
0.0
  0
LINE
  5
15BD
330
2
100
AcDbEntity
  8
CENTER
100
AcDbLine
 10
83.10014392272126
 20
128.704679103619
 30
0.0
 11
83.10014392272126
 21
169.7858781036189
 31
0.0
  0
LINE
  5
15BE
330
2
100
AcDbEntity
  8
0
100
AcDbLine
 10
56.10015192272124
 20
161.3983781036189
 30
0.0
 11
56.10013692272127
 21
145.3983801036189
 31
0.0
  0
LINE
  5
15BF
330
2
100
AcDbEntity
  8
0
100
AcDbLine
 10
58.10013692272128
 20
163.3983781036189
 30
0.0
 11
58.10013692272128
 21
135.3983801036189
 31
0.0
  0
LINE
  5
15C0
330
2
100
AcDbEntity
  8
0
100
AcDbLine
 10
58.10013692272128
 20
135.3983801036189
 30
0.0
 11
60.10013692272128
 21
133.3983801036189
 31
0.0
  0
LINE
  5
15C1
330
2
100
AcDbEntity
  8
0
100
AcDbLine
 10
59.60013692272127
 20
133.3983801036189
 30
0.0
 11
59.60013692272127
 21
131.8983801036189
 31
0.0
  0
LINE
  5
15C2
330
2
100
AcDbEntity
  8
0
100
AcDbLine
 10
52.60015192272124
 20
158.898378103619
 30
0.0
 11
52.60015192272124
 21
150.8983781036189
 31
0.0
  0
LINE
  5
15C3
330
2
100
AcDbEntity
  8
0
100
AcDbLine
 10
52.60013692272128
 20
150.8983781036189
 30
0.0
 11
56.10013692272127
 21
149.398378103619
 31
0.0
  0
LINE
  5
15C4
330
2
100
AcDbEntity
  8
0
100
AcDbLine
 10
52.60015192272124
 20
158.898378103619
 30
0.0
 11
56.10015192272124
 21
160.3983781036189
 31
0.0
  0
SPLINE
  5
15C5
330
2
100
AcDbEntity
  8
0
100
AcDbSpline
210
0.0
220
0.0
230
1.0
 70
     8
 71
     3
 72
    11
 73
     7
 74
     0
 42
0.0000000001
 43
0.0000000001
 40
0.0
 40
0.0
 40
0.0
 40
0.0
 40
0.4601364636755307
 40
1.04988694485363
 40
1.713742833862792
 40
2.320347933405154
 40
2.320347933405154
 40
2.320347933405154
 40
2.320347933405179
 10
61.88764392317636
 20
162.9813781036189
 30
0.0
 10
61.91006158028426
 20
163.1364015432987
 30
0.0
 10
61.96121163551755
 20
163.4901163612163
 30
0.0
 10
62.39709679705118
 20
163.9148440328179
 30
0.0
 10
63.00214751205851
 20
164.1340312127838
 30
0.0
 10
63.42733213623444
 20
164.0650399131731
 30
0.0
 10
63.62988374588542
 20
164.0508196409965
 30
0.0
  0
LINE
  5
15C6
330
2
100
AcDbEntity
  8
0
100
AcDbLine
 10
65.60013735129223
 20
161.8983781036188
 30
0.0
 11
58.10013735129223
 21
161.8983781036189
 31
0.0
  0
ARC
  5
15C7
330
2
100
AcDbEntity
  8
0
100
AcDbCircle
 10
61.60014392272137
 20
155.4983781036189
 30
0.0
 40
9.0
100
AcDbArc
 50
74.11914999171883
 51
105.8808500082811
  0
ARC
  5
15C8
330
2
100
AcDbEntity
  8
0
100
AcDbCircle
 10
57.10015192272123
 20
161.3983781036189
 30
0.0
 40
1.0
100
AcDbArc
 50
90.0
 51
180.0
  0
SPLINE
  5
15C9
330
2
100
AcDbEntity
  8
0
100
AcDbSpline
210
0.0
220
0.0
230
1.0
 70
     8
 71
     3
 72
    11
 73
     7
 74
     0
 42
0.0000000001
 43
0.0000000001
 40
0.0
 40
0.0
 40
0.0
 40
0.0
 40
0.4601364636755307
 40
1.04988694485363
 40
1.713742833862792
 40
2.320347933405154
 40
2.320347933405154
 40
2.320347933405154
 40
2.320347933405179
 10
61.31264392226637
 20
162.9813781036189
 30
0.0
 10
61.29022626515848
 20
163.1364015432987
 30
0.0
 10
61.2390762099252
 20
163.4901163612163
 30
0.0
 10
60.80319104839157
 20
163.9148440328179
 30
0.0
 10
60.19814033338423
 20
164.1340312127838
 30
0.0
 10
59.7729557092083
 20
164.0650399131731
 30
0.0
 10
59.57040409955732
 20
164.0508196409965
 30
0.0
  0
LINE
  5
15CA
330
2
100
AcDbEntity
  8
0
100
AcDbLine
 10
59.57040409955732
 20
164.0508196409965
 30
0.0
 11
59.5501439227213
 21
164.2617963864581
 31
0.0
  0
LINE
  5
15CB
330
2
100
AcDbEntity
  8
0
100
AcDbLine
 10
58.10014392272137
 20
161.8983781036189
 30
0.0
 11
58.19808006160918
 21
163.0177932934372
 31
0.0
  0
ARC
  5
15CC
330
2
100
AcDbEntity
  8
0
100
AcDbCircle
 10
59.49313316912832
 20
162.9044908278652
 30
0.0
 40
1.3
100
AcDbArc
 50
105.8808500082811
 51
175.0000000000002
  0
LINE
  5
15CD
330
2
100
AcDbEntity
  8
0
100
AcDbLine
 10
59.10013735129223
 20
164.3983781036188
 30
0.0
 11
58.10013692272128
 21
163.3983781036189
 31
0.0
  0
LINE
  5
15CE
330
2
100
AcDbEntity
  8
0
100
AcDbLine
 10
58.10013692272128
 20
163.3983781036189
 30
0.0
 11
59.10013692272127
 21
164.3983781036189
 31
0.0
  0
LINE
  5
15CF
330
2
100
AcDbEntity
  8
0
100
AcDbLine
 10
57.10013692272127
 20
162.3983781036189
 30
0.0
 11
58.10013692272128
 21
162.3983781036189
 31
0.0
  0
LINE
  5
15D0
330
2
100
AcDbEntity
  8
0
100
AcDbLine
 10
59.10013692272127
 20
164.3983781036189
 30
0.0
 11
60.26223510669592
 21
164.3983781036189
 31
0.0
  0
LINE
  5
15D1
330
2
100
AcDbEntity
  8
0
100
AcDbLine
 10
61.88764392317636
 20
162.9813781036189
 30
0.0
 11
61.31264392226637
 21
162.9813781036189
 31
0.0
  0
ARC
  5
15D2
330
2
100
AcDbEntity
  8
0
100
AcDbCircle
 10
63.70715467631419
 20
162.9044908278652
 30
0.0
 40
1.3
100
AcDbArc
 50
4.999999999999743
 51
74.11914999171883
  0
LINE
  5
15D3
330
2
100
AcDbEntity
  8
0
100
AcDbLine
 10
65.60013735129223
 20
163.8983781036188
 30
0.0
 11
64.5451213123415
 21
163.8983781036188
 31
0.0
  0
LINE
  5
15D4
330
2
100
AcDbEntity
  8
0
100
AcDbLine
 10
65.10014392272125
 20
161.8983781036189
 30
0.0
 11
65.00220778383345
 21
163.0177932934372
 31
0.0
  0
LINE
  5
15D5
330
2
100
AcDbEntity
  8
0
100
AcDbLine
 10
63.62988374588542
 20
164.0508196409965
 30
0.0
 11
63.65014392272144
 21
164.2617963864581
 31
0.0
  0
LINE
  5
15D6
330
2
100
AcDbEntity
  8
0
100
AcDbLine
 10
66.10013735129223
 20
164.3983781036188
 30
0.0
 11
65.60013735129223
 21
163.8983781036188
 31
0.0
  0
LINE
  5
15D7
330
2
100
AcDbEntity
  8
0
100
AcDbLine
 10
65.60013735129223
 20
161.8983781036188
 30
0.0
 11
65.60013735129223
 21
163.8983781036189
 31
0.0
  0
LINE
  5
15DA
330
2
100
AcDbEntity
  8
0
100
AcDbLine
 10
108.1001439227212
 20
163.3983781036189
 30
0.0
 11
108.1001439227212
 21
135.3983801036189
 31
0.0
  0
LINE
  5
15DB
330
2
100
AcDbEntity
  8
0
100
AcDbLine
 10
105.6001439227212
 20
133.3983801036189
 30
0.0
 11
105.6001439227212
 21
131.8983801036189
 31
0.0
  0
LINE
  5
15DC
330
2
100
AcDbEntity
  8
0
100
AcDbLine
 10
106.1001439227212
 20
133.3983801036189
 30
0.0
 11
108.1001439227212
 21
135.3983801036189
 31
0.0
  0
LINE
  5
15DD
330
2
100
AcDbEntity
  8
0
100
AcDbLine
 10
107.1001509227213
 20
164.3983781036189
 30
0.0
 11
108.1001509227213
 21
163.3983781036189
 31
0.0
  0
LINE
  5
15DE
330
2
100
AcDbEntity
  8
0
100
AcDbLine
 10
351.470102976505
 20
163.398378103619
 30
0.0
 11
351.470102976505
 21
149.1756454720504
 31
0.0
  0
LINE
  5
15E1
330
2
100
AcDbEntity
  8
0
100
AcDbLine
 10
352.470102976505
 20
164.398378103619
 30
0.0
 11
351.470102976505
 21
163.398378103619
 31
0.0
  0
LINE
  5
15E2
330
2
100
AcDbEntity
  8
0
100
AcDbLine
 10
60.50013792272125
 20
343.7793011036189
 30
0.0
 11
100.6000369227213
 21
343.7793011036189
 31
0.0
  0
LINE
  5
15E3
330
2
100
AcDbEntity
  8
0
100
AcDbLine
 10
105.7002419227212
 20
296.579304103619
 30
0.0
 11
65.60013692272128
 21
296.579304103619
 31
0.0
  0
LINE
  5
15E4
330
2
100
AcDbEntity
  8
0
100
AcDbLine
 10
60.10013692272128
 20
345.1793101036189
 30
0.0
 11
106.1000369227212
 21
345.1793101036189
 31
0.0
  0
LINE
  5
15E5
330
2
100
AcDbEntity
  8
0
100
AcDbLine
 10
60.10013692272128
 20
295.1793101036189
 30
0.0
 11
106.1000369227211
 21
295.1793101036189
 31
0.0
  0
LINE
  5
15E7
330
2
100
AcDbEntity
  8
0
100
AcDbLine
 10
52.60013692272128
 20
322.1793101036189
 30
0.0
 11
52.60013692272128
 21
318.1793101036189
 31
0.0
  0
LINE
  5
15E8
330
2
100
AcDbEntity
  8
0
100
AcDbLine
 10
58.10013692272128
 20
343.1793101036189
 30
0.0
 11
58.10013692272128
 21
297.1793101036189
 31
0.0
  0
LINE
  5
15E9
330
2
100
AcDbEntity
  8
0
100
AcDbLine
 10
59.50013092272127
 20
342.779301103619
 30
0.0
 11
59.50013792272125
 21
302.679310103619
 31
0.0
  0
LINE
  5
15EA
330
2
100
AcDbEntity
  8
0
100
AcDbLine
 10
56.10013692272127
 20
313.679310103619
 30
0.0
 11
56.10013692272127
 21
326.6793101036189
 31
0.0
  0
LINE
  5
15EB
330
2
100
AcDbEntity
  8
CENTER
100
AcDbLine
 10
83.10014392272126
 20
350.5685360477267
 30
0.0
 11
83.10014392272126
 21
289.4293101036189
 31
0.0
  0
ARC
  5
15EC
330
2
100
AcDbEntity
  8
0
100
AcDbCircle
 10
61.6001669227212
 20
298.679310103619
 30
0.0
 40
4.0
100
AcDbArc
 50
0.0
 51
90.0
  0
ARC
  5
15ED
330
2
100
AcDbEntity
  8
0
100
AcDbCircle
 10
63.62986692272136
 20
300.7090101036189
 30
0.0
 40
1.742199999999999
100
AcDbArc
 50
179.9986903345002
 51
270.0013096654964
  0
ARC
  5
15EE
330
2
100
AcDbEntity
  8
0
100
AcDbCircle
 10
63.62986692272136
 20
296.649610103619
 30
0.0
 40
1.742199999999999
100
AcDbArc
 50
89.9986903345035
 51
180.0013096654997
  0
CIRCLE
  5
15EF
330
2
100
AcDbEntity
  8
0
100
AcDbCircle
 10
61.6001669227212
 20
298.679310103619
 30
0.0
 40
3.500000000000028
  0
ARC
  5
15F0
330
2
100
AcDbEntity
  8
0
100
AcDbCircle
 10
59.57046692272126
 20
296.649610103619
 30
0.0
 40
1.742199999999999
100
AcDbArc
 50
359.9986903345002
 51
90.00130966549649
  0
LINE
  5
15F1
330
2
100
AcDbEntity
  8
0
100
AcDbLine
 10
58.10013692272128
 20
297.1793101036189
 30
0.0
 11
60.10013692272128
 21
295.1793101036189
 31
0.0
  0
LINE
  5
15F2
330
2
100
AcDbEntity
  8
0
100
AcDbLine
 10
58.10013692272128
 20
297.1793101036189
 30
0.0
 11
60.10013692272128
 21
295.1793101036189
 31
0.0
  0
ARC
  5
15F3
330
2
100
AcDbEntity
  8
0
100
AcDbCircle
 10
61.6001669227212
 20
298.679310103619
 30
0.0
 40
2.049999999999998
100
AcDbArc
 50
261.9380399160181
 51
270.0
  0
ARC
  5
15F4
330
2
100
AcDbEntity
  8
0
100
AcDbCircle
 10
61.6001669227212
 20
298.679310103619
 30
0.0
 40
2.049999999999998
100
AcDbArc
 50
270.0
 51
278.0619600839818
  0
LINE
  5
15F5
330
2
100
AcDbEntity
  8
0
100
AcDbLine
 10
61.60016692272131
 20
302.679310103619
 30
0.0
 11
58.10016692272132
 21
302.679310103619
 31
0.0
  0
ARC
  5
15F6
330
2
100
AcDbEntity
  8
0
100
AcDbCircle
 10
61.6001669227212
 20
298.679310103619
 30
0.0
 40
2.049999999999998
100
AcDbArc
 50
180.0
 51
188.0619600839821
  0
ARC
  5
15F7
330
2
100
AcDbEntity
  8
0
100
AcDbCircle
 10
61.6001669227212
 20
298.679310103619
 30
0.0
 40
2.049999999999998
100
AcDbArc
 50
171.9380399160178
 51
180.0
  0
ARC
  5
15F8
330
2
100
AcDbEntity
  8
0
100
AcDbCircle
 10
61.6001669227212
 20
298.679310103619
 30
0.0
 40
2.049999999999998
100
AcDbArc
 50
90.0
 51
98.06196008398188
  0
ARC
  5
15F9
330
2
100
AcDbEntity
  8
0
100
AcDbCircle
 10
59.57046692272126
 20
300.7090101036189
 30
0.0
 40
1.742199999999999
100
AcDbArc
 50
269.9986903345002
 51
0.0013096654997424
  0
ARC
  5
15FA
330
2
100
AcDbEntity
  8
0
100
AcDbCircle
 10
61.6001669227212
 20
298.679310103619
 30
0.0
 40
2.049999999999998
100
AcDbArc
 50
81.93803991601813
 51
90.0
  0
LINE
  5
15FB
330
2
100
AcDbEntity
  8
0
100
AcDbLine
 10
65.60013692272128
 20
298.679310103619
 30
0.0
 11
65.60013692272128
 21
295.179509103619
 31
0.0
  0
ARC
  5
15FC
330
2
100
AcDbEntity
  8
0
100
AcDbCircle
 10
61.6001669227212
 20
298.679310103619
 30
0.0
 40
2.049999999999998
100
AcDbArc
 50
351.9380399160179
 51
0.0
  0
ARC
  5
15FD
330
2
100
AcDbEntity
  8
0
100
AcDbCircle
 10
61.6001669227212
 20
298.679310103619
 30
0.0
 40
2.049999999999998
100
AcDbArc
 50
0.0
 51
8.061960083982105
  0
ARC
  5
15FE
330
2
100
AcDbEntity
  8
0
100
AcDbCircle
 10
57.10013692272116
 20
313.679310103619
 30
0.0
 40
1.0
100
AcDbArc
 50
180.0
 51
270.0
  0
LINE
  5
15FF
330
2
100
AcDbEntity
  8
0
100
AcDbLine
 10
56.10013692272127
 20
314.679310103619
 30
0.0
 11
52.60013692272128
 21
318.1793101036189
 31
0.0
  0
LINE
  5
1600
330
2
100
AcDbEntity
  8
0
100
AcDbLine
 10
57.10013692272127
 20
312.679310103619
 30
0.0
 11
58.10013692272128
 21
312.679310103619
 31
0.0
  0
LINE
  5
1601
330
2
100
AcDbEntity
  8
0
100
AcDbLine
 10
52.60013692272128
 20
322.1793101036189
 30
0.0
 11
56.10013692272127
 21
325.679310103619
 31
0.0
  0
ARC
  5
1602
330
2
100
AcDbEntity
  8
0
100
AcDbCircle
 10
57.10015192272123
 20
326.6793101036189
 30
0.0
 40
1.0
100
AcDbArc
 50
90.0
 51
180.0
  0
LINE
  5
1603
330
2
100
AcDbEntity
  8
0
100
AcDbLine
 10
57.10013692272127
 20
327.679310103619
 30
0.0
 11
58.10013692272128
 21
327.679310103619
 31
0.0
  0
LINE
  5
1604
330
2
100
AcDbEntity
  8
0
100
AcDbLine
 10
59.50013092272127
 20
342.779301103619
 30
0.0
 11
60.50013792272125
 21
343.7793011036189
 31
0.0
  0
LINE
  5
1605
330
2
100
AcDbEntity
  8
0
100
AcDbLine
 10
58.10013692272128
 20
343.1793101036189
 30
0.0
 11
60.10013692272128
 21
345.1793101036189
 31
0.0
  0
LINE
  5
1606
330
2
100
AcDbEntity
  8
0
100
AcDbLine
 10
108.1000369227212
 20
343.1793101036189
 30
0.0
 11
108.1000369227211
 21
297.1793101036189
 31
0.0
  0
LINE
  5
1607
330
2
100
AcDbEntity
  8
0
100
AcDbLine
 10
106.7002419227212
 20
297.5793041036189
 30
0.0
 11
106.7002419227212
 21
337.6793101036189
 31
0.0
  0
LINE
  5
1608
330
2
100
AcDbEntity
  8
0
100
AcDbLine
 10
105.7002419227212
 20
296.579304103619
 30
0.0
 11
106.7002419227212
 21
297.5793041036189
 31
0.0
  0
LINE
  5
1609
330
2
100
AcDbEntity
  8
0
100
AcDbLine
 10
108.1002359227212
 20
297.1793101036189
 30
0.0
 11
106.1000369227211
 21
295.1793101036189
 31
0.0
  0
LINE
  5
160A
330
2
100
AcDbEntity
  8
0
100
AcDbLine
 10
108.1000369227211
 20
297.1793101036189
 30
0.0
 11
106.1000369227211
 21
295.1793101036189
 31
0.0
  0
LINE
  5
160B
330
2
100
AcDbEntity
  8
0
100
AcDbLine
 10
108.1000369227211
 20
297.1793101036189
 30
0.0
 11
106.1000369227211
 21
295.1793101036189
 31
0.0
  0
ARC
  5
160C
330
2
100
AcDbEntity
  8
0
100
AcDbCircle
 10
106.6299359227214
 20
339.6496101036189
 30
0.0
 40
1.742199999999999
100
AcDbArc
 50
89.9986903345035
 51
180.0013096654997
  0
ARC
  5
160D
330
2
100
AcDbEntity
  8
0
100
AcDbCircle
 10
102.5705359227213
 20
339.6496101036189
 30
0.0
 40
1.742199999999999
100
AcDbArc
 50
359.9986903345002
 51
90.00130966549649
  0
CIRCLE
  5
160E
330
2
100
AcDbEntity
  8
0
100
AcDbCircle
 10
104.6002359227212
 20
341.679310103619
 30
0.0
 40
3.500000000000028
  0
ARC
  5
160F
330
2
100
AcDbEntity
  8
0
100
AcDbCircle
 10
104.6002359227212
 20
341.679310103619
 30
0.0
 40
4.0
100
AcDbArc
 50
180.0
 51
270.0
  0
LINE
  5
1610
330
2
100
AcDbEntity
  8
0
100
AcDbLine
 10
104.6000369227213
 20
337.6793101036189
 30
0.0
 11
108.1000369227212
 21
337.6793101036189
 31
0.0
  0
ARC
  5
1611
330
2
100
AcDbEntity
  8
0
100
AcDbCircle
 10
104.6002359227212
 20
341.679310103619
 30
0.0
 40
2.049999999999998
100
AcDbArc
 50
270.0
 51
278.0619600839818
  0
ARC
  5
1612
330
2
100
AcDbEntity
  8
0
100
AcDbCircle
 10
104.6002359227212
 20
341.679310103619
 30
0.0
 40
2.049999999999998
100
AcDbArc
 50
261.9380399160181
 51
270.0
  0
ARC
  5
1613
330
2
100
AcDbEntity
  8
0
100
AcDbCircle
 10
106.6299359227214
 20
343.7090101036189
 30
0.0
 40
1.742199999999999
100
AcDbArc
 50
179.9986903345002
 51
270.0013096654964
  0
ARC
  5
1614
330
2
100
AcDbEntity
  8
0
100
AcDbCircle
 10
104.6002359227212
 20
341.679310103619
 30
0.0
 40
2.049999999999998
100
AcDbArc
 50
81.93803991601813
 51
90.0
  0
ARC
  5
1615
330
2
100
AcDbEntity
  8
0
100
AcDbCircle
 10
104.6002359227212
 20
341.679310103619
 30
0.0
 40
2.049999999999998
100
AcDbArc
 50
90.0
 51
98.06196008398188
  0
LINE
  5
1616
330
2
100
AcDbEntity
  8
0
100
AcDbLine
 10
100.6000369227213
 20
341.6793101036189
 30
0.0
 11
100.6000369227213
 21
345.1793101036189
 31
0.0
  0
ARC
  5
1617
330
2
100
AcDbEntity
  8
0
100
AcDbCircle
 10
104.6002359227212
 20
341.679310103619
 30
0.0
 40
2.049999999999998
100
AcDbArc
 50
180.0
 51
188.0619600839821
  0
ARC
  5
1618
330
2
100
AcDbEntity
  8
0
100
AcDbCircle
 10
104.6002359227212
 20
341.679310103619
 30
0.0
 40
2.049999999999998
100
AcDbArc
 50
171.9380399160178
 51
180.0
  0
ARC
  5
1619
330
2
100
AcDbEntity
  8
0
100
AcDbCircle
 10
102.5705359227213
 20
343.7090101036189
 30
0.0
 40
1.742199999999999
100
AcDbArc
 50
269.9986903345002
 51
0.0013096654997424
  0
ARC
  5
161A
330
2
100
AcDbEntity
  8
0
100
AcDbCircle
 10
104.6002359227212
 20
341.679310103619
 30
0.0
 40
2.049999999999998
100
AcDbArc
 50
351.9380399160179
 51
0.0
  0
ARC
  5
161B
330
2
100
AcDbEntity
  8
0
100
AcDbCircle
 10
104.6002359227212
 20
341.679310103619
 30
0.0
 40
2.049999999999998
100
AcDbArc
 50
0.0
 51
8.061960083982105
  0
LINE
  5
161C
330
2
100
AcDbEntity
  8
0
100
AcDbLine
 10
106.1000369227212
 20
345.1793101036189
 30
0.0
 11
108.1000369227212
 21
343.1793101036189
 31
0.0
  0
LINE
  5
161D
330
2
100
AcDbEntity
  8
0
100
AcDbLine
 10
108.1000369227212
 20
343.1793101036189
 30
0.0
 11
106.1000369227212
 21
345.1793101036189
 31
0.0
  0
LINE
  5
1626
330
2
100
AcDbEntity
  8
0
100
AcDbLine
 10
401.4700879765051
 20
163.3983781036189
 30
0.0
 11
401.4700879765051
 21
148.3030909969538
 31
0.0
  0
LINE
  5
1629
330
2
100
AcDbEntity
  8
0
100
AcDbLine
 10
398.2576029769601
 20
162.981378103619
 30
0.0
 11
397.68260297605
 21
162.981378103619
 31
0.0
  0
LINE
  5
162A
330
2
100
AcDbEntity
  8
0
100
AcDbLine
 10
393.9700879765051
 20
161.8983781036189
 30
0.0
 11
401.4700879765051
 21
161.898378103619
 31
0.0
  0
ARC
  5
162B
330
2
100
AcDbEntity
  8
0
100
AcDbCircle
 10
397.970102976505
 20
155.4983781036189
 30
0.0
 40
9.0
100
AcDbArc
 50
74.11914999171883
 51
105.8808500082811
  0
ARC
  5
162C
330
2
100
AcDbEntity
  8
0
100
AcDbCircle
 10
395.8630922229121
 20
162.9044908278653
 30
0.0
 40
1.3
100
AcDbArc
 50
105.8808500082811
 51
175.0000000000002
  0
LINE
  5
162D
330
2
100
AcDbEntity
  8
0
100
AcDbLine
 10
394.470102976505
 20
161.898378103619
 30
0.0
 11
394.5680391153929
 21
163.0177932934373
 31
0.0
  0
LINE
  5
162E
330
2
100
AcDbEntity
  8
0
100
AcDbLine
 10
393.4700879765051
 20
164.3983781036189
 30
0.0
 11
393.9700879765051
 21
163.8983781036189
 31
0.0
  0
LINE
  5
162F
330
2
100
AcDbEntity
  8
0
100
AcDbLine
 10
393.9700879765051
 20
161.8983781036189
 30
0.0
 11
393.9700879765051
 21
163.898378103619
 31
0.0
  0
LINE
  5
1630
330
2
100
AcDbEntity
  8
0
100
AcDbLine
 10
393.9700879765051
 20
163.8983781036189
 30
0.0
 11
395.0251255868847
 21
163.8983781036189
 31
0.0
  0
LINE
  5
1631
330
2
100
AcDbEntity
  8
0
100
AcDbLine
 10
395.940363153341
 20
164.0508196409965
 30
0.0
 11
395.9201029765051
 21
164.2617963864582
 31
0.0
  0
SPLINE
  5
1632
330
2
100
AcDbEntity
  8
0
100
AcDbSpline
210
0.0
220
0.0
230
1.0
 70
     8
 71
     3
 72
    11
 73
     7
 74
     0
 42
0.0000000001
 43
0.0000000001
 40
0.0
 40
0.0
 40
0.0
 40
0.0
 40
0.4601364636755307
 40
1.04988694485363
 40
1.713742833862792
 40
2.320347933405154
 40
2.320347933405154
 40
2.320347933405154
 40
2.320347933405179
 10
397.68260297605
 20
162.981378103619
 30
0.0
 10
397.6601853189421
 20
163.1364015432988
 30
0.0
 10
397.609035263709
 20
163.4901163612164
 30
0.0
 10
397.1731501021753
 20
163.9148440328181
 30
0.0
 10
396.5680993871679
 20
164.1340312127839
 30
0.0
 10
396.1429147629921
 20
164.0650399131732
 30
0.0
 10
395.940363153341
 20
164.0508196409965
 30
0.0
  0
LINE
  5
1633
330
2
100
AcDbEntity
  8
0
100
AcDbLine
 10
399.3080117925313
 20
164.3983781036189
 30
0.0
 11
400.4700879765051
 21
164.3983781036189
 31
0.0
  0
LINE
  5
1634
330
2
100
AcDbEntity
  8
0
100
AcDbLine
 10
399.9998427996692
 20
164.0508196409965
 30
0.0
 11
400.0201029765051
 21
164.2617963864582
 31
0.0
  0
LINE
  5
1635
330
2
100
AcDbEntity
  8
0
100
AcDbLine
 10
401.470102976505
 20
161.898378103619
 30
0.0
 11
401.3721668376171
 21
163.0177932934373
 31
0.0
  0
ARC
  5
1636
330
2
100
AcDbEntity
  8
0
100
AcDbCircle
 10
400.0771137300979
 20
162.9044908278653
 30
0.0
 40
1.3
100
AcDbArc
 50
4.999999999999743
 51
74.11914999171883
  0
LINE
  5
1637
330
2
100
AcDbEntity
  8
0
100
AcDbLine
 10
400.4700879765051
 20
164.3983781036189
 30
0.0
 11
401.4700879765051
 21
163.3983781036189
 31
0.0
  0
SPLINE
  5
1638
330
2
100
AcDbEntity
  8
0
100
AcDbSpline
210
0.0
220
0.0
230
1.0
 70
     8
 71
     3
 72
    11
 73
     7
 74
     0
 42
0.0000000001
 43
0.0000000001
 40
0.0
 40
0.0
 40
0.0
 40
0.0
 40
0.4601364636755307
 40
1.04988694485363
 40
1.713742833862792
 40
2.320347933405154
 40
2.320347933405154
 40
2.320347933405154
 40
2.320347933405179
 10
398.2576029769601
 20
162.981378103619
 30
0.0
 10
398.2800206340679
 20
163.1364015432988
 30
0.0
 10
398.3311706893013
 20
163.4901163612164
 30
0.0
 10
398.7670558508348
 20
163.9148440328181
 30
0.0
 10
399.3721065658423
 20
164.1340312127839
 30
0.0
 10
399.7972911900181
 20
164.0650399131732
 30
0.0
 10
399.9998427996692
 20
164.0508196409965
 30
0.0
  0
ARC
  5
1756
330
2
100
AcDbEntity
  8
0
100
AcDbCircle
 10
160.1001489227212
 20
353.179310103619
 30
0.0
 40
2.0
100
AcDbArc
 50
270.0
 51
0.0
  0
ARC
  5
1757
330
2
100
AcDbEntity
  8
0
100
AcDbCircle
 10
204.1001409227213
 20
353.179310103619
 30
0.0
 40
2.0
100
AcDbArc
 50
180.0
 51
270.0
  0
LINE
  5
1758
330
2
100
AcDbEntity
  8
0
100
AcDbLine
 10
201.1001529227212
 20
355.179310103619
 30
0.0
 11
163.1001489227212
 21
355.179310103619
 31
0.0
  0
LINE
  5
1759
330
2
100
AcDbEntity
  8
0
100
AcDbLine
 10
202.1001529227212
 20
354.179310103619
 30
0.0
 11
202.1001529227212
 21
353.179310103619
 31
0.0
  0
ARC
  5
175A
330
2
100
AcDbEntity
  8
0
100
AcDbCircle
 10
201.1001559227213
 20
354.179310103619
 30
0.0
 40
1.0
100
AcDbArc
 50
0.0
 51
90.0
  0
LINE
  5
175B
330
2
100
AcDbEntity
  8
0
100
AcDbLine
 10
162.1001489227212
 20
354.179310103619
 30
0.0
 11
162.1001489227212
 21
353.179310103619
 31
0.0
  0
ARC
  5
175C
330
2
100
AcDbEntity
  8
0
100
AcDbCircle
 10
163.1001489227212
 20
354.179310103619
 30
0.0
 40
1.0
100
AcDbArc
 50
90.0
 51
180.0
  0
ARC
  5
175E
330
2
100
AcDbEntity
  8
0
100
AcDbCircle
 10
343.4701029765051
 20
138.198383103619
 30
0.0
 40
2.0
100
AcDbArc
 50
270.0
 51
311.1850957385722
  0
ARC
  5
175F
330
2
100
AcDbEntity
  8
0
100
AcDbCircle
 10
343.4701029765051
 20
94.19839110361897
 30
0.0
 40
2.0
100
AcDbArc
 50
0.000000000000007
 51
90.0
  0
ENDSEC
  0
SECTION
  2
OBJECTS
  0
DICTIONARY
  5
7
330
0
100
AcDbDictionary
  3
ACAD_GROUP
350
75
  3
ACAD_LAYOUT
350
61
  3
ACAD_MLINESTYLE
350
76
  3
ACAD_PLOTSETTINGS
350
77
  3
ACAD_PLOTSTYLENAME
350
6
  3
ACADDIM
350
480
  3
ACDBHEADERROUNDTRIPXREC
350
179F
  3
ACDBVARIABLEDICTIONARY
350
102
  3
DWGPROPS
350
3D2
  0
DICTIONARY
  5
17C0
330
2
100
AcDbDictionary
280
     1
  3
ACAD_LAYOUTSELFREF
360
17C1
  0
DICTIONARY
  5
17C2
330
1799
100
AcDbDictionary
280
     1
  3
ACAD_LAYOUTSELFREF
360
17C3
  0
DICTIONARY
  5
75
102
{ACAD_REACTORS
330
7
102
}
330
7
100
AcDbDictionary
  0
DICTIONARY
  5
61
102
{ACAD_REACTORS
330
7
102
}
330
7
100
AcDbDictionary
  0
DICTIONARY
  5
76
102
{ACAD_REACTORS
330
7
102
}
330
7
100
AcDbDictionary
  3
STANDARD
350
78
  0
DICTIONARY
  5
77
102
{ACAD_REACTORS
330
7
102
}
330
7
100
AcDbDictionary
  0
ACDBDICTIONARYWDFLT
  5
6
102
{ACAD_REACTORS
330
7
102
}
330
7
100
AcDbDictionary
281
     1
  3
Normal
350
5
100
AcDbDictionaryWithDefault
340
5
  0
XRECORD
  5
480
102
{ACAD_REACTORS
330
7
102
}
330
7
100
AcDbXrecord
 90
   990106
  3

 60
     0
 61
     0
 62
     1
 63
     3
 64
     1
 65
     0
 66
     0
 67
     3
 68
     1
 69
     0
 70
     0
 71
     0
 72
     0
 40
0.0
170
     2
340
0
  0
DICTIONARY
  5
179F
102
{ACAD_REACTORS
330
7
102
}
330
7
100
AcDbDictionary
  3
CEPSNTYPE
350
17A9
  3
DIMSTYLEDATA
350
17AD
  3
FINGERPRINTGUID
350
17AA
  3
HYPERLINKBASE
350
17A2
  3
INSUNITS
350
17A8
  3
LAYOUTDICT
350
17A4
  3
LWETCUNION
350
17A7
  3
PLOTSETDICT
350
17A5
  3
PLOTSTYLNAMDICT
350
17A6
  3
PSVPSCALE
350
17AC
  3
PUCSBASE
350
17B0
  3
PUCSORGBACK
350
17B6
  3
PUCSORGBOTTOM
350
17B2
  3
PUCSORGFRONT
350
17B5
  3
PUCSORGLEFT
350
17B3
  3
PUCSORGRIGHT
350
17B4
  3
PUCSORGTOP
350
17B1
  3
PUCSORTHOREF
350
17AE
  3
PUCSORTHOVIEW
350
17AF
  3
STYLESHEET
350
17A3
  3
TSTACKALIGN
350
17A0
  3
TSTACKSIZE
350
17A1
  3
UCSBASE
350
17B9
  3
UCSORGBACK
350
17BF
  3
UCSORGBOTTOM
350
17BB
  3
UCSORGFRONT
350
17BE
  3
UCSORGLEFT
350
17BC
  3
UCSORGRIGHT
350
17BD
  3
UCSORGTOP
350
17BA
  3
UCSORTHOREF
350
17B7
  3
UCSORTHOVIEW
350
17B8
  3
VERSIONGUID
350
17AB
  0
DICTIONARY
  5
102
102
{ACAD_REACTORS
330
7
102
}
330
7
100
AcDbDictionary
  3
DIMASSOC
350
103
  0
XRECORD
  5
3D2
102
{ACAD_REACTORS
330
7
102
}
330
7
100
AcDbXrecord
  1
DWGPROPS COOKIE
  2

  3

  4

  6

  7

  8

  9

300
=
301
=
302
=
303
=
304
=
305
=
306
=
307
=
308
=
309
=
 40
0.5353330671296296
 41
2452052.431989363
 42
2453406.550756377
  1

 90
        0
  0
XRECORD
  5
17C1
102
{ACAD_REACTORS
330
17C0
102
}
330
17C0
100
AcDbXrecord
340
2
  0
XRECORD
  5
17C3
102
{ACAD_REACTORS
330
17C2
102
}
330
17C2
100
AcDbXrecord
340
1799
  0
MLINESTYLE
  5
78
102
{ACAD_REACTORS
330
76
102
}
330
76
100
AcDbMlineStyle
  2
STANDARD
 70
     0
  3

 62
     0
 51
90.0
 52
90.0
 71
     2
 49
0.5
 62
   256
  6
BYLAYER
 49
-0.5
 62
   256
  6
BYLAYER
  0
ACDBPLACEHOLDER
  5
5
102
{ACAD_REACTORS
330
6
102
}
330
6
100
AcDbPlaceHolder
280
     0
  0
XRECORD
  5
17A9
102
{ACAD_REACTORS
330
179F
102
}
330
179F
100
AcDbXrecord
 90
        0
  0
XRECORD
  5
17AD
102
{ACAD_REACTORS
330
179F
102
}
330
179F
100
AcDbXrecord
1000
DSTYLE
1002
{
1070
   179
 70
     2
1070
   277
 70
     6
1002
}
  0
XRECORD
  5
17AA
102
{ACAD_REACTORS
330
179F
102
}
330
179F
100
AcDbXrecord
  1
{6385560B-F4B1-4644-A7C2-A3E32AC3D232}
  0
XRECORD
  5
17A2
102
{ACAD_REACTORS
330
179F
102
}
330
179F
100
AcDbXrecord
  1

  0
XRECORD
  5
17A8
102
{ACAD_REACTORS
330
179F
102
}
330
179F
100
AcDbXrecord
 90
        0
  0
XRECORD
  5
17A4
102
{ACAD_REACTORS
330
179F
102
}
330
179F
100
AcDbXrecord
340
61
  0
XRECORD
  5
17A7
102
{ACAD_REACTORS
330
179F
102
}
330
179F
100
AcDbXrecord
 90
    10781
  0
XRECORD
  5
17A5
102
{ACAD_REACTORS
330
179F
102
}
330
179F
100
AcDbXrecord
340
77
  0
XRECORD
  5
17A6
102
{ACAD_REACTORS
330
179F
102
}
330
179F
100
AcDbXrecord
340
6
  0
XRECORD
  5
17AC
102
{ACAD_REACTORS
330
179F
102
}
330
179F
100
AcDbXrecord
 40
0.0
  0
XRECORD
  5
17B0
102
{ACAD_REACTORS
330
179F
102
}
330
179F
100
AcDbXrecord
340
0
  0
XRECORD
  5
17B6
102
{ACAD_REACTORS
330
179F
102
}
330
179F
100
AcDbXrecord
 10
0.0
 20
0.0
 30
0.0
  0
XRECORD
  5
17B2
102
{ACAD_REACTORS
330
179F
102
}
330
179F
100
AcDbXrecord
 10
0.0
 20
0.0
 30
0.0
  0
XRECORD
  5
17B5
102
{ACAD_REACTORS
330
179F
102
}
330
179F
100
AcDbXrecord
 10
0.0
 20
0.0
 30
0.0
  0
XRECORD
  5
17B3
102
{ACAD_REACTORS
330
179F
102
}
330
179F
100
AcDbXrecord
 10
0.0
 20
0.0
 30
0.0
  0
XRECORD
  5
17B4
102
{ACAD_REACTORS
330
179F
102
}
330
179F
100
AcDbXrecord
 10
0.0
 20
0.0
 30
0.0
  0
XRECORD
  5
17B1
102
{ACAD_REACTORS
330
179F
102
}
330
179F
100
AcDbXrecord
 10
0.0
 20
0.0
 30
0.0
  0
XRECORD
  5
17AE
102
{ACAD_REACTORS
330
179F
102
}
330
179F
100
AcDbXrecord
340
0
  0
XRECORD
  5
17AF
102
{ACAD_REACTORS
330
179F
102
}
330
179F
100
AcDbXrecord
 70
     0
  0
XRECORD
  5
17A3
102
{ACAD_REACTORS
330
179F
102
}
330
179F
100
AcDbXrecord
  1
Sekkei.ctb
  0
XRECORD
  5
17A0
102
{ACAD_REACTORS
330
179F
102
}
330
179F
100
AcDbXrecord
 90
        1
  0
XRECORD
  5
17A1
102
{ACAD_REACTORS
330
179F
102
}
330
179F
100
AcDbXrecord
 90
       70
  0
XRECORD
  5
17B9
102
{ACAD_REACTORS
330
179F
102
}
330
179F
100
AcDbXrecord
340
0
  0
XRECORD
  5
17BF
102
{ACAD_REACTORS
330
179F
102
}
330
179F
100
AcDbXrecord
 10
0.0
 20
0.0
 30
0.0
  0
XRECORD
  5
17BB
102
{ACAD_REACTORS
330
179F
102
}
330
179F
100
AcDbXrecord
 10
0.0
 20
0.0
 30
0.0
  0
XRECORD
  5
17BE
102
{ACAD_REACTORS
330
179F
102
}
330
179F
100
AcDbXrecord
 10
0.0
 20
0.0
 30
0.0
  0
XRECORD
  5
17BC
102
{ACAD_REACTORS
330
179F
102
}
330
179F
100
AcDbXrecord
 10
0.0
 20
0.0
 30
0.0
  0
XRECORD
  5
17BD
102
{ACAD_REACTORS
330
179F
102
}
330
179F
100
AcDbXrecord
 10
0.0
 20
0.0
 30
0.0
  0
XRECORD
  5
17BA
102
{ACAD_REACTORS
330
179F
102
}
330
179F
100
AcDbXrecord
 10
0.0
 20
0.0
 30
0.0
  0
XRECORD
  5
17B7
102
{ACAD_REACTORS
330
179F
102
}
330
179F
100
AcDbXrecord
340
0
  0
XRECORD
  5
17B8
102
{ACAD_REACTORS
330
179F
102
}
330
179F
100
AcDbXrecord
 70
     0
  0
XRECORD
  5
17AB
102
{ACAD_REACTORS
330
179F
102
}
330
179F
100
AcDbXrecord
  1
{7706B068-BD0D-43C6-8BAE-10117A534906}
  0
DICTIONARYVAR
  5
103
102
{ACAD_REACTORS
330
102
102
}
330
102
100
DictionaryVariables
280
     0
  1
1
  0
ENDSEC
  0
EOF
