  0
SECTION
  2
HEADER
  9
$ACADVER
  1
AC1014
  9
$ACADMAINTVER
 70
     9
  9
$DWGCODEPAGE
  3
ANSI_932
  9
$INSBASE
 10
0.0
 20
0.0
 30
0.0
  9
$EXTMIN
 10
38.29761181332546
 20
37.01270652412615
 30
0.0
  9
$EXTMAX
 10
455.2019335259356
 20
316.9327065241261
 30
0.0
  9
$LIMMIN
 10
0.0
 20
0.0
  9
$LIMMAX
 10
297.0
 20
210.0
  9
$ORTHOMODE
 70
     1
  9
$REGENMODE
 70
     1
  9
$FILLMODE
 70
     1
  9
$QTEXTMODE
 70
     0
  9
$MIRRTEXT
 70
     0
  9
$DRAGMODE
 70
     2
  9
$LTSCALE
 40
2.0
  9
$OSMODE
 70
    37
  9
$ATTMODE
 70
     1
  9
$TEXTSIZE
 40
2.0
  9
$TRACEWID
 40
1.0
  9
$TEXTSTYLE
  7
STANDARD
  9
$CLAYER
  8
0
  9
$CELTYPE
  6
BYLAYER
  9
$CECOLOR
 62
   256
  9
$CELTSCALE
 40
1.0
  9
$DELOBJ
 70
     1
  9
$DISPSILH
 70
     0
  9
$DIMSCALE
 40
2.0
  9
$DIMASZ
 40
1.8
  9
$DIMEXO
 40
0.625
  9
$DIMDLI
 40
3.75
  9
$DIMRND
 40
0.0
  9
$DIMDLE
 40
0.0
  9
$DIMEXE
 40
0.8
  9
$DIMTP
 40
0.0
  9
$DIMTM
 40
0.0
  9
$DIMTXT
 40
1.8
  9
$DIMCEN
 40
2.5
  9
$DIMTSZ
 40
0.0
  9
$DIMTOL
 70
     0
  9
$DIMLIM
 70
     0
  9
$DIMTIH
 70
     0
  9
$DIMTOH
 70
     0
  9
$DIMSE1
 70
     0
  9
$DIMSE2
 70
     0
  9
$DIMTAD
 70
     1
  9
$DIMZIN
 70
     8
  9
$DIMBLK
  1

  9
$DIMASO
 70
     1
  9
$DIMSHO
 70
     1
  9
$DIMPOST
  1

  9
$DIMAPOST
  1

  9
$DIMALT
 70
     0
  9
$DIMALTD
 70
     4
  9
$DIMALTF
 40
0.0394
  9
$DIMLFAC
 40
1.0
  9
$DIMTOFL
 70
     1
  9
$DIMTVP
 40
0.0
  9
$DIMTIX
 70
     0
  9
$DIMSOXD
 70
     0
  9
$DIMSAH
 70
     0
  9
$DIMBLK1
  1

  9
$DIMBLK2
  1

  9
$DIMSTYLE
  2
STANDARD
  9
$DIMCLRD
 70
     0
  9
$DIMCLRE
 70
     0
  9
$DIMCLRT
 70
     0
  9
$DIMTFAC
 40
1.0
  9
$DIMGAP
 40
0.75
  9
$DIMJUST
 70
     0
  9
$DIMSD1
 70
     0
  9
$DIMSD2
 70
     0
  9
$DIMTOLJ
 70
     1
  9
$DIMTZIN
 70
     0
  9
$DIMALTZ
 70
     0
  9
$DIMALTTZ
 70
     0
  9
$DIMFIT
 70
     3
  9
$DIMUPT
 70
     0
  9
$DIMUNIT
 70
     8
  9
$DIMDEC
 70
     2
  9
$DIMTDEC
 70
     2
  9
$DIMALTU
 70
     8
  9
$DIMALTTD
 70
     4
  9
$DIMTXSTY
  7
STANDARD
  9
$DIMAUNIT
 70
     0
  9
$LUNITS
 70
     2
  9
$LUPREC
 70
     3
  9
$SKETCHINC
 40
1.0
  9
$FILLETRAD
 40
10.0
  9
$AUNITS
 70
     0
  9
$AUPREC
 70
     2
  9
$MENU
  1
.
  9
$ELEVATION
 40
0.0
  9
$PELEVATION
 40
0.0
  9
$THICKNESS
 40
0.0
  9
$LIMCHECK
 70
     0
  9
$BLIPMODE
 70
     0
  9
$CHAMFERA
 40
0.0
  9
$CHAMFERB
 40
0.0
  9
$CHAMFERC
 40
20.0
  9
$CHAMFERD
 40
0.0
  9
$SKPOLY
 70
     0
  9
$TDCREATE
 40
2453753.374461620
  9
$TDUPDATE
 40
2454399.551976087
  9
$TDINDWG
 40
0.1131727546
  9
$TDUSRTIMER
 40
0.1131727546
  9
$USRTIMER
 70
     1
  9
$ANGBASE
 50
0.0
  9
$ANGDIR
 70
     0
  9
$PDMODE
 70
     0
  9
$PDSIZE
 40
-10.0
  9
$PLINEWID
 40
0.0
  9
$COORDS
 70
     1
  9
$SPLFRAME
 70
     0
  9
$SPLINETYPE
 70
     6
  9
$SPLINESEGS
 70
     8
  9
$ATTDIA
 70
     0
  9
$ATTREQ
 70
     1
  9
$HANDLING
 70
-16383
  9
$HANDSEED
  5
D8B
  9
$SURFTAB1
 70
     6
  9
$SURFTAB2
 70
     6
  9
$SURFTYPE
 70
     6
  9
$SURFU
 70
     6
  9
$SURFV
 70
     6
  9
$UCSNAME
  2

  9
$UCSORG
 10
0.0
 20
0.0
 30
0.0
  9
$UCSXDIR
 10
1.0
 20
0.0
 30
0.0
  9
$UCSYDIR
 10
0.0
 20
1.0
 30
0.0
  9
$PUCSNAME
  2

  9
$PUCSORG
 10
0.0
 20
0.0
 30
0.0
  9
$PUCSXDIR
 10
1.0
 20
0.0
 30
0.0
  9
$PUCSYDIR
 10
0.0
 20
1.0
 30
0.0
  9
$USERI1
 70
     0
  9
$USERI2
 70
     0
  9
$USERI3
 70
     0
  9
$USERI4
 70
     0
  9
$USERI5
 70
     0
  9
$USERR1
 40
0.0
  9
$USERR2
 40
0.0
  9
$USERR3
 40
0.0
  9
$USERR4
 40
0.0
  9
$USERR5
 40
0.0
  9
$WORLDVIEW
 70
     1
  9
$SHADEDGE
 70
     3
  9
$SHADEDIF
 70
    70
  9
$TILEMODE
 70
     1
  9
$MAXACTVP
 70
    48
  9
$PINSBASE
 10
0.0
 20
0.0
 30
0.0
  9
$PLIMCHECK
 70
     0
  9
$PEXTMIN
 10
0.0
 20
0.0
 30
0.0
  9
$PEXTMAX
 10
0.0
 20
0.0
 30
0.0
  9
$PLIMMIN
 10
0.0
 20
0.0
  9
$PLIMMAX
 10
12.0
 20
9.0
  9
$UNITMODE
 70
     0
  9
$VISRETAIN
 70
     1
  9
$PLINEGEN
 70
     0
  9
$PSLTSCALE
 70
     1
  9
$TREEDEPTH
 70
  3020
  9
$PICKSTYLE
 70
     1
  9
$CMLSTYLE
  2
STANDARD
  9
$CMLJUST
 70
     0
  9
$CMLSCALE
 40
1.0
  9
$PROXYGRAPHICS
 70
     1
  9
$MEASUREMENT
 70
     0
  0
ENDSEC
  0
SECTION
  2
CLASSES
  0
CLASS
  1
DICTIONARYVAR
  2
AcDbDictionaryVar
  3
AutoCAD 2000
 90
        0
280
     0
281
     0
  0
CLASS
  1
ACDBDICTIONARYWDFLT
  2
AcDbDictionaryWithDefault
  3
AutoCAD 2000
 90
        0
280
     0
281
     0
  0
CLASS
  1
ACDBPLACEHOLDER
  2
AcDbPlaceHolder
  3
AutoCAD 2000
 90
        0
280
     0
281
     0
  0
CLASS
  1
LAYOUT
  2
AcDbLayout
  3
AutoCAD 2000
 90
        0
280
     0
281
     0
  0
CLASS
  1
LONG_TRANSACTION
  2
AcDbLongTransaction
  3
AutoCAD 2000
 90
        0
280
     0
281
     0
  0
CLASS
  1
LWPOLYLINE
  2
AcDbPolyline
  3
AutoCAD 2000
 90
        0
280
     0
281
     1
  0
CLASS
  1
HATCH
  2
AcDbHatch
  3
AutoCAD 2000
 90
        0
280
     0
281
     1
  0
CLASS
  1
XRECORD
  2
AcDbXrecord
  3
AutoCAD 2000
 90
        0
280
     0
281
     0
  0
ENDSEC
  0
SECTION
  2
TABLES
  0
TABLE
  2
VPORT
  5
6E
330
0
100
AcDbSymbolTable
 70
     2
  0
VPORT
  5
D65
330
6E
100
AcDbSymbolTableRecord
100
AcDbViewportTableRecord
  2
*ACTIVE
 70
     0
 10
0.0
 20
0.0
 11
1.0
 21
1.0
 12
239.2873272901176
 22
165.0714374691163
 13
0.0
 23
0.0
 14
10.0
 24
10.0
 15
10.0
 25
10.0
 16
0.0
 26
0.0
 36
1.0
 17
0.0
 27
0.0
 37
0.0
 40
306.068992707077
 41
1.540920716112531
 42
50.0
 43
0.0
 44
0.0
 50
0.0
 51
0.0
 71
     0
 72
   100
 73
     1
 74
     3
 75
     0
 76
     0
 77
     0
 78
     0
  0
ENDTAB
  0
TABLE
  2
LTYPE
  5
69
330
0
100
AcDbSymbolTable
 70
     4
  0
LTYPE
  5
6A
330
69
100
AcDbSymbolTableRecord
100
AcDbLinetypeTableRecord
  2
BYBLOCK
 70
     0
  3

 72
    65
 73
     0
 40
0.0
  0
LTYPE
  5
6B
330
69
100
AcDbSymbolTableRecord
100
AcDbLinetypeTableRecord
  2
BYLAYER
 70
     0
  3

 72
    65
 73
     0
 40
0.0
  0
LTYPE
  5
8
330
69
100
AcDbSymbolTableRecord
100
AcDbLinetypeTableRecord
  2
CONTINUOUS
 70
     0
  3
Solid line
 72
    65
 73
     0
 40
0.0
  0
LTYPE
  5
27C
330
69
100
AcDbSymbolTableRecord
100
AcDbLinetypeTableRecord
  2
SEKKEI_A2_
 70
     0
  3
center(A2)  ____ _ ____ _ ____ _ ____ _ ____ _ 
 72
    65
 73
     4
 40
14.28749999999999
 49
9.525
 74
     0
 49
-1.587499999999999
 74
     0
 49
1.587499999999999
 74
     0
 49
-1.587499999999999
 74
     0
  0
LTYPE
  5
2B4
330
69
100
AcDbSymbolTableRecord
100
AcDbLinetypeTableRecord
  2
HIDDEN2
 70
     0
  3
Hidden (.5x) _ _ _ _ _ _ _ _ _ _ _ _ _ _ _ _ _
 72
    65
 73
     2
 40
4.762499999999999
 49
3.174999999999999
 74
     0
 49
-1.587499999999999
 74
     0
  0
LTYPE
  5
48F
330
69
100
AcDbSymbolTableRecord
100
AcDbLinetypeTableRecord
  2
SEKKEI_H
 70
     0
  3
Hidden-S _ _ _ _ _ _ _ _ _ _ _ _ _ _ _ _ _
 72
    65
 73
     2
 40
2.381249999999999
 49
1.587499999999999
 74
     0
 49
-0.79375
 74
     0
  0
ENDTAB
  0
TABLE
  2
LAYER
  5
66
330
0
100
AcDbSymbolTable
 70
     9
  0
LAYER
  5
5E
330
66
100
AcDbSymbolTableRecord
100
AcDbLayerTableRecord
  2
0
 70
     0
 62
     7
  6
CONTINUOUS
  0
LAYER
  5
3E
330
66
100
AcDbSymbolTableRecord
100
AcDbLayerTableRecord
  2
CENTER
 70
     0
 62
     3
  6
SEKKEI_A2_
  0
LAYER
  5
2B5
330
66
100
AcDbSymbolTableRecord
100
AcDbLayerTableRecord
  2
HIDS
 70
     0
 62
     1
  6
HIDDEN2
  0
LAYER
  5
2BA
330
66
100
AcDbSymbolTableRecord
100
AcDbLayerTableRecord
  2
HOJO
 70
     0
 62
     4
  6
CONTINUOUS
  0
LAYER
  5
3FA
330
66
100
AcDbSymbolTableRecord
100
AcDbLayerTableRecord
  2
TITLE
 70
     0
 62
     4
  6
CONTINUOUS
  0
ENDTAB
  0
TABLE
  2
STYLE
  5
67
330
0
100
AcDbSymbolTable
 70
     1
  0
STYLE
  5
16
330
67
100
AcDbSymbolTableRecord
100
AcDbTextStyleTableRecord
  2
STANDARD
 70
     0
 40
0.0
 41
1.0
 50
0.0
 71
     0
 42
2.0
  3
simplex.shx
  4
extfont.shx
  0
ENDTAB
  0
TABLE
  2
VIEW
  5
6C
330
0
100
AcDbSymbolTable
 70
     0
  0
ENDTAB
  0
TABLE
  2
UCS
  5
6D
330
0
100
AcDbSymbolTable
 70
     0
  0
ENDTAB
  0
TABLE
  2
APPID
  5
70
330
0
100
AcDbSymbolTable
 70
     1
  0
APPID
  5
71
330
70
100
AcDbSymbolTableRecord
100
AcDbRegAppTableRecord
  2
ACAD
 70
     0
  0
ENDTAB
  0
TABLE
  2
DIMSTYLE
  5
72
330
0
100
AcDbSymbolTable
 70
     1
  0
DIMSTYLE
105
73
330
72
100
AcDbSymbolTableRecord
100
AcDbDimStyleTableRecord
  2
STANDARD
 70
     0
  3

  4

  5

  6

  7

 40
2.0
 41
1.8
 42
0.625
 43
3.75
 44
0.8
 45
0.0
 46
0.0
 47
0.0
 48
0.0
140
1.8
141
2.5
142
0.0
143
0.0394
144
1.0
145
0.0
146
1.0
147
0.75
 71
     0
 72
     0
 73
     0
 74
     0
 75
     0
 76
     0
 77
     1
 78
     8
170
     0
171
     4
172
     1
173
     0
174
     0
175
     0
176
     0
177
     0
178
     0
270
     8
271
     2
272
     2
273
     8
274
     4
340
16
275
     0
280
     0
281
     0
282
     0
283
     1
284
     0
285
     0
286
     0
287
     3
288
     0
  0
ENDTAB
  0
TABLE
  2
BLOCK_RECORD
  5
1
330
0
100
AcDbSymbolTable
 70
    41
  0
BLOCK_RECORD
  5
2
102
{ACAD_XDICTIONARY
360
D87
102
}
330
1
100
AcDbSymbolTableRecord
100
AcDbBlockTableRecord
  2
*MODEL_SPACE
  0
BLOCK_RECORD
  5
D60
102
{ACAD_XDICTIONARY
360
D89
102
}
330
1
100
AcDbSymbolTableRecord
100
AcDbBlockTableRecord
  2
*PAPER_SPACE
  0
ENDTAB
  0
ENDSEC
  0
SECTION
  2
BLOCKS
  0
BLOCK
  5
5D
330
2
100
AcDbEntity
  8
0
100
AcDbBlockBegin
  2
*MODEL_SPACE
 70
     0
 10
0.0
 20
0.0
 30
0.0
  3
*MODEL_SPACE
  1

  0
ENDBLK
  5
5F
330
2
100
AcDbEntity
  8
0
100
AcDbBlockEnd
  0
BLOCK
  5
D62
330
D60
100
AcDbEntity
 67
     1
  8
0
100
AcDbBlockBegin
  2
*PAPER_SPACE
 70
     0
 10
0.0
 20
0.0
 30
0.0
  3
*PAPER_SPACE
  1

  0
ENDBLK
  5
D63
330
D60
100
AcDbEntity
 67
     1
  8
0
100
AcDbBlockEnd
  0
ENDSEC
  0
SECTION
  2
ENTITIES
  0
LINE
  5
625
330
2
100
AcDbEntity
  8
0
100
AcDbLine
 10
176.2976178133254
 20
234.9327065241261
 30
0.0
 11
261.2976178133255
 21
234.9327065241261
 31
0.0
  0
LINE
  5
626
330
2
100
AcDbEntity
  8
0
100
AcDbLine
 10
177.0884658133254
 20
243.9327065241261
 30
0.0
 11
260.0877788133254
 21
243.9327065241261
 31
0.0
  0
LINE
  5
627
330
2
100
AcDbEntity
  8
0
100
AcDbLine
 10
257.4900918133254
 20
305.9327065241261
 30
0.0
 11
178.2459208133254
 21
305.9327065241261
 31
0.0
  0
LINE
  5
628
330
2
100
AcDbEntity
  8
CENTER
100
AcDbLine
 10
38.29761181332546
 20
274.9327065241261
 30
0.0
 11
267.2501739371067
 21
274.9327065241261
 31
0.0
  0
CIRCLE
  5
629
330
2
100
AcDbEntity
  8
0
100
AcDbCircle
 10
218.7976178133254
 20
108.0127085241261
 30
0.0
 40
20.0
  0
LINE
  5
62A
330
2
100
AcDbEntity
  8
0
100
AcDbLine
 10
198.7976178133254
 20
48.01270652412616
 30
0.0
 11
238.7976178133254
 21
48.01270652412616
 31
0.0
  0
LINE
  5
62B
330
2
100
AcDbEntity
  8
0
100
AcDbLine
 10
198.7976178133254
 20
142.0127085241261
 30
0.0
 11
238.7976178133254
 21
142.0127085241261
 31
0.0
  0
LINE
  5
62C
330
2
100
AcDbEntity
  8
CENTER
100
AcDbLine
 10
191.7976178133254
 20
108.0127085241261
 30
0.0
 11
245.7976178133254
 21
108.0127085241261
 31
0.0
  0
ARC
  5
62D
330
2
100
AcDbEntity
  8
0
100
AcDbCircle
 10
218.7976178133254
 20
95.01270452412615
 30
0.0
 40
42.5
100
AcDbArc
 50
199.7498929999997
 51
340.2500920000001
  0
ARC
  5
62E
330
2
100
AcDbEntity
  8
0
100
AcDbCircle
 10
218.7976178133254
 20
95.01270452412615
 30
0.0
 40
42.5
100
AcDbArc
 50
19.74990100000013
 51
160.2501069999998
  0
LINE
  5
62F
330
2
100
AcDbEntity
  8
0
100
AcDbLine
 10
186.7976178133254
 20
146.0127085241261
 30
0.0
 11
250.7976178133254
 21
146.0127085241261
 31
0.0
  0
LINE
  5
630
330
2
100
AcDbEntity
  8
0
100
AcDbLine
 10
186.7976178133254
 20
44.01270652412615
 30
0.0
 11
250.7976178133254
 21
44.01270652412615
 31
0.0
  0
LINE
  5
631
330
2
100
AcDbEntity
  8
0
100
AcDbLine
 10
103.7976098133254
 20
55.46374652412616
 30
0.0
 11
175.7976178133254
 21
55.46374652412616
 31
0.0
  0
LINE
  5
632
330
2
100
AcDbEntity
  8
0
100
AcDbLine
 10
103.7976098133254
 20
115.9616755241261
 30
0.0
 11
175.5476178133254
 21
115.9616755241261
 31
0.0
  0
LINE
  5
633
330
2
100
AcDbEntity
  8
0
100
AcDbLine
 10
174.2976178133254
 20
47.71270652412616
 30
0.0
 11
103.7976098133254
 21
47.71270652412616
 31
0.0
  0
LINE
  5
634
330
2
100
AcDbEntity
  8
0
100
AcDbLine
 10
103.7976098133254
 20
123.7127055241261
 30
0.0
 11
176.7176158133254
 21
123.7127055241261
 31
0.0
  0
LINE
  5
635
330
2
100
AcDbEntity
  8
CENTER
100
AcDbLine
 10
38.29761181332548
 20
85.71270552412617
 30
0.0
 11
194.0976058133254
 21
85.71270552412617
 31
0.0
  0
LINE
  5
636
330
2
100
AcDbEntity
  8
0
100
AcDbLine
 10
103.7976098133254
 20
47.71270652412616
 30
0.0
 11
103.7976098133254
 21
123.7127055241261
 31
0.0
  0
LINE
  5
637
330
2
100
AcDbEntity
  8
0
100
AcDbLine
 10
45.29761181332546
 20
50.71270652412616
 30
0.0
 11
45.29761181332546
 21
120.7127055241261
 31
0.0
  0
LINE
  5
638
330
2
100
AcDbEntity
  8
0
100
AcDbLine
 10
94.29760981332547
 20
45.71270652412616
 30
0.0
 11
94.29760981332547
 21
125.7127055241261
 31
0.0
  0
ARC
  5
639
330
2
100
AcDbEntity
  8
0
100
AcDbCircle
 10
50.29761181332546
 20
50.71270652412616
 30
0.0
 40
5.0
100
AcDbArc
 50
180.0
 51
270.0
  0
LINE
  5
63B
330
2
100
AcDbEntity
  8
0
100
AcDbLine
 10
47.79761181332546
 20
61.71270752412616
 30
0.0
 11
94.29760981332547
 21
61.71270752412616
 31
0.0
  0
LINE
  5
63C
330
2
100
AcDbEntity
  8
0
100
AcDbLine
 10
50.29761281332547
 20
45.71270652412616
 30
0.0
 11
94.29760981332547
 21
45.71270652412616
 31
0.0
  0
LINE
  5
63D
330
2
100
AcDbEntity
  8
0
100
AcDbLine
 10
94.29760981332547
 20
55.46370652412615
 30
0.0
 11
103.7976098133254
 21
55.46370652412615
 31
0.0
  0
LINE
  5
63E
330
2
100
AcDbEntity
  8
0
100
AcDbLine
 10
94.29760981332547
 20
47.71270652412616
 30
0.0
 11
103.7976098133254
 21
47.71270652412616
 31
0.0
  0
ARC
  5
63F
330
2
100
AcDbEntity
  8
0
100
AcDbCircle
 10
50.29763681332546
 20
120.7127285241261
 30
0.0
 40
5.0
100
AcDbArc
 50
90.0
 51
180.0
  0
LINE
  5
640
330
2
100
AcDbEntity
  8
0
100
AcDbLine
 10
103.4976108133254
 20
137.5877055241261
 30
0.0
 11
103.4976108133254
 21
125.2127055241261
 31
0.0
  0
LINE
  5
641
330
2
100
AcDbEntity
  8
0
100
AcDbLine
 10
98.09761381332547
 20
136.7752055241261
 30
0.0
 11
98.09761381332547
 21
125.2127055241261
 31
0.0
  0
LINE
  5
642
330
2
100
AcDbEntity
  8
0
100
AcDbLine
 10
99.89761281332548
 20
138.8377055241261
 30
0.0
 11
99.89761281332548
 21
125.2127055241261
 31
0.0
  0
LINE
  5
643
330
2
100
AcDbEntity
  8
0
100
AcDbLine
 10
101.6976228133254
 20
138.2127055241261
 30
0.0
 11
101.6976228133254
 21
125.2127055241261
 31
0.0
  0
LINE
  5
644
330
2
100
AcDbEntity
  8
0
100
AcDbLine
 10
47.79761181332546
 20
111.7127055241261
 30
0.0
 11
94.29760981332547
 21
111.7127055241261
 31
0.0
  0
LINE
  5
645
330
2
100
AcDbEntity
  8
0
100
AcDbLine
 10
50.29761181332546
 20
125.7127055241261
 30
0.0
 11
94.29760981332547
 21
125.7127055241261
 31
0.0
  0
LINE
  5
646
330
2
100
AcDbEntity
  8
0
100
AcDbLine
 10
94.29760981332547
 20
115.9617055241261
 30
0.0
 11
103.7976098133254
 21
115.9617055241261
 31
0.0
  0
LINE
  5
647
330
2
100
AcDbEntity
  8
0
100
AcDbLine
 10
94.29760981332547
 20
123.7127055241261
 30
0.0
 11
103.7976098133254
 21
123.7127055241261
 31
0.0
  0
LINE
  5
648
330
2
100
AcDbEntity
  8
0
100
AcDbLine
 10
97.29760981332546
 20
125.2127055241261
 30
0.0
 11
104.2976098133254
 21
125.2127055241261
 31
0.0
  0
LINE
  5
649
330
2
100
AcDbEntity
  8
0
100
AcDbLine
 10
97.29760981332546
 20
125.2127055241261
 30
0.0
 11
97.29760981332546
 21
123.7127055241261
 31
0.0
  0
LINE
  5
64A
330
2
100
AcDbEntity
  8
0
100
AcDbLine
 10
104.2976098133254
 20
125.2127055241261
 30
0.0
 11
104.2976098133254
 21
123.7127055241261
 31
0.0
  0
LINE
  5
64B
330
2
100
AcDbEntity
  8
HOJO
100
AcDbLine
 10
103.4976108133254
 20
137.5877055241261
 30
0.0
 11
101.6986228133254
 21
137.1399975241261
 31
0.0
  0
LINE
  5
64C
330
2
100
AcDbEntity
  8
HOJO
100
AcDbLine
 10
99.89761281332548
 20
138.8377055241261
 30
0.0
 11
101.6976228133254
 21
138.2127055241261
 31
0.0
  0
LINE
  5
64D
330
2
100
AcDbEntity
  8
HOJO
100
AcDbLine
 10
98.09761381332547
 20
136.7752055241261
 30
0.0
 11
99.89761281332548
 21
137.4002055241261
 31
0.0
  0
LINE
  5
64E
330
2
100
AcDbEntity
  8
0
100
AcDbLine
 10
178.7976178133254
 20
109.3739755241261
 30
0.0
 11
178.7976178133254
 21
80.65116652412616
 31
0.0
  0
LINE
  5
64F
330
2
100
AcDbEntity
  8
CENTER
100
AcDbLine
 10
218.7976178133254
 20
153.0127085241261
 30
0.0
 11
218.7976178133254
 21
37.01270652412615
 31
0.0
  0
LINE
  5
650
330
2
100
AcDbEntity
  8
0
100
AcDbLine
 10
176.2976178133254
 20
120.7127055241261
 30
0.0
 11
176.2976178133254
 21
69.31270552412616
 31
0.0
  0
ARC
  5
651
330
2
100
AcDbEntity
  8
0
100
AcDbCircle
 10
186.7976178133254
 20
52.01270652412616
 30
0.0
 40
8.0
100
AcDbArc
 50
187.9696039999997
 51
270.0
  0
LINE
  5
652
330
2
100
AcDbEntity
  8
0
100
AcDbLine
 10
178.8481088133254
 20
79.94478352412617
 30
0.0
 11
181.1725108133254
 21
63.34221652412615
 31
0.0
  0
LINE
  5
653
330
2
100
AcDbEntity
  8
0
100
AcDbLine
 10
178.8749188133254
 20
50.90350652412616
 30
0.0
 11
176.2976178133254
 21
69.31270552412616
 31
0.0
  0
ARC
  5
654
330
2
100
AcDbEntity
  8
0
100
AcDbCircle
 10
186.7976178133254
 20
52.01270652412616
 30
0.0
 40
8.0
100
AcDbArc
 50
0.0
 51
97.96981799999995
  0
CIRCLE
  5
655
330
2
100
AcDbEntity
  8
0
100
AcDbCircle
 10
186.7976178133254
 20
52.01270652412616
 30
0.0
 40
3.25
  0
LINE
  5
657
330
2
100
AcDbEntity
  8
0
100
AcDbLine
 10
176.2976178133254
 20
49.71270652412616
 30
0.0
 11
176.2976178133254
 21
55.71271652412616
 31
0.0
  0
ARC
  5
659
330
2
100
AcDbEntity
  8
0
100
AcDbCircle
 10
174.2976178133254
 20
49.71270652412616
 30
0.0
 40
2.0
100
AcDbArc
 50
270.0
 51
0.0
  0
ARC
  5
65A
330
2
100
AcDbEntity
  8
0
100
AcDbCircle
 10
185.1338148133254
 20
63.89680652412616
 30
0.0
 40
4.0
100
AcDbArc
 50
187.9696960000001
 51
277.9697569999997
  0
ARC
  5
65B
330
2
100
AcDbEntity
  8
0
100
AcDbCircle
 10
181.2976178133254
 20
55.71272652412616
 30
0.0
 40
5.0
100
AcDbArc
 50
135.7928009999998
 51
180.0
  0
ARC
  5
65C
330
2
100
AcDbEntity
  8
0
100
AcDbCircle
 10
198.7976178133254
 20
52.01270652412616
 30
0.0
 40
4.0
100
AcDbArc
 50
180.0
 51
270.0
  0
LINE
  5
65D
330
2
100
AcDbEntity
  8
0
100
AcDbLine
 10
219.3704178133254
 20
78.40479852412617
 30
0.0
 11
221.0314128133254
 21
78.40479852412617
 31
0.0
  0
LINE
  5
65E
330
2
100
AcDbEntity
  8
0
100
AcDbLine
 10
215.6101178133254
 20
79.57520852412617
 30
0.0
 11
221.9851178133254
 21
79.57520852412617
 31
0.0
  0
LINE
  5
65F
330
2
100
AcDbEntity
  8
0
100
AcDbLine
 10
207.1184188133254
 20
77.41267952412616
 30
0.0
 11
207.1184188133254
 21
71.90362752412617
 31
0.0
  0
LINE
  5
660
330
2
100
AcDbEntity
  8
0
100
AcDbLine
 10
206.0476178133254
 20
78.09320652412615
 30
0.0
 11
206.0476178133254
 21
71.25356652412616
 31
0.0
  0
LINE
  5
661
330
2
100
AcDbEntity
  8
0
100
AcDbLine
 10
219.3704178133254
 20
78.40479852412617
 30
0.0
 11
219.3704178133254
 21
71.05860652412616
 31
0.0
  0
LINE
  5
662
330
2
100
AcDbEntity
  8
0
100
AcDbLine
 10
218.1750138133254
 20
78.40479852412617
 30
0.0
 11
218.1750138133254
 21
71.05860652412616
 31
0.0
  0
ARC
  5
663
330
2
100
AcDbEntity
  8
0
100
AcDbCircle
 10
209.5090128133254
 20
73.12549752412616
 30
0.0
 40
1.992186999999999
100
AcDbArc
 50
270.0002139999998
 51
0.0001089999998967
  0
LINE
  5
664
330
2
100
AcDbEntity
  8
0
100
AcDbLine
 10
207.1184188133254
 20
71.90362752412617
 30
0.0
 11
207.8497118133254
 21
71.13331552412616
 31
0.0
  0
LINE
  5
665
330
2
100
AcDbEntity
  8
0
100
AcDbLine
 10
212.4226178133254
 20
75.56593452412617
 30
0.0
 11
212.4226178133254
 21
70.01270652412616
 31
0.0
  0
LINE
  5
666
330
2
100
AcDbEntity
  8
0
100
AcDbLine
 10
207.2774148133254
 20
70.01270652412616
 30
0.0
 11
210.5927078133254
 21
70.01270652412616
 31
0.0
  0
LINE
  5
667
330
2
100
AcDbEntity
  8
0
100
AcDbLine
 10
209.5090128133254
 20
71.13331552412616
 30
0.0
 11
207.8497118133254
 21
71.13331552412616
 31
0.0
  0
LINE
  5
668
330
2
100
AcDbEntity
  8
0
100
AcDbLine
 10
206.0476178133254
 20
71.25356652412616
 30
0.0
 11
207.2774148133254
 21
70.01270652412616
 31
0.0
  0
LINE
  5
669
330
2
100
AcDbEntity
  8
0
100
AcDbLine
 10
211.5012158133254
 20
70.77496652412616
 30
0.0
 11
210.5927078133254
 21
70.01270652412616
 31
0.0
  0
LINE
  5
66A
330
2
100
AcDbEntity
  8
0
100
AcDbLine
 10
211.5012158133254
 20
70.01270652412616
 30
0.0
 11
212.4226178133254
 21
70.01270652412616
 31
0.0
  0
LINE
  5
66B
330
2
100
AcDbEntity
  8
0
100
AcDbLine
 10
211.5012158133254
 20
70.77496652412616
 30
0.0
 11
211.5012158133254
 21
70.01270652412616
 31
0.0
  0
LINE
  5
66C
330
2
100
AcDbEntity
  8
0
100
AcDbLine
 10
209.8328048133254
 20
75.56593452412617
 30
0.0
 11
212.4226178133254
 21
75.56593452412617
 31
0.0
  0
LINE
  5
66D
330
2
100
AcDbEntity
  8
0
100
AcDbLine
 10
209.8328048133254
 20
75.56593452412617
 30
0.0
 11
209.8328048133254
 21
74.52003652412617
 31
0.0
  0
LINE
  5
66E
330
2
100
AcDbEntity
  8
0
100
AcDbLine
 10
211.5012158133254
 20
74.52003652412617
 30
0.0
 11
211.5012158133254
 21
73.12549752412616
 31
0.0
  0
LINE
  5
66F
330
2
100
AcDbEntity
  8
0
100
AcDbLine
 10
211.5012158133254
 20
73.52393452412616
 30
0.0
 11
211.5012158133254
 21
74.32081752412617
 31
0.0
  0
LINE
  5
670
330
2
100
AcDbEntity
  8
0
100
AcDbLine
 10
211.5012158133254
 20
74.52003652412617
 30
0.0
 11
209.8328048133254
 21
74.52003652412617
 31
0.0
  0
LINE
  5
671
330
2
100
AcDbEntity
  8
0
100
AcDbLine
 10
217.7019148133254
 20
71.05860652412616
 30
0.0
 11
218.1750138133254
 21
71.05860652412616
 31
0.0
  0
LINE
  5
672
330
2
100
AcDbEntity
  8
0
100
AcDbLine
 10
217.7019148133254
 20
70.01270652412616
 30
0.0
 11
219.7688098133254
 21
70.01270652412616
 31
0.0
  0
LINE
  5
673
330
2
100
AcDbEntity
  8
0
100
AcDbLine
 10
219.7688098133254
 20
71.05860652412616
 30
0.0
 11
219.7688098133254
 21
70.01270652412616
 31
0.0
  0
LINE
  5
674
330
2
100
AcDbEntity
  8
0
100
AcDbLine
 10
217.7019148133254
 20
71.05860652412616
 30
0.0
 11
217.7019148133254
 21
70.01270652412616
 31
0.0
  0
LINE
  5
675
330
2
100
AcDbEntity
  8
0
100
AcDbLine
 10
219.3704178133254
 20
71.05860652412616
 30
0.0
 11
219.7688098133254
 21
71.05860652412616
 31
0.0
  0
LINE
  5
676
330
2
100
AcDbEntity
  8
0
100
AcDbLine
 10
207.2050128133254
 20
79.57520852412617
 30
0.0
 11
211.4916178133254
 21
79.57520852412617
 31
0.0
  0
LINE
  5
677
330
2
100
AcDbEntity
  8
0
100
AcDbLine
 10
210.9101058133254
 20
78.30518852412615
 30
0.0
 11
207.8382058133254
 21
78.30518852412615
 31
0.0
  0
LINE
  5
678
330
2
100
AcDbEntity
  8
0
100
AcDbLine
 10
207.2050128133254
 20
79.57520852412617
 30
0.0
 11
206.0476178133254
 21
78.09320652412615
 31
0.0
  0
LINE
  5
679
330
2
100
AcDbEntity
  8
0
100
AcDbLine
 10
207.8382058133254
 20
78.30518852412615
 30
0.0
 11
207.1184188133254
 21
77.41267952412616
 31
0.0
  0
LINE
  5
67A
330
2
100
AcDbEntity
  8
0
100
AcDbLine
 10
211.5012158133254
 20
77.73373952412616
 30
0.0
 11
211.5012158133254
 21
77.58302052412616
 31
0.0
  0
LINE
  5
67B
330
2
100
AcDbEntity
  8
0
100
AcDbLine
 10
212.4226178133254
 20
78.54206652412615
 30
0.0
 11
212.4226178133254
 21
77.58302052412616
 31
0.0
  0
LINE
  5
67C
330
2
100
AcDbEntity
  8
0
100
AcDbLine
 10
211.5012158133254
 20
77.58302052412616
 30
0.0
 11
212.4226178133254
 21
77.58302052412616
 31
0.0
  0
LINE
  5
67D
330
2
100
AcDbEntity
  8
0
100
AcDbLine
 10
211.4916178133254
 20
79.57520852412617
 30
0.0
 11
212.4226178133254
 21
78.54206652412615
 31
0.0
  0
LINE
  5
67E
330
2
100
AcDbEntity
  8
0
100
AcDbLine
 10
211.5012158133254
 20
77.73373952412616
 30
0.0
 11
210.8980058133254
 21
78.30518852412615
 31
0.0
  0
LINE
  5
67F
330
2
100
AcDbEntity
  8
0
100
AcDbLine
 10
218.1750138133254
 20
78.40479852412617
 30
0.0
 11
216.6601058133254
 21
78.40479852412617
 31
0.0
  0
LINE
  5
680
330
2
100
AcDbEntity
  8
0
100
AcDbLine
 10
216.6601058133254
 20
78.40479852412617
 30
0.0
 11
216.3177138133254
 21
77.58302052412616
 31
0.0
  0
LINE
  5
681
330
2
100
AcDbEntity
  8
0
100
AcDbLine
 10
215.6101178133254
 20
77.58302052412616
 30
0.0
 11
216.3177138133254
 21
77.58302052412616
 31
0.0
  0
LINE
  5
682
330
2
100
AcDbEntity
  8
0
100
AcDbLine
 10
215.6101178133254
 20
77.58302052412616
 30
0.0
 11
215.6101178133254
 21
79.57520852412617
 31
0.0
  0
LINE
  5
683
330
2
100
AcDbEntity
  8
0
100
AcDbLine
 10
226.7414048133254
 20
78.40479852412617
 30
0.0
 11
226.7414048133254
 21
75.47854752412615
 31
0.0
  0
ARC
  5
684
330
2
100
AcDbEntity
  8
0
100
AcDbCircle
 10
228.9951128133254
 20
77.02271852412616
 30
0.0
 40
1.557193
100
AcDbArc
 50
277.4147259999999
 51
62.41185000000005
  0
ARC
  5
685
330
2
100
AcDbEntity
  8
0
100
AcDbCircle
 10
228.9951128133254
 20
77.02271852412616
 30
0.0
 40
2.55249
100
AcDbArc
 50
286.018127
 51
90.00351000000003
  0
LINE
  5
686
330
2
100
AcDbEntity
  8
0
100
AcDbLine
 10
225.6457168133254
 20
78.40479852412617
 30
0.0
 11
225.6457168133254
 21
71.00880552412616
 31
0.0
  0
LINE
  5
687
330
2
100
AcDbEntity
  8
0
100
AcDbLine
 10
226.7414048133254
 20
74.48267552412616
 30
0.0
 11
228.7819168133254
 21
74.48267552412616
 31
0.0
  0
LINE
  5
688
330
2
100
AcDbEntity
  8
0
100
AcDbLine
 10
226.7414048133254
 20
75.47854752412615
 30
0.0
 11
229.1961168133254
 21
75.47854752412615
 31
0.0
  0
LINE
  5
689
330
2
100
AcDbEntity
  8
0
100
AcDbLine
 10
226.7414048133254
 20
74.48267552412616
 30
0.0
 11
226.7414048133254
 21
71.00880552412616
 31
0.0
  0
LINE
  5
68A
330
2
100
AcDbEntity
  8
0
100
AcDbLine
 10
225.1726178133254
 20
71.00880552412616
 30
0.0
 11
225.1726178133254
 21
70.01270652412616
 31
0.0
  0
LINE
  5
68B
330
2
100
AcDbEntity
  8
0
100
AcDbLine
 10
227.1772108133254
 20
71.00880552412616
 30
0.0
 11
227.1772108133254
 21
70.01270652412616
 31
0.0
  0
LINE
  5
68C
330
2
100
AcDbEntity
  8
0
100
AcDbLine
 10
227.1772108133254
 20
70.01270652412616
 30
0.0
 11
225.1726178133254
 21
70.01270652412616
 31
0.0
  0
LINE
  5
68D
330
2
100
AcDbEntity
  8
0
100
AcDbLine
 10
226.7414048133254
 20
71.00880552412616
 30
0.0
 11
227.1772108133254
 21
71.00880552412616
 31
0.0
  0
LINE
  5
68E
330
2
100
AcDbEntity
  8
0
100
AcDbLine
 10
225.1726178133254
 20
71.00880552412616
 30
0.0
 11
225.6457168133254
 21
71.00880552412616
 31
0.0
  0
LINE
  5
68F
330
2
100
AcDbEntity
  8
0
100
AcDbLine
 10
228.7819168133254
 20
74.48267552412616
 30
0.0
 11
230.2769118133254
 21
71.00880552412616
 31
0.0
  0
LINE
  5
690
330
2
100
AcDbEntity
  8
0
100
AcDbLine
 10
229.6994128133254
 20
74.56932652412615
 30
0.0
 11
231.2793078133254
 21
71.00880552412616
 31
0.0
  0
LINE
  5
691
330
2
100
AcDbEntity
  8
0
100
AcDbLine
 10
230.0784098133254
 20
71.00880552412616
 30
0.0
 11
230.0784098133254
 21
70.01270652412616
 31
0.0
  0
LINE
  5
692
330
2
100
AcDbEntity
  8
0
100
AcDbLine
 10
231.5476178133254
 20
71.00880552412616
 30
0.0
 11
231.5476178133254
 21
70.01270652412616
 31
0.0
  0
LINE
  5
693
330
2
100
AcDbEntity
  8
0
100
AcDbLine
 10
230.0784098133254
 20
70.01270652412616
 30
0.0
 11
231.5476178133254
 21
70.01270652412616
 31
0.0
  0
LINE
  5
694
330
2
100
AcDbEntity
  8
0
100
AcDbLine
 10
231.2793078133254
 20
71.00880552412616
 30
0.0
 11
231.5476178133254
 21
71.00880552412616
 31
0.0
  0
LINE
  5
695
330
2
100
AcDbEntity
  8
0
100
AcDbLine
 10
230.0784098133254
 20
71.00880552412616
 30
0.0
 11
230.2769118133254
 21
71.00880552412616
 31
0.0
  0
LINE
  5
696
330
2
100
AcDbEntity
  8
0
100
AcDbLine
 10
226.7414048133254
 20
78.40479852412617
 30
0.0
 11
229.7163188133254
 21
78.40285252412616
 31
0.0
  0
LINE
  5
697
330
2
100
AcDbEntity
  8
0
100
AcDbLine
 10
225.1726178133254
 20
79.57520852412617
 30
0.0
 11
228.9951128133254
 21
79.57520852412617
 31
0.0
  0
LINE
  5
698
330
2
100
AcDbEntity
  8
0
100
AcDbLine
 10
221.0314128133254
 20
78.40479852412617
 30
0.0
 11
221.3201098133254
 21
77.58302052412616
 31
0.0
  0
LINE
  5
699
330
2
100
AcDbEntity
  8
0
100
AcDbLine
 10
221.3201098133254
 20
77.58302052412616
 30
0.0
 11
221.9851178133254
 21
77.58302052412616
 31
0.0
  0
LINE
  5
69A
330
2
100
AcDbEntity
  8
0
100
AcDbLine
 10
221.9851178133254
 20
77.58302052412616
 30
0.0
 11
221.9851178133254
 21
79.57520852412617
 31
0.0
  0
LINE
  5
69B
330
2
100
AcDbEntity
  8
0
100
AcDbLine
 10
225.1726178133254
 20
78.40479852412617
 30
0.0
 11
225.6457168133254
 21
78.40479852412617
 31
0.0
  0
LINE
  5
69C
330
2
100
AcDbEntity
  8
0
100
AcDbLine
 10
225.1726178133254
 20
79.57520852412617
 30
0.0
 11
225.1726178133254
 21
78.40479852412617
 31
0.0
  0
ARC
  5
69D
330
2
100
AcDbEntity
  8
0
100
AcDbCircle
 10
186.7976178133254
 20
138.0127085241261
 30
0.0
 40
8.0
100
AcDbArc
 50
262.0304029999998
 51
0.0
  0
LINE
  5
69E
330
2
100
AcDbEntity
  8
0
100
AcDbLine
 10
178.8749188133254
 20
139.1218545241261
 30
0.0
 11
176.2976178133254
 21
120.7127055241261
 31
0.0
  0
LINE
  5
6A0
330
2
100
AcDbEntity
  8
0
100
AcDbLine
 10
181.1725108133254
 20
126.6831945241261
 30
0.0
 11
178.7143048133254
 21
109.1243875241261
 31
0.0
  0
ARC
  5
6A1
330
2
100
AcDbEntity
  8
0
100
AcDbCircle
 10
185.1338148133254
 20
126.1286065241261
 30
0.0
 40
4.0
100
AcDbArc
 50
82.03024299999979
 51
172.0303039999998
  0
ARC
  5
6A2
330
2
100
AcDbEntity
  8
0
100
AcDbCircle
 10
218.7976178133254
 20
108.0127085241261
 30
0.0
 40
7.5
100
AcDbArc
 50
19.47120100000013
 51
340.5288089999999
  0
LINE
  5
6A3
330
2
100
AcDbEntity
  8
0
100
AcDbLine
 10
223.2976178133254
 20
105.5127085241261
 30
0.0
 11
228.2976178133254
 21
105.5127085241261
 31
0.0
  0
LINE
  5
6A4
330
2
100
AcDbEntity
  8
0
100
AcDbLine
 10
223.2976178133254
 20
110.5127085241261
 30
0.0
 11
228.2976178133254
 21
110.5127085241261
 31
0.0
  0
LINE
  5
6A5
330
2
100
AcDbEntity
  8
0
100
AcDbLine
 10
223.2976178133254
 20
105.5127085241261
 30
0.0
 11
223.2976178133254
 21
110.5127085241261
 31
0.0
  0
LINE
  5
6A6
330
2
100
AcDbEntity
  8
0
100
AcDbLine
 10
228.2976178133254
 20
110.5127085241261
 30
0.0
 11
228.2976178133254
 21
105.5127085241261
 31
0.0
  0
CIRCLE
  5
6A7
330
2
100
AcDbEntity
  8
0
100
AcDbCircle
 10
186.7976178133254
 20
138.0127085241261
 30
0.0
 40
3.25
  0
ARC
  5
6A9
330
2
100
AcDbEntity
  8
0
100
AcDbCircle
 10
186.7976178133254
 20
138.0127085241261
 30
0.0
 40
8.0
100
AcDbArc
 50
90.0
 51
172.030502
  0
ARC
  5
6AA
330
2
100
AcDbEntity
  8
0
100
AcDbCircle
 10
198.7976178133254
 20
138.0127085241261
 30
0.0
 40
4.0
100
AcDbArc
 50
90.0
 51
180.0
  0
LINE
  5
6AB
330
2
100
AcDbEntity
  8
0
100
AcDbLine
 10
103.7976098133254
 20
251.9327065241261
 30
0.0
 11
175.8524578133254
 21
251.9327065241261
 31
0.0
  0
LINE
  5
6AC
330
2
100
AcDbEntity
  8
0
100
AcDbLine
 10
174.7840068133254
 20
236.9327065241261
 30
0.0
 11
103.7976098133254
 21
236.9327065241261
 31
0.0
  0
LINE
  5
6AD
330
2
100
AcDbEntity
  8
0
100
AcDbLine
 10
103.7976098133254
 20
297.9327065241261
 30
0.0
 11
179.7172958133254
 21
297.9327065241261
 31
0.0
  0
LINE
  5
6AE
330
2
100
AcDbEntity
  8
0
100
AcDbLine
 10
174.1659958133254
 20
312.9327065241261
 30
0.0
 11
103.7976098133254
 21
312.9327065241261
 31
0.0
  0
LINE
  5
6AF
330
2
100
AcDbEntity
  8
0
100
AcDbLine
 10
45.29761181332546
 20
239.9327065241261
 30
0.0
 11
45.29761181332546
 21
309.9327065241261
 31
0.0
  0
LINE
  5
6B0
330
2
100
AcDbEntity
  8
0
100
AcDbLine
 10
94.29760981332547
 20
234.9327065241261
 30
0.0
 11
94.29760981332547
 21
314.9327065241261
 31
0.0
  0
LINE
  5
6B1
330
2
100
AcDbEntity
  8
0
100
AcDbLine
 10
103.7976098133254
 20
236.9327065241261
 30
0.0
 11
103.7976098133254
 21
268.0666785241261
 31
0.0
  0
ARC
  5
6B2
330
2
100
AcDbEntity
  8
0
100
AcDbCircle
 10
50.29761181332546
 20
239.9327065241261
 30
0.0
 40
5.0
100
AcDbArc
 50
180.0
 51
270.0
  0
LINE
  5
6B3
330
2
100
AcDbEntity
  8
0
100
AcDbLine
 10
47.79761181332546
 20
248.9327065241261
 30
0.0
 11
94.29760981332547
 21
248.9327065241261
 31
0.0
  0
LINE
  5
6B4
330
2
100
AcDbEntity
  8
0
100
AcDbLine
 10
50.29761181332546
 20
234.9327065241261
 30
0.0
 11
94.29760981332547
 21
234.9327065241261
 31
0.0
  0
LINE
  5
6B5
330
2
100
AcDbEntity
  8
0
100
AcDbLine
 10
94.29760981332547
 20
236.9327065241261
 30
0.0
 11
103.7976098133254
 21
236.9327065241261
 31
0.0
  0
LINE
  5
6B6
330
2
100
AcDbEntity
  8
0
100
AcDbLine
 10
94.29760981332547
 20
251.9327065241261
 30
0.0
 11
103.7976098133254
 21
251.9327065241261
 31
0.0
  0
ARC
  5
6B7
330
2
100
AcDbEntity
  8
0
100
AcDbCircle
 10
50.29763181332547
 20
309.9327375241261
 30
0.0
 40
5.0
100
AcDbArc
 50
90.0
 51
180.0
  0
LINE
  5
6B8
330
2
100
AcDbEntity
  8
0
100
AcDbLine
 10
103.7976098133254
 20
281.7987345241261
 30
0.0
 11
103.7976098133254
 21
312.9327065241261
 31
0.0
  0
LINE
  5
6B9
330
2
100
AcDbEntity
  8
0
100
AcDbLine
 10
47.79761181332546
 20
298.9327065241261
 30
0.0
 11
94.29760981332547
 21
298.9327065241261
 31
0.0
  0
LINE
  5
6BA
330
2
100
AcDbEntity
  8
0
100
AcDbLine
 10
99.79760981332546
 20
271.4327065241261
 30
0.0
 11
99.79760981332546
 21
278.4327065241261
 31
0.0
  0
LINE
  5
6BB
330
2
100
AcDbEntity
  8
0
100
AcDbLine
 10
101.7976098133254
 20
271.4327065241261
 30
0.0
 11
101.7976098133254
 21
278.4327065241261
 31
0.0
  0
LINE
  5
6BC
330
2
100
AcDbEntity
  8
0
100
AcDbLine
 10
104.2976098133254
 20
268.9327065241261
 30
0.0
 11
104.2976098133254
 21
280.9327065241261
 31
0.0
  0
LINE
  5
6BD
330
2
100
AcDbEntity
  8
0
100
AcDbLine
 10
97.29760981332546
 20
268.9327065241261
 30
0.0
 11
97.29760981332546
 21
280.9327065241261
 31
0.0
  0
LINE
  5
6BE
330
2
100
AcDbEntity
  8
0
100
AcDbLine
 10
103.2976098133254
 20
267.9327065241261
 30
0.0
 11
98.29760981332547
 21
267.9327065241261
 31
0.0
  0
ARC
  5
6BF
330
2
100
AcDbEntity
  8
0
100
AcDbCircle
 10
98.29760981332547
 20
268.9327065241261
 30
0.0
 40
1.0
100
AcDbArc
 50
180.0
 51
270.0
  0
ARC
  5
6C0
330
2
100
AcDbEntity
  8
0
100
AcDbCircle
 10
100.7976098133254
 20
271.4327065241261
 30
0.0
 40
1.0
100
AcDbArc
 50
270.0
 51
0.0
  0
ARC
  5
6C1
330
2
100
AcDbEntity
  8
0
100
AcDbCircle
 10
100.7976098133254
 20
271.4327065241261
 30
0.0
 40
1.0
100
AcDbArc
 50
180.0
 51
270.0
  0
ARC
  5
6C2
330
2
100
AcDbEntity
  8
0
100
AcDbCircle
 10
103.2976098133254
 20
268.9327065241261
 30
0.0
 40
1.0
100
AcDbArc
 50
270.0
 51
0.0
  0
LINE
  5
6C3
330
2
100
AcDbEntity
  8
0
100
AcDbLine
 10
98.29760981332547
 20
281.9327065241261
 30
0.0
 11
103.2976098133254
 21
281.9327065241261
 31
0.0
  0
ARC
  5
6C4
330
2
100
AcDbEntity
  8
0
100
AcDbCircle
 10
98.29760981332547
 20
280.9327065241261
 30
0.0
 40
1.0
100
AcDbArc
 50
90.0
 51
180.0
  0
ARC
  5
6C5
330
2
100
AcDbEntity
  8
0
100
AcDbCircle
 10
100.7976098133254
 20
278.4327065241261
 30
0.0
 40
1.0
100
AcDbArc
 50
0.0
 51
90.0
  0
ARC
  5
6C6
330
2
100
AcDbEntity
  8
0
100
AcDbCircle
 10
100.7976098133254
 20
278.4327065241261
 30
0.0
 40
1.0
100
AcDbArc
 50
90.0
 51
180.0
  0
ARC
  5
6C7
330
2
100
AcDbEntity
  8
0
100
AcDbCircle
 10
103.2976098133254
 20
280.9327065241261
 30
0.0
 40
1.0
100
AcDbArc
 50
0.0
 51
90.0
  0
LINE
  5
6C8
330
2
100
AcDbEntity
  8
0
100
AcDbLine
 10
94.29760981332547
 20
297.9327065241261
 30
0.0
 11
103.7976098133254
 21
297.9327065241261
 31
0.0
  0
LINE
  5
6C9
330
2
100
AcDbEntity
  8
0
100
AcDbLine
 10
50.29761181332546
 20
314.9327065241261
 30
0.0
 11
94.29760981332547
 21
314.9327065241261
 31
0.0
  0
LINE
  5
6CA
330
2
100
AcDbEntity
  8
0
100
AcDbLine
 10
94.29760981332547
 20
312.9327065241261
 30
0.0
 11
103.7976098133254
 21
312.9327065241261
 31
0.0
  0
LINE
  5
6CB
330
2
100
AcDbEntity
  8
0
100
AcDbLine
 10
175.2501788133254
 20
274.9327065241261
 30
0.0
 11
176.2976178133254
 21
234.9327065241261
 31
0.0
  0
LINE
  5
6CC
330
2
100
AcDbEntity
  8
0
100
AcDbLine
 10
180.5722308133254
 20
245.1139505241261
 30
0.0
 11
180.5722308133254
 21
295.9329815241261
 31
0.0
  0
LINE
  5
6CD
330
2
100
AcDbEntity
  8
0
100
AcDbLine
 10
203.7976178133254
 20
244.9327065241261
 30
0.0
 11
203.7976178133254
 21
303.9676185241261
 31
0.0
  0
LINE
  5
6CE
330
2
100
AcDbEntity
  8
0
100
AcDbLine
 10
233.7976178133254
 20
244.9327065241261
 30
0.0
 11
233.7976178133254
 21
303.9676185241261
 31
0.0
  0
LINE
  5
6CF
330
2
100
AcDbEntity
  8
CENTER
100
AcDbLine
 10
218.7976178133254
 20
316.9327065241261
 30
0.0
 11
218.7976178133254
 21
203.9327065241261
 31
0.0
  0
LINE
  5
6D0
330
2
100
AcDbEntity
  8
0
100
AcDbLine
 10
225.8686168133254
 20
234.9327065241261
 30
0.0
 11
225.8686168133254
 21
210.9327065241261
 31
0.0
  0
LINE
  5
6D1
330
2
100
AcDbEntity
  8
0
100
AcDbLine
 10
228.2976178133254
 20
234.9327065241261
 30
0.0
 11
228.2976178133254
 21
210.9327065241261
 31
0.0
  0
LINE
  5
6D2
330
2
100
AcDbEntity
  8
0
100
AcDbLine
 10
211.2976178133254
 20
210.9327065241261
 30
0.0
 11
211.2976178133254
 21
234.9327065241261
 31
0.0
  0
LINE
  5
6D3
330
2
100
AcDbEntity
  8
0
100
AcDbLine
 10
211.2976178133254
 20
210.9327065241261
 30
0.0
 11
228.2976178133254
 21
210.9327065241261
 31
0.0
  0
LINE
  5
6D4
330
2
100
AcDbEntity
  8
0
100
AcDbLine
 10
203.7976178133254
 20
245.2527135241261
 30
0.0
 11
233.7976178133254
 21
245.2527135241261
 31
0.0
  0
LINE
  5
6D5
330
2
100
AcDbEntity
  8
CENTER
100
AcDbLine
 10
186.7976178133254
 20
231.4327065241261
 30
0.0
 11
186.7976178133254
 21
247.4327065241261
 31
0.0
  0
ARC
  5
6D6
330
2
100
AcDbEntity
  8
0
100
AcDbCircle
 10
202.7976178133254
 20
244.9327065241261
 30
0.0
 40
1.0
100
AcDbArc
 50
270.0
 51
0.0
  0
LINE
  5
6D7
330
2
100
AcDbEntity
  8
0
100
AcDbLine
 10
178.8749188133254
 20
234.9327065241261
 30
0.0
 11
178.8749188133254
 21
242.6223885241261
 31
0.0
  0
ARC
  5
6D8
330
2
100
AcDbEntity
  8
0
100
AcDbCircle
 10
174.7840068133254
 20
235.4327065241261
 30
0.0
 40
1.5
100
AcDbArc
 50
1.499998999999801
 51
90.0
  0
ARC
  5
6D9
330
2
100
AcDbEntity
  8
0
100
AcDbCircle
 10
177.0884658133254
 20
242.9327065241261
 30
0.0
 40
1.0
100
AcDbArc
 50
90.0
 51
181.4999999999998
  0
LINE
  5
6DA
330
2
100
AcDbEntity
  8
HIDS
  6
SEKKEI_H
100
AcDbLine
 10
183.5476178133254
 20
243.9327065241261
 30
0.0
 11
183.5476178133254
 21
234.9327065241261
 31
0.0
  0
LINE
  5
6DB
330
2
100
AcDbEntity
  8
HIDS
  6
SEKKEI_H
100
AcDbLine
 10
190.0476178133254
 20
243.9327065241261
 30
0.0
 11
190.0476178133254
 21
234.9327065241261
 31
0.0
  0
ARC
  5
6DC
330
2
100
AcDbEntity
  8
0
100
AcDbCircle
 10
234.7976178133254
 20
244.9327065241261
 30
0.0
 40
1.0
100
AcDbArc
 50
180.0
 51
270.0
  0
ARC
  5
6DD
330
2
100
AcDbEntity
  8
0
100
AcDbCircle
 10
174.1659958133254
 20
310.9327065241261
 30
0.0
 40
2.0
100
AcDbArc
 50
1.499999999999867
 51
90.0
  0
LINE
  5
6DE
330
2
100
AcDbEntity
  8
0
100
AcDbLine
 10
176.0881908133254
 20
297.9354535241261
 30
0.0
 11
176.2466078133254
 21
303.9850745241261
 31
0.0
  0
ARC
  5
6DF
330
2
100
AcDbEntity
  8
0
100
AcDbCircle
 10
178.2459208133254
 20
303.9327065241261
 30
0.0
 40
2.0
100
AcDbArc
 50
90.0
 51
178.5000000000001
  0
ARC
  5
6E0
330
2
100
AcDbEntity
  8
0
100
AcDbCircle
 10
178.2459208133254
 20
307.9327065241261
 30
0.0
 40
2.0
100
AcDbArc
 50
181.4999999999998
 51
270.0
  0
LINE
  5
6E1
330
2
100
AcDbEntity
  8
0
100
AcDbLine
 10
176.1653088133254
 20
310.9850745241261
 30
0.0
 11
176.2466078133254
 21
307.8803385241261
 31
0.0
  0
ARC
  5
6E2
330
2
100
AcDbEntity
  8
0
100
AcDbCircle
 10
380.8337085259356
 20
45.97577652412616
 30
0.0
 40
3.0
100
AcDbArc
 50
91.00048800000001
 51
165.0003049999998
  0
LINE
  5
6E3
330
2
100
AcDbEntity
  8
CENTER
100
AcDbLine
 10
361.2019335259355
 20
85.71270552412618
 30
0.0
 11
455.2019335259356
 21
85.71270552412618
 31
0.0
  0
LINE
  5
6E6
330
2
100
AcDbEntity
  8
CENTER
100
AcDbLine
 10
364.7019335259355
 20
52.01270652412616
 30
0.0
 11
380.7019335259356
 21
52.01270652412617
 31
0.0
  0
LINE
  5
6E7
330
2
100
AcDbEntity
  8
CENTER
100
AcDbLine
 10
364.7019335259356
 20
138.0127085241261
 30
0.0
 11
380.7019335259356
 21
138.0127085241261
 31
0.0
  0
ARC
  5
6E8
330
2
100
AcDbEntity
  8
0
100
AcDbCircle
 10
380.2019335259355
 20
66.31272652412616
 30
0.0
 40
3.0
100
AcDbArc
 50
90.0
 51
180.0
  0
ARC
  5
6E9
330
2
100
AcDbEntity
  8
0
100
AcDbCircle
 10
380.8350205259356
 20
144.0317435241261
 30
0.0
 40
3.0
100
AcDbArc
 50
194.9326019999999
 51
269.0006100000001
  0
LINE
  5
6EA
330
2
100
AcDbEntity
  8
0
100
AcDbLine
 10
437.2368155259356
 20
49.96093652412617
 30
0.0
 11
379.1670215259355
 21
48.94712652412616
 31
0.0
  0
LINE
  5
6EB
330
2
100
AcDbEntity
  8
0
100
AcDbLine
 10
437.2368155259356
 20
140.0470105241261
 30
0.0
 11
379.1670215259355
 21
141.0603845241261
 31
0.0
  0
LINE
  5
6EC
330
2
100
AcDbEntity
  8
CENTER
100
AcDbLine
 10
337.2019335259356
 20
108.0127085241261
 30
0.0
 11
455.1881434335872
 21
108.0127085241261
 31
0.0
  0
LINE
  5
6ED
330
2
100
AcDbEntity
  8
0
100
AcDbLine
 10
377.2019335259356
 20
145.4745845241261
 30
0.0
 11
377.2019335259356
 21
84.35002652412617
 31
0.0
  0
LINE
  5
6EE
330
2
100
AcDbEntity
  8
0
100
AcDbLine
 10
368.2019335259356
 20
44.01270652412615
 30
0.0
 11
368.2019335259356
 21
100.5127085241261
 31
0.0
  0
ARC
  5
6EF
330
2
100
AcDbEntity
  8
0
100
AcDbCircle
 10
374.2019335259356
 20
89.01270452412616
 30
0.0
 40
1.0
100
AcDbArc
 50
180.0
 51
270.0
  0
LINE
  5
6F0
330
2
100
AcDbEntity
  8
0
100
AcDbLine
 10
261.2976178133255
 20
120.7127055241261
 30
0.0
 11
261.2976178133255
 21
69.31271752412616
 31
0.0
  0
LINE
  5
6F1
330
2
100
AcDbEntity
  8
0
100
AcDbLine
 10
258.7976178133254
 20
109.3741055241261
 30
0.0
 11
258.7976178133254
 21
80.65156752412617
 31
0.0
  0
ARC
  5
6F2
330
2
100
AcDbEntity
  8
0
100
AcDbCircle
 10
250.7976178133254
 20
52.01270652412616
 30
0.0
 40
8.0
100
AcDbArc
 50
270.0
 51
352.0303039999999
  0
LINE
  5
6F3
330
2
100
AcDbEntity
  8
0
100
AcDbLine
 10
258.8000138133254
 20
80.32244252412615
 30
0.0
 11
256.4227098133254
 21
63.34220652412616
 31
0.0
  0
LINE
  5
6F4
330
2
100
AcDbEntity
  8
0
100
AcDbLine
 10
258.7203168133254
 20
50.90358652412616
 30
0.0
 11
261.2976178133255
 21
69.31271752412616
 31
0.0
  0
ARC
  5
6F5
330
2
100
AcDbEntity
  8
0
100
AcDbCircle
 10
252.4614058133254
 20
63.89680652412616
 30
0.0
 40
4.0
100
AcDbArc
 50
262.0302430000001
 51
352.0302990000002
  0
CIRCLE
  5
6F6
330
2
100
AcDbEntity
  8
0
100
AcDbCircle
 10
250.7976178133254
 20
52.01270652412616
 30
0.0
 40
3.25
  0
ARC
  5
6F8
330
2
100
AcDbEntity
  8
0
100
AcDbCircle
 10
250.7976178133254
 20
52.01270652412616
 30
0.0
 40
8.0
100
AcDbArc
 50
82.03034999999998
 51
180.0
  0
ARC
  5
6FA
330
2
100
AcDbEntity
  8
0
100
AcDbCircle
 10
238.7976178133254
 20
52.01270652412616
 30
0.0
 40
4.0
100
AcDbArc
 50
270.0
 51
0.0
  0
ARC
  5
6FB
330
2
100
AcDbEntity
  8
0
100
AcDbCircle
 10
375.6672345259356
 20
46.01270652412615
 30
0.0
 40
2.0
100
AcDbArc
 50
270.0
 51
345.0000920000001
  0
LINE
  5
6FC
330
2
100
AcDbEntity
  8
0
100
AcDbLine
 10
377.2019335259356
 20
66.31272652412616
 30
0.0
 11
377.2019335259356
 21
45.51270652412616
 31
0.0
  0
LINE
  5
6FD
330
2
100
AcDbEntity
  8
HIDS
  6
SEKKEI_H
100
AcDbLine
 10
368.2019335259356
 20
48.76270652412616
 30
0.0
 11
377.2019335259356
 21
48.76270652412616
 31
0.0
  0
LINE
  5
6FE
330
2
100
AcDbEntity
  8
0
100
AcDbLine
 10
375.6672345259356
 20
44.01270652412615
 30
0.0
 11
368.2019335259356
 21
44.01270652412615
 31
0.0
  0
ARC
  5
6FF
330
2
100
AcDbEntity
  8
0
100
AcDbCircle
 10
379.2019335259356
 20
46.94743652412616
 30
0.0
 40
2.0
100
AcDbArc
 50
91.00058700000005
 51
180.0
  0
ARC
  5
700
330
2
100
AcDbEntity
  8
0
100
AcDbCircle
 10
375.7019335259355
 20
45.51270652412616
 30
0.0
 40
1.5
100
AcDbArc
 50
270.0
 51
0.0
  0
LINE
  5
701
330
2
100
AcDbEntity
  8
0
100
AcDbLine
 10
377.5991195259356
 20
45.49506652412616
 30
0.0
 11
377.9359115259356
 21
46.75220652412616
 31
0.0
  0
LINE
  5
702
330
2
100
AcDbEntity
  8
HIDS
  6
SEKKEI_H
100
AcDbLine
 10
368.2019335259356
 20
55.26270652412616
 30
0.0
 11
377.2019335259356
 21
55.26270652412616
 31
0.0
  0
LINE
  5
705
330
2
100
AcDbEntity
  8
0
100
AcDbLine
 10
374.2019335259356
 20
88.01270452412614
 30
0.0
 11
375.2085667663987
 21
88.01270452412614
 31
0.0
  0
ARC
  5
706
330
2
100
AcDbEntity
  8
0
100
AcDbCircle
 10
250.7976178133254
 20
138.0127085241261
 30
0.0
 40
8.0
100
AcDbArc
 50
180.0
 51
277.9695129999997
  0
LINE
  5
707
330
2
100
AcDbEntity
  8
0
100
AcDbLine
 10
258.7203168133254
 20
139.1218695241261
 30
0.0
 11
261.2976178133255
 21
120.7127055241261
 31
0.0
  0
LINE
  5
708
330
2
100
AcDbEntity
  8
CENTER
100
AcDbLine
 10
250.7976178133254
 20
132.1690045241261
 30
0.0
 11
250.7976178133254
 21
143.8564125241261
 31
0.0
  0
LINE
  5
709
330
2
100
AcDbEntity
  8
0
100
AcDbLine
 10
256.4227098133254
 20
126.6832105241261
 30
0.0
 11
258.8219098133254
 21
109.5461325241261
 31
0.0
  0
ARC
  5
70A
330
2
100
AcDbEntity
  8
0
100
AcDbCircle
 10
252.4614058133254
 20
126.1286065241261
 30
0.0
 40
4.0
100
AcDbArc
 50
7.969700999999845
 51
97.96975699999983
  0
ARC
  5
70B
330
2
100
AcDbEntity
  8
0
100
AcDbCircle
 10
250.7976178133254
 20
138.0127085241261
 30
0.0
 40
8.0
100
AcDbArc
 50
7.969647000000191
 51
90.0
  0
CIRCLE
  5
70C
330
2
100
AcDbEntity
  8
0
100
AcDbCircle
 10
250.7976178133254
 20
138.0127085241261
 30
0.0
 40
3.25
  0
LINE
  5
70D
330
2
100
AcDbEntity
  8
CENTER
100
AcDbLine
 10
244.9539138133254
 20
138.0127085241261
 30
0.0
 11
256.6413218133254
 21
138.0127085241261
 31
0.0
  0
ARC
  5
70E
330
2
100
AcDbEntity
  8
0
100
AcDbCircle
 10
238.7976178133254
 20
138.0127085241261
 30
0.0
 40
4.0
100
AcDbArc
 50
0.0
 51
90.0
  0
LINE
  5
70F
330
2
100
AcDbEntity
  8
0
100
AcDbLine
 10
368.2019335259356
 20
146.0127085241261
 30
0.0
 11
368.2019335259356
 21
115.5127085241261
 31
0.0
  0
LINE
  5
710
330
2
100
AcDbEntity
  8
0
100
AcDbLine
 10
365.7019335259356
 20
110.5127085241261
 30
0.0
 11
344.2019335259355
 21
110.5127085241261
 31
0.0
  0
LINE
  5
711
330
2
100
AcDbEntity
  8
0
100
AcDbLine
 10
365.7019335259356
 20
105.5127085241261
 30
0.0
 11
344.2019335259355
 21
105.5127085241261
 31
0.0
  0
LINE
  5
712
330
2
100
AcDbEntity
  8
0
100
AcDbLine
 10
371.2019335259356
 20
100.5127085241261
 30
0.0
 11
344.2019335259355
 21
100.5127085241261
 31
0.0
  0
LINE
  5
713
330
2
100
AcDbEntity
  8
0
100
AcDbLine
 10
371.2019335259356
 20
115.5127085241261
 30
0.0
 11
344.2019335259355
 21
115.5127085241261
 31
0.0
  0
LINE
  5
714
330
2
100
AcDbEntity
  8
0
100
AcDbLine
 10
344.2019335259355
 20
100.5127085241261
 30
0.0
 11
344.2019335259355
 21
115.5127085241261
 31
0.0
  0
ARC
  5
715
330
2
100
AcDbEntity
  8
0
100
AcDbCircle
 10
365.7019335259356
 20
108.0127155241261
 30
0.0
 40
2.5
100
AcDbArc
 50
0.0
 51
90.0
  0
LINE
  5
716
330
2
100
AcDbEntity
  8
0
100
AcDbLine
 10
371.2019335259356
 20
116.5127085241261
 30
0.0
 11
371.2019335259356
 21
99.51270852412617
 31
0.0
  0
LINE
  5
717
330
2
100
AcDbEntity
  8
0
100
AcDbLine
 10
373.2019335259356
 20
89.01270452412616
 30
0.0
 11
373.2019335259356
 21
127.0127085241261
 31
0.0
  0
LINE
  5
718
330
2
100
AcDbEntity
  8
0
100
AcDbLine
 10
371.2019335259356
 20
99.51270852412617
 30
0.0
 11
373.2019335259356
 21
99.51270852412617
 31
0.0
  0
ARC
  5
719
330
2
100
AcDbEntity
  8
0
100
AcDbCircle
 10
365.7019335259356
 20
108.0127085241261
 30
0.0
 40
2.5
100
AcDbArc
 50
270.0
 51
0.0
  0
LINE
  5
71B
330
2
100
AcDbEntity
  8
0
100
AcDbLine
 10
371.2019335259356
 20
116.5127085241261
 30
0.0
 11
373.2019335259356
 21
116.5127085241261
 31
0.0
  0
ARC
  5
71E
330
2
100
AcDbEntity
  8
0
100
AcDbCircle
 10
374.2019335259356
 20
127.0127085241261
 30
0.0
 40
1.0
100
AcDbArc
 50
90.0
 51
180.0
  0
LINE
  5
71F
330
2
100
AcDbEntity
  8
0
100
AcDbLine
 10
374.2019335259356
 20
128.0127085241261
 30
0.0
 11
375.2019335259357
 21
128.0127085241261
 31
0.0
  0
LINE
  5
720
330
2
100
AcDbEntity
  8
0
100
AcDbLine
 10
377.4998155259356
 20
144.9009305241261
 30
0.0
 11
377.9396345259356
 21
143.2595655241261
 31
0.0
  0
LINE
  5
721
330
2
100
AcDbEntity
  8
HIDS
  6
SEKKEI_H
100
AcDbLine
 10
368.2019335259356
 20
134.7627085241261
 30
0.0
 11
377.2019335259356
 21
134.7627085241261
 31
0.0
  0
LINE
  5
722
330
2
100
AcDbEntity
  8
HIDS
  6
SEKKEI_H
100
AcDbLine
 10
368.2019335259356
 20
141.2627085241261
 30
0.0
 11
377.2019335259356
 21
141.2627085241261
 31
0.0
  0
ARC
  5
723
330
2
100
AcDbEntity
  8
0
100
AcDbCircle
 10
379.2019335259356
 20
143.0600865241261
 30
0.0
 40
2.0
100
AcDbArc
 50
180.0
 51
269.0006100000001
  0
LINE
  5
724
330
2
100
AcDbEntity
  8
0
100
AcDbLine
 10
368.2019335259356
 20
146.0127085241261
 30
0.0
 11
376.0509325259356
 21
146.0127085241261
 31
0.0
  0
ARC
  5
725
330
2
100
AcDbEntity
  8
0
100
AcDbCircle
 10
376.0509325259356
 20
144.5127085241261
 30
0.0
 40
1.5
100
AcDbArc
 50
15.00007000000016
 51
90.0
  0
LINE
  5
726
330
2
100
AcDbEntity
  8
0
100
AcDbLine
 10
448.2019335259356
 20
62.71270752412616
 30
0.0
 11
448.2019335259356
 21
107.6416375241261
 31
0.0
  0
ARC
  5
728
330
2
100
AcDbEntity
  8
0
100
AcDbCircle
 10
408.2019335259356
 20
85.71270552412617
 30
0.0
 40
38.0
100
AcDbArc
 50
324.6655310000001
 51
22.919519
  0
ARC
  5
729
330
2
100
AcDbEntity
  8
0
100
AcDbCircle
 10
441.2019335259356
 20
86.01271552412617
 30
0.0
 40
2.0
100
AcDbArc
 50
90.0
 51
180.0
  0
ARC
  5
72A
330
2
100
AcDbEntity
  8
0
100
AcDbCircle
 10
442.2019335259355
 20
89.01270452412616
 30
0.0
 40
1.0
100
AcDbArc
 50
270.0
 51
0.0
  0
LINE
  5
72B
330
2
100
AcDbEntity
  8
0
100
AcDbLine
 10
439.2019335259355
 20
51.96063652412616
 30
0.0
 11
439.2019335259355
 21
138.0473075241261
 31
0.0
  0
LINE
  5
72C
330
2
100
AcDbEntity
  8
CENTER
100
AcDbLine
 10
408.2019335259356
 20
38.71270652412616
 30
0.0
 11
408.2019335259357
 21
147.5536972623616
 31
0.0
  0
LINE
  5
72D
330
2
100
AcDbEntity
  8
0
100
AcDbLine
 10
445.2019335259356
 20
59.71270752412616
 30
0.0
 11
441.5989065259355
 21
59.71270752412616
 31
0.0
  0
LINE
  5
72E
330
2
100
AcDbEntity
  8
0
100
AcDbLine
 10
386.2729175259356
 20
45.71270652412616
 30
0.0
 11
431.2019335259356
 21
45.71270652412616
 31
0.0
  0
LINE
  5
72F
330
2
100
AcDbEntity
  8
0
100
AcDbLine
 10
387.2019335259356
 20
47.71270652412616
 30
0.0
 11
429.2019335259356
 21
47.71270652412616
 31
0.0
  0
LINE
  5
730
330
2
100
AcDbEntity
  8
0
100
AcDbLine
 10
380.2019335259355
 20
69.31270552412616
 30
0.0
 11
437.7644335259356
 21
69.31270552412616
 31
0.0
  0
ARC
  5
731
330
2
100
AcDbEntity
  8
0
100
AcDbCircle
 10
386.2729175259356
 20
50.71270652412616
 30
0.0
 40
5.0
100
AcDbArc
 50
225.0001070000001
 51
270.0
  0
LINE
  5
732
330
2
100
AcDbEntity
  8
0
100
AcDbLine
 10
382.7375165259356
 20
47.17715652412616
 30
0.0
 11
380.9366135259356
 21
48.97802652412616
 31
0.0
  0
ARC
  5
733
330
2
100
AcDbEntity
  8
0
100
AcDbCircle
 10
387.2019335259356
 20
49.71270652412616
 30
0.0
 40
2.0
100
AcDbArc
 50
199.2169949999999
 51
270.0
  0
LINE
  5
734
330
2
100
AcDbEntity
  8
0
100
AcDbLine
 10
434.2019335259355
 20
48.71270652412616
 30
0.0
 11
434.2019335259355
 21
49.90795652412616
 31
0.0
  0
ARC
  5
735
330
2
100
AcDbEntity
  8
0
100
AcDbCircle
 10
429.2019335259356
 20
49.71270652412616
 30
0.0
 40
2.0
100
AcDbArc
 50
270.0
 51
0.0
  0
ARC
  5
736
330
2
100
AcDbEntity
  8
0
100
AcDbCircle
 10
431.2019335259356
 20
48.71269652412616
 30
0.0
 40
3.0
100
AcDbArc
 50
270.0
 51
0.0
  0
LINE
  5
737
330
2
100
AcDbEntity
  8
0
100
AcDbLine
 10
431.2019335259356
 20
49.71270652412616
 30
0.0
 11
431.2019335259356
 21
49.85548652412616
 31
0.0
  0
ARC
  5
738
330
2
100
AcDbEntity
  8
0
100
AcDbCircle
 10
437.2019335259356
 20
51.96062652412615
 30
0.0
 40
2.0
100
AcDbArc
 50
271.0003659999999
 51
0.0
  0
LINE
  5
739
330
2
100
AcDbEntity
  8
0
100
AcDbLine
 10
439.2019335259355
 20
57.31573652412615
 30
0.0
 11
441.5989065259355
 21
59.71270752412616
 31
0.0
  0
LINE
  5
73A
330
2
100
AcDbEntity
  8
0
100
AcDbLine
 10
442.2019335259355
 20
88.01270452412614
 30
0.0
 11
441.2019335259356
 21
88.01270452412614
 31
0.0
  0
ARC
  5
73B
330
2
100
AcDbEntity
  8
0
100
AcDbCircle
 10
445.2019335259356
 20
62.71269552412616
 30
0.0
 40
3.0
100
AcDbArc
 50
270.0
 51
0.0
  0
ARC
  5
73C
330
2
100
AcDbEntity
  8
0
100
AcDbCircle
 10
442.2019335259355
 20
127.0127085241261
 30
0.0
 40
1.0
100
AcDbArc
 50
0.0
 51
90.0
  0
LINE
  5
73D
330
2
100
AcDbEntity
  8
0
100
AcDbLine
 10
380.7029105259355
 20
120.7127055241261
 30
0.0
 11
437.2332135259356
 21
120.7127055241261
 31
0.0
  0
ARC
  5
743
330
2
100
AcDbEntity
  8
0
100
AcDbCircle
 10
441.2019335259356
 20
130.0127085241261
 30
0.0
 40
2.0
100
AcDbArc
 50
180.0
 51
270.0
  0
LINE
  5
744
330
2
100
AcDbEntity
  8
0
100
AcDbLine
 10
442.2019335259355
 20
128.0127085241261
 30
0.0
 11
441.2019335259356
 21
128.0127085241261
 31
0.0
  0
ARC
  5
745
330
2
100
AcDbEntity
  8
0
100
AcDbCircle
 10
437.2019335259356
 20
138.0473005241261
 30
0.0
 40
2.0
100
AcDbArc
 50
0.0
 51
89.00035899999997
  0
ARC
  5
746
330
2
100
AcDbEntity
  8
0
100
AcDbCircle
 10
443.2019335259355
 20
107.6416145241261
 30
0.0
 40
5.0
100
AcDbArc
 50
0.0
 51
45.00022899999987
  0
LINE
  5
747
330
2
100
AcDbEntity
  8
0
100
AcDbLine
 10
443.2019335259355
 20
89.01270452412616
 30
0.0
 11
443.2019335259355
 21
127.0127085241261
 31
0.0
  0
LINE
  5
748
330
2
100
AcDbEntity
  8
0
100
AcDbLine
 10
446.7374255259356
 20
111.1771755241261
 30
0.0
 11
443.2019335259355
 21
114.7126975241261
 31
0.0
  0
LINE
  5
74A
330
2
100
AcDbEntity
  8
0
100
AcDbLine
 10
259.4894058133254
 20
303.9850745241261
 30
0.0
 11
261.2976178133255
 21
234.9327065241261
 31
0.0
  0
LINE
  5
74B
330
2
100
AcDbEntity
  8
CENTER
100
AcDbLine
 10
250.7976178133255
 20
231.4327065241261
 30
0.0
 11
250.7976178133254
 21
247.4327065241261
 31
0.0
  0
LINE
  5
74C
330
2
100
AcDbEntity
  8
HIDS
  6
SEKKEI_H
100
AcDbLine
 10
247.5476178133254
 20
243.9327065241261
 30
0.0
 11
247.5476178133254
 21
234.9327065241261
 31
0.0
  0
ARC
  5
74D
330
2
100
AcDbEntity
  8
0
100
AcDbCircle
 10
260.0877788133254
 20
242.9327065241261
 30
0.0
 40
1.0
100
AcDbArc
 50
1.499998000000141
 51
90.0
  0
LINE
  5
74E
330
2
100
AcDbEntity
  8
HIDS
  6
SEKKEI_H
100
AcDbLine
 10
254.0476178133254
 20
243.9327065241261
 30
0.0
 11
254.0476178133254
 21
234.9327065241261
 31
0.0
  0
LINE
  5
74F
330
2
100
AcDbEntity
  8
0
100
AcDbLine
 10
258.7203168133254
 20
234.9327065241261
 30
0.0
 11
258.7203168133254
 21
242.6223885241261
 31
0.0
  0
ARC
  5
750
330
2
100
AcDbEntity
  8
0
100
AcDbCircle
 10
257.4900918133254
 20
303.9327065241261
 30
0.0
 40
2.0
100
AcDbArc
 50
1.499999999999867
 51
90.0
  0
LWPOLYLINE
  5
757
330
2
100
AcDbEntity
  8
HOJO
100
AcDbPolyline
 90
       13
 70
     0
 43
0.0
 10
368.2019335259356
 20
131.2223565241261
 10
374.0925275259355
 20
130.0095875241261
 10
379.3425275259355
 20
126.7595875241261
 10
379.8425275259355
 20
121.6345875241261
 10
381.5925275259355
 20
119.7595875241261
 10
382.3425275259355
 20
110.5095875241261
 10
383.0925275259355
 20
105.2595875241261
 10
381.0925275259355
 20
98.88458752412617
 10
381.7175275259355
 20
92.38458052412616
 10
380.2175275259355
 20
86.63458052412616
 10
376.0925275259355
 20
83.50958052412616
 10
371.2175275259355
 20
82.88458052412616
 10
368.2019335259356
 20
81.65599252412617
  0
LINE
  5
75A
330
2
100
AcDbEntity
  8
CENTER
100
AcDbLine
 10
180.9539138133254
 20
138.0127085241261
 30
0.0
 11
192.6413218133254
 21
138.0127085241261
 31
0.0
  0
LINE
  5
75B
330
2
100
AcDbEntity
  8
CENTER
100
AcDbLine
 10
186.7976178133254
 20
132.1690045241261
 30
0.0
 11
186.7976178133254
 21
143.8564125241261
 31
0.0
  0
LINE
  5
75C
330
2
100
AcDbEntity
  8
CENTER
100
AcDbLine
 10
180.9539138133254
 20
52.01270652412616
 30
0.0
 11
192.6413218133254
 21
52.01270652412616
 31
0.0
  0
LINE
  5
75D
330
2
100
AcDbEntity
  8
CENTER
100
AcDbLine
 10
186.7976178133254
 20
46.16900252412615
 30
0.0
 11
186.7976178133254
 21
57.85641052412616
 31
0.0
  0
LINE
  5
75E
330
2
100
AcDbEntity
  8
CENTER
100
AcDbLine
 10
244.9539138133254
 20
52.01270652412616
 30
0.0
 11
256.6413218133254
 21
52.01270652412616
 31
0.0
  0
LINE
  5
75F
330
2
100
AcDbEntity
  8
CENTER
100
AcDbLine
 10
250.7976178133254
 20
46.16900252412615
 30
0.0
 11
250.7976178133254
 21
57.85641052412616
 31
0.0
  0
TEXT
  5
76D
330
2
100
AcDbEntity
  8
TITLE
100
AcDbText
 10
324.8857476051138
 20
261.0799351957266
 30
0.0
 40
5.0
  1
HFM-15R-10~120-S40W
100
AcDbText
  0
TEXT
  5
76E
330
2
100
AcDbEntity
  8
TITLE
100
AcDbText
 10
324.8857476051138
 20
269.0799351957267
 30
0.0
 40
5.0
  1
HFM-15R-10~120-S40
100
AcDbText
  0
TEXT
  5
76F
330
2
100
AcDbEntity
  8
TITLE
100
AcDbText
 10
324.8857476051138
 20
277.0799351957267
 30
0.0
 40
5.0
  1
HFM-15R-10~60-T60
100
AcDbText
  0
TEXT
  5
770
330
2
100
AcDbEntity
  8
TITLE
100
AcDbText
 10
324.8857476051138
 20
285.0799351957267
 30
0.0
 40
5.0
  1
HFM-15R-10~120-T40W
100
AcDbText
  0
ARC
  5
D19
330
2
100
AcDbEntity
  8
0
100
AcDbCircle
 10
196.7976178133254
 20
307.932706524126
 30
0.0
 40
2.0
100
AcDbArc
 50
270.0
 51
0.0
  0
ARC
  5
D1A
330
2
100
AcDbEntity
  8
0
100
AcDbCircle
 10
240.7976108133255
 20
307.932706524126
 30
0.0
 40
2.0
100
AcDbArc
 50
180.0
 51
270.0
  0
LINE
  5
D1B
330
2
100
AcDbEntity
  8
0
100
AcDbLine
 10
237.7976218133255
 20
309.9327065241261
 30
0.0
 11
199.7976178133254
 21
309.9327065241261
 31
0.0
  0
LINE
  5
D1C
330
2
100
AcDbEntity
  8
0
100
AcDbLine
 10
238.7976218133255
 20
308.9327065241261
 30
0.0
 11
238.7976218133255
 21
307.932706524126
 31
0.0
  0
ARC
  5
D1D
330
2
100
AcDbEntity
  8
0
100
AcDbCircle
 10
237.7976218133255
 20
308.9327065241261
 30
0.0
 40
1.0
100
AcDbArc
 50
0.0
 51
90.0
  0
ARC
  5
D1E
330
2
100
AcDbEntity
  8
0
100
AcDbCircle
 10
199.7976178133255
 20
308.9327065241261
 30
0.0
 40
1.0
100
AcDbArc
 50
90.0
 51
180.0
  0
LINE
  5
D1F
330
2
100
AcDbEntity
  8
0
100
AcDbLine
 10
198.7976178133254
 20
308.9327065241261
 30
0.0
 11
198.7976178133254
 21
307.932706524126
 31
0.0
  0
ARC
  5
D21
330
2
100
AcDbEntity
  8
0
100
AcDbCircle
 10
375.2019335259357
 20
130.0127085241261
 30
0.0
 40
2.0
100
AcDbArc
 50
270.0
 51
311.1850544871383
  0
ARC
  5
D22
330
2
100
AcDbEntity
  8
0
100
AcDbCircle
 10
375.2019335259357
 20
86.01271552412617
 30
0.0
 40
2.0
100
AcDbArc
 50
0.000000000000007
 51
90.0
  0
ENDSEC
  0
SECTION
  2
OBJECTS
  0
DICTIONARY
  5
7
330
0
100
AcDbDictionary
  3
ACAD_GROUP
350
75
  3
ACAD_LAYOUT
350
61
  3
ACAD_MLINESTYLE
350
76
  3
ACAD_PLOTSETTINGS
350
77
  3
ACAD_PLOTSTYLENAME
350
6
  3
ACADDIM
350
480
  3
ACDBHEADERROUNDTRIPXREC
350
D66
  3
ACDBVARIABLEDICTIONARY
350
102
  3
DWGPROPS
350
3D2
  0
DICTIONARY
  5
D87
330
2
100
AcDbDictionary
280
     1
  3
ACAD_LAYOUTSELFREF
360
D88
  0
DICTIONARY
  5
D89
330
D60
100
AcDbDictionary
280
     1
  3
ACAD_LAYOUTSELFREF
360
D8A
  0
DICTIONARY
  5
75
102
{ACAD_REACTORS
330
7
102
}
330
7
100
AcDbDictionary
  0
DICTIONARY
  5
61
102
{ACAD_REACTORS
330
7
102
}
330
7
100
AcDbDictionary
  0
DICTIONARY
  5
76
102
{ACAD_REACTORS
330
7
102
}
330
7
100
AcDbDictionary
  3
STANDARD
350
78
  0
DICTIONARY
  5
77
102
{ACAD_REACTORS
330
7
102
}
330
7
100
AcDbDictionary
  0
ACDBDICTIONARYWDFLT
  5
6
102
{ACAD_REACTORS
330
7
102
}
330
7
100
AcDbDictionary
281
     1
  3
Normal
350
5
100
AcDbDictionaryWithDefault
340
5
  0
XRECORD
  5
480
102
{ACAD_REACTORS
330
7
102
}
330
7
100
AcDbXrecord
 90
   990106
  3

 60
     0
 61
     0
 62
     1
 63
     3
 64
     1
 65
     0
 66
     0
 67
     3
 68
     1
 69
     0
 70
     0
 71
     0
 72
     0
 40
0.0
170
     2
340
0
  0
DICTIONARY
  5
D66
102
{ACAD_REACTORS
330
7
102
}
330
7
100
AcDbDictionary
  3
CEPSNTYPE
350
D70
  3
DIMSTYLEDATA
350
D74
  3
FINGERPRINTGUID
350
D71
  3
HYPERLINKBASE
350
D69
  3
INSUNITS
350
D6F
  3
LAYOUTDICT
350
D6B
  3
LWETCUNION
350
D6E
  3
PLOTSETDICT
350
D6C
  3
PLOTSTYLNAMDICT
350
D6D
  3
PSVPSCALE
350
D73
  3
PUCSBASE
350
D77
  3
PUCSORGBACK
350
D7D
  3
PUCSORGBOTTOM
350
D79
  3
PUCSORGFRONT
350
D7C
  3
PUCSORGLEFT
350
D7A
  3
PUCSORGRIGHT
350
D7B
  3
PUCSORGTOP
350
D78
  3
PUCSORTHOREF
350
D75
  3
PUCSORTHOVIEW
350
D76
  3
STYLESHEET
350
D6A
  3
TSTACKALIGN
350
D67
  3
TSTACKSIZE
350
D68
  3
UCSBASE
350
D80
  3
UCSORGBACK
350
D86
  3
UCSORGBOTTOM
350
D82
  3
UCSORGFRONT
350
D85
  3
UCSORGLEFT
350
D83
  3
UCSORGRIGHT
350
D84
  3
UCSORGTOP
350
D81
  3
UCSORTHOREF
350
D7E
  3
UCSORTHOVIEW
350
D7F
  3
VERSIONGUID
350
D72
  0
DICTIONARY
  5
102
102
{ACAD_REACTORS
330
7
102
}
330
7
100
AcDbDictionary
  3
DIMASSOC
350
103
  0
XRECORD
  5
3D2
102
{ACAD_REACTORS
330
7
102
}
330
7
100
AcDbXrecord
  1
DWGPROPS COOKIE
  2

  3

  4

  6

  7

  8

  9

300
=
301
=
302
=
303
=
304
=
305
=
306
=
307
=
308
=
309
=
 40
0.5353330671296296
 41
2452052.431989363
 42
2453406.550756377
  1

 90
        0
  0
XRECORD
  5
D88
102
{ACAD_REACTORS
330
D87
102
}
330
D87
100
AcDbXrecord
340
2
  0
XRECORD
  5
D8A
102
{ACAD_REACTORS
330
D89
102
}
330
D89
100
AcDbXrecord
340
D60
  0
MLINESTYLE
  5
78
102
{ACAD_REACTORS
330
76
102
}
330
76
100
AcDbMlineStyle
  2
STANDARD
 70
     0
  3

 62
     0
 51
90.0
 52
90.0
 71
     2
 49
0.5
 62
   256
  6
BYLAYER
 49
-0.5
 62
   256
  6
BYLAYER
  0
ACDBPLACEHOLDER
  5
5
102
{ACAD_REACTORS
330
6
102
}
330
6
100
AcDbPlaceHolder
280
     0
  0
XRECORD
  5
D70
102
{ACAD_REACTORS
330
D66
102
}
330
D66
100
AcDbXrecord
 90
        0
  0
XRECORD
  5
D74
102
{ACAD_REACTORS
330
D66
102
}
330
D66
100
AcDbXrecord
1000
DSTYLE
1002
{
1070
   179
 70
     2
1070
   277
 70
     6
1002
}
  0
XRECORD
  5
D71
102
{ACAD_REACTORS
330
D66
102
}
330
D66
100
AcDbXrecord
  1
{6385560B-F4B1-4644-A7C2-A3E32AC3D232}
  0
XRECORD
  5
D69
102
{ACAD_REACTORS
330
D66
102
}
330
D66
100
AcDbXrecord
  1

  0
XRECORD
  5
D6F
102
{ACAD_REACTORS
330
D66
102
}
330
D66
100
AcDbXrecord
 90
        0
  0
XRECORD
  5
D6B
102
{ACAD_REACTORS
330
D66
102
}
330
D66
100
AcDbXrecord
340
61
  0
XRECORD
  5
D6E
102
{ACAD_REACTORS
330
D66
102
}
330
D66
100
AcDbXrecord
 90
    10781
  0
XRECORD
  5
D6C
102
{ACAD_REACTORS
330
D66
102
}
330
D66
100
AcDbXrecord
340
77
  0
XRECORD
  5
D6D
102
{ACAD_REACTORS
330
D66
102
}
330
D66
100
AcDbXrecord
340
6
  0
XRECORD
  5
D73
102
{ACAD_REACTORS
330
D66
102
}
330
D66
100
AcDbXrecord
 40
0.0
  0
XRECORD
  5
D77
102
{ACAD_REACTORS
330
D66
102
}
330
D66
100
AcDbXrecord
340
0
  0
XRECORD
  5
D7D
102
{ACAD_REACTORS
330
D66
102
}
330
D66
100
AcDbXrecord
 10
0.0
 20
0.0
 30
0.0
  0
XRECORD
  5
D79
102
{ACAD_REACTORS
330
D66
102
}
330
D66
100
AcDbXrecord
 10
0.0
 20
0.0
 30
0.0
  0
XRECORD
  5
D7C
102
{ACAD_REACTORS
330
D66
102
}
330
D66
100
AcDbXrecord
 10
0.0
 20
0.0
 30
0.0
  0
XRECORD
  5
D7A
102
{ACAD_REACTORS
330
D66
102
}
330
D66
100
AcDbXrecord
 10
0.0
 20
0.0
 30
0.0
  0
XRECORD
  5
D7B
102
{ACAD_REACTORS
330
D66
102
}
330
D66
100
AcDbXrecord
 10
0.0
 20
0.0
 30
0.0
  0
XRECORD
  5
D78
102
{ACAD_REACTORS
330
D66
102
}
330
D66
100
AcDbXrecord
 10
0.0
 20
0.0
 30
0.0
  0
XRECORD
  5
D75
102
{ACAD_REACTORS
330
D66
102
}
330
D66
100
AcDbXrecord
340
0
  0
XRECORD
  5
D76
102
{ACAD_REACTORS
330
D66
102
}
330
D66
100
AcDbXrecord
 70
     0
  0
XRECORD
  5
D6A
102
{ACAD_REACTORS
330
D66
102
}
330
D66
100
AcDbXrecord
  1
Sekkei.ctb
  0
XRECORD
  5
D67
102
{ACAD_REACTORS
330
D66
102
}
330
D66
100
AcDbXrecord
 90
        1
  0
XRECORD
  5
D68
102
{ACAD_REACTORS
330
D66
102
}
330
D66
100
AcDbXrecord
 90
       70
  0
XRECORD
  5
D80
102
{ACAD_REACTORS
330
D66
102
}
330
D66
100
AcDbXrecord
340
0
  0
XRECORD
  5
D86
102
{ACAD_REACTORS
330
D66
102
}
330
D66
100
AcDbXrecord
 10
0.0
 20
0.0
 30
0.0
  0
XRECORD
  5
D82
102
{ACAD_REACTORS
330
D66
102
}
330
D66
100
AcDbXrecord
 10
0.0
 20
0.0
 30
0.0
  0
XRECORD
  5
D85
102
{ACAD_REACTORS
330
D66
102
}
330
D66
100
AcDbXrecord
 10
0.0
 20
0.0
 30
0.0
  0
XRECORD
  5
D83
102
{ACAD_REACTORS
330
D66
102
}
330
D66
100
AcDbXrecord
 10
0.0
 20
0.0
 30
0.0
  0
XRECORD
  5
D84
102
{ACAD_REACTORS
330
D66
102
}
330
D66
100
AcDbXrecord
 10
0.0
 20
0.0
 30
0.0
  0
XRECORD
  5
D81
102
{ACAD_REACTORS
330
D66
102
}
330
D66
100
AcDbXrecord
 10
0.0
 20
0.0
 30
0.0
  0
XRECORD
  5
D7E
102
{ACAD_REACTORS
330
D66
102
}
330
D66
100
AcDbXrecord
340
0
  0
XRECORD
  5
D7F
102
{ACAD_REACTORS
330
D66
102
}
330
D66
100
AcDbXrecord
 70
     0
  0
XRECORD
  5
D72
102
{ACAD_REACTORS
330
D66
102
}
330
D66
100
AcDbXrecord
  1
{81C51FB9-8329-46C5-A781-A1E8C2CF6DF9}
  0
DICTIONARYVAR
  5
103
102
{ACAD_REACTORS
330
102
102
}
330
102
100
DictionaryVariables
280
     0
  1
1
  0
ENDSEC
  0
EOF
