  0
SECTION
  2
HEADER
  9
$ACADVER
  1
AC1014
  9
$ACADMAINTVER
 70
     9
  9
$DWGCODEPAGE
  3
ANSI_932
  9
$INSBASE
 10
0.0
 20
0.0
 30
0.0
  9
$EXTMIN
 10
38.29761181332546
 20
37.01270652412615
 30
0.0
  9
$EXTMAX
 10
455.2019335259356
 20
346.9327065241261
 30
0.0
  9
$LIMMIN
 10
0.0
 20
0.0
  9
$LIMMAX
 10
297.0
 20
210.0
  9
$ORTHOMODE
 70
     1
  9
$REGENMODE
 70
     1
  9
$FILLMODE
 70
     1
  9
$QTEXTMODE
 70
     0
  9
$MIRRTEXT
 70
     0
  9
$DRAGMODE
 70
     2
  9
$LTSCALE
 40
2.0
  9
$OSMODE
 70
    37
  9
$ATTMODE
 70
     1
  9
$TEXTSIZE
 40
2.0
  9
$TRACEWID
 40
1.0
  9
$TEXTSTYLE
  7
STANDARD
  9
$CLAYER
  8
0
  9
$CELTYPE
  6
BYLAYER
  9
$CECOLOR
 62
   256
  9
$CELTSCALE
 40
1.0
  9
$DELOBJ
 70
     1
  9
$DISPSILH
 70
     0
  9
$DIMSCALE
 40
2.0
  9
$DIMASZ
 40
1.8
  9
$DIMEXO
 40
0.625
  9
$DIMDLI
 40
3.75
  9
$DIMRND
 40
0.0
  9
$DIMDLE
 40
0.0
  9
$DIMEXE
 40
0.8
  9
$DIMTP
 40
0.0
  9
$DIMTM
 40
0.0
  9
$DIMTXT
 40
1.8
  9
$DIMCEN
 40
2.5
  9
$DIMTSZ
 40
0.0
  9
$DIMTOL
 70
     0
  9
$DIMLIM
 70
     0
  9
$DIMTIH
 70
     0
  9
$DIMTOH
 70
     0
  9
$DIMSE1
 70
     0
  9
$DIMSE2
 70
     0
  9
$DIMTAD
 70
     1
  9
$DIMZIN
 70
     8
  9
$DIMBLK
  1

  9
$DIMASO
 70
     1
  9
$DIMSHO
 70
     1
  9
$DIMPOST
  1

  9
$DIMAPOST
  1

  9
$DIMALT
 70
     0
  9
$DIMALTD
 70
     4
  9
$DIMALTF
 40
0.0394
  9
$DIMLFAC
 40
1.0
  9
$DIMTOFL
 70
     1
  9
$DIMTVP
 40
0.0
  9
$DIMTIX
 70
     0
  9
$DIMSOXD
 70
     0
  9
$DIMSAH
 70
     0
  9
$DIMBLK1
  1

  9
$DIMBLK2
  1

  9
$DIMSTYLE
  2
STANDARD
  9
$DIMCLRD
 70
     0
  9
$DIMCLRE
 70
     0
  9
$DIMCLRT
 70
     0
  9
$DIMTFAC
 40
1.0
  9
$DIMGAP
 40
0.75
  9
$DIMJUST
 70
     0
  9
$DIMSD1
 70
     0
  9
$DIMSD2
 70
     0
  9
$DIMTOLJ
 70
     1
  9
$DIMTZIN
 70
     0
  9
$DIMALTZ
 70
     0
  9
$DIMALTTZ
 70
     0
  9
$DIMFIT
 70
     3
  9
$DIMUPT
 70
     0
  9
$DIMUNIT
 70
     8
  9
$DIMDEC
 70
     2
  9
$DIMTDEC
 70
     2
  9
$DIMALTU
 70
     8
  9
$DIMALTTD
 70
     4
  9
$DIMTXSTY
  7
STANDARD
  9
$DIMAUNIT
 70
     0
  9
$LUNITS
 70
     2
  9
$LUPREC
 70
     3
  9
$SKETCHINC
 40
1.0
  9
$FILLETRAD
 40
10.0
  9
$AUNITS
 70
     0
  9
$AUPREC
 70
     2
  9
$MENU
  1
.
  9
$ELEVATION
 40
0.0
  9
$PELEVATION
 40
0.0
  9
$THICKNESS
 40
0.0
  9
$LIMCHECK
 70
     0
  9
$BLIPMODE
 70
     0
  9
$CHAMFERA
 40
0.0
  9
$CHAMFERB
 40
0.0
  9
$CHAMFERC
 40
20.0
  9
$CHAMFERD
 40
0.0
  9
$SKPOLY
 70
     0
  9
$TDCREATE
 40
2453753.374461620
  9
$TDUPDATE
 40
2454399.553620150
  9
$TDINDWG
 40
0.2227070486
  9
$TDUSRTIMER
 40
0.2227070486
  9
$USRTIMER
 70
     1
  9
$ANGBASE
 50
0.0
  9
$ANGDIR
 70
     0
  9
$PDMODE
 70
     0
  9
$PDSIZE
 40
-10.0
  9
$PLINEWID
 40
0.0
  9
$COORDS
 70
     1
  9
$SPLFRAME
 70
     0
  9
$SPLINETYPE
 70
     6
  9
$SPLINESEGS
 70
     8
  9
$ATTDIA
 70
     0
  9
$ATTREQ
 70
     1
  9
$HANDLING
 70
-16383
  9
$HANDSEED
  5
13E7
  9
$SURFTAB1
 70
     6
  9
$SURFTAB2
 70
     6
  9
$SURFTYPE
 70
     6
  9
$SURFU
 70
     6
  9
$SURFV
 70
     6
  9
$UCSNAME
  2

  9
$UCSORG
 10
0.0
 20
0.0
 30
0.0
  9
$UCSXDIR
 10
1.0
 20
0.0
 30
0.0
  9
$UCSYDIR
 10
0.0
 20
1.0
 30
0.0
  9
$PUCSNAME
  2

  9
$PUCSORG
 10
0.0
 20
0.0
 30
0.0
  9
$PUCSXDIR
 10
1.0
 20
0.0
 30
0.0
  9
$PUCSYDIR
 10
0.0
 20
1.0
 30
0.0
  9
$USERI1
 70
     0
  9
$USERI2
 70
     0
  9
$USERI3
 70
     0
  9
$USERI4
 70
     0
  9
$USERI5
 70
     0
  9
$USERR1
 40
0.0
  9
$USERR2
 40
0.0
  9
$USERR3
 40
0.0
  9
$USERR4
 40
0.0
  9
$USERR5
 40
0.0
  9
$WORLDVIEW
 70
     1
  9
$SHADEDGE
 70
     3
  9
$SHADEDIF
 70
    70
  9
$TILEMODE
 70
     1
  9
$MAXACTVP
 70
    48
  9
$PINSBASE
 10
0.0
 20
0.0
 30
0.0
  9
$PLIMCHECK
 70
     0
  9
$PEXTMIN
 10
0.0
 20
0.0
 30
0.0
  9
$PEXTMAX
 10
0.0
 20
0.0
 30
0.0
  9
$PLIMMIN
 10
0.0
 20
0.0
  9
$PLIMMAX
 10
12.0
 20
9.0
  9
$UNITMODE
 70
     0
  9
$VISRETAIN
 70
     1
  9
$PLINEGEN
 70
     0
  9
$PSLTSCALE
 70
     1
  9
$TREEDEPTH
 70
  3020
  9
$PICKSTYLE
 70
     1
  9
$CMLSTYLE
  2
STANDARD
  9
$CMLJUST
 70
     0
  9
$CMLSCALE
 40
1.0
  9
$PROXYGRAPHICS
 70
     1
  9
$MEASUREMENT
 70
     0
  0
ENDSEC
  0
SECTION
  2
CLASSES
  0
CLASS
  1
DICTIONARYVAR
  2
AcDbDictionaryVar
  3
AutoCAD 2000
 90
        0
280
     0
281
     0
  0
CLASS
  1
ACDBDICTIONARYWDFLT
  2
AcDbDictionaryWithDefault
  3
AutoCAD 2000
 90
        0
280
     0
281
     0
  0
CLASS
  1
ACDBPLACEHOLDER
  2
AcDbPlaceHolder
  3
AutoCAD 2000
 90
        0
280
     0
281
     0
  0
CLASS
  1
LAYOUT
  2
AcDbLayout
  3
AutoCAD 2000
 90
        0
280
     0
281
     0
  0
CLASS
  1
LONG_TRANSACTION
  2
AcDbLongTransaction
  3
AutoCAD 2000
 90
        0
280
     0
281
     0
  0
CLASS
  1
LWPOLYLINE
  2
AcDbPolyline
  3
AutoCAD 2000
 90
        0
280
     0
281
     1
  0
CLASS
  1
HATCH
  2
AcDbHatch
  3
AutoCAD 2000
 90
        0
280
     0
281
     1
  0
CLASS
  1
XRECORD
  2
AcDbXrecord
  3
AutoCAD 2000
 90
        0
280
     0
281
     0
  0
ENDSEC
  0
SECTION
  2
TABLES
  0
TABLE
  2
VPORT
  5
6E
330
0
100
AcDbSymbolTable
 70
     2
  0
VPORT
  5
13C1
330
6E
100
AcDbSymbolTableRecord
100
AcDbViewportTableRecord
  2
*ACTIVE
 70
     0
 10
0.0
 20
0.0
 11
1.0
 21
1.0
 12
239.2873272901177
 22
180.0712703849228
 13
0.0
 23
0.0
 14
10.0
 24
10.0
 15
10.0
 25
10.0
 16
0.0
 26
0.0
 36
1.0
 17
0.0
 27
0.0
 37
0.0
 40
336.3259830133855
 41
1.540920716112531
 42
50.0
 43
0.0
 44
0.0
 50
0.0
 51
0.0
 71
     0
 72
   100
 73
     1
 74
     3
 75
     0
 76
     0
 77
     0
 78
     0
  0
ENDTAB
  0
TABLE
  2
LTYPE
  5
69
330
0
100
AcDbSymbolTable
 70
     4
  0
LTYPE
  5
6A
330
69
100
AcDbSymbolTableRecord
100
AcDbLinetypeTableRecord
  2
BYBLOCK
 70
     0
  3

 72
    65
 73
     0
 40
0.0
  0
LTYPE
  5
6B
330
69
100
AcDbSymbolTableRecord
100
AcDbLinetypeTableRecord
  2
BYLAYER
 70
     0
  3

 72
    65
 73
     0
 40
0.0
  0
LTYPE
  5
8
330
69
100
AcDbSymbolTableRecord
100
AcDbLinetypeTableRecord
  2
CONTINUOUS
 70
     0
  3
Solid line
 72
    65
 73
     0
 40
0.0
  0
LTYPE
  5
27C
330
69
100
AcDbSymbolTableRecord
100
AcDbLinetypeTableRecord
  2
SEKKEI_A2_
 70
     0
  3
center(A2)  ____ _ ____ _ ____ _ ____ _ ____ _ 
 72
    65
 73
     4
 40
14.28749999999999
 49
9.525
 74
     0
 49
-1.587499999999999
 74
     0
 49
1.587499999999999
 74
     0
 49
-1.587499999999999
 74
     0
  0
LTYPE
  5
2B4
330
69
100
AcDbSymbolTableRecord
100
AcDbLinetypeTableRecord
  2
HIDDEN2
 70
     0
  3
Hidden (.5x) _ _ _ _ _ _ _ _ _ _ _ _ _ _ _ _ _
 72
    65
 73
     2
 40
4.762499999999999
 49
3.174999999999999
 74
     0
 49
-1.587499999999999
 74
     0
  0
LTYPE
  5
48F
330
69
100
AcDbSymbolTableRecord
100
AcDbLinetypeTableRecord
  2
SEKKEI_H
 70
     0
  3
Hidden-S _ _ _ _ _ _ _ _ _ _ _ _ _ _ _ _ _
 72
    65
 73
     2
 40
2.381249999999999
 49
1.587499999999999
 74
     0
 49
-0.79375
 74
     0
  0
ENDTAB
  0
TABLE
  2
LAYER
  5
66
330
0
100
AcDbSymbolTable
 70
     9
  0
LAYER
  5
5E
330
66
100
AcDbSymbolTableRecord
100
AcDbLayerTableRecord
  2
0
 70
     0
 62
     7
  6
CONTINUOUS
  0
LAYER
  5
3E
330
66
100
AcDbSymbolTableRecord
100
AcDbLayerTableRecord
  2
CENTER
 70
     0
 62
     3
  6
SEKKEI_A2_
  0
LAYER
  5
2B5
330
66
100
AcDbSymbolTableRecord
100
AcDbLayerTableRecord
  2
HIDS
 70
     0
 62
     1
  6
HIDDEN2
  0
LAYER
  5
2BA
330
66
100
AcDbSymbolTableRecord
100
AcDbLayerTableRecord
  2
HOJO
 70
     0
 62
     4
  6
CONTINUOUS
  0
LAYER
  5
3FA
330
66
100
AcDbSymbolTableRecord
100
AcDbLayerTableRecord
  2
TITLE
 70
     0
 62
     4
  6
CONTINUOUS
  0
ENDTAB
  0
TABLE
  2
STYLE
  5
67
330
0
100
AcDbSymbolTable
 70
     1
  0
STYLE
  5
16
330
67
100
AcDbSymbolTableRecord
100
AcDbTextStyleTableRecord
  2
STANDARD
 70
     0
 40
0.0
 41
1.0
 50
0.0
 71
     0
 42
2.0
  3
simplex.shx
  4
extfont.shx
  0
ENDTAB
  0
TABLE
  2
VIEW
  5
6C
330
0
100
AcDbSymbolTable
 70
     0
  0
ENDTAB
  0
TABLE
  2
UCS
  5
6D
330
0
100
AcDbSymbolTable
 70
     0
  0
ENDTAB
  0
TABLE
  2
APPID
  5
70
330
0
100
AcDbSymbolTable
 70
     1
  0
APPID
  5
71
330
70
100
AcDbSymbolTableRecord
100
AcDbRegAppTableRecord
  2
ACAD
 70
     0
  0
ENDTAB
  0
TABLE
  2
DIMSTYLE
  5
72
330
0
100
AcDbSymbolTable
 70
     1
  0
DIMSTYLE
105
73
330
72
100
AcDbSymbolTableRecord
100
AcDbDimStyleTableRecord
  2
STANDARD
 70
     0
  3

  4

  5

  6

  7

 40
2.0
 41
1.8
 42
0.625
 43
3.75
 44
0.8
 45
0.0
 46
0.0
 47
0.0
 48
0.0
140
1.8
141
2.5
142
0.0
143
0.0394
144
1.0
145
0.0
146
1.0
147
0.75
 71
     0
 72
     0
 73
     0
 74
     0
 75
     0
 76
     0
 77
     1
 78
     8
170
     0
171
     4
172
     1
173
     0
174
     0
175
     0
176
     0
177
     0
178
     0
270
     8
271
     2
272
     2
273
     8
274
     4
340
16
275
     0
280
     0
281
     0
282
     0
283
     1
284
     0
285
     0
286
     0
287
     3
288
     0
  0
ENDTAB
  0
TABLE
  2
BLOCK_RECORD
  5
1
330
0
100
AcDbSymbolTable
 70
    44
  0
BLOCK_RECORD
  5
2
102
{ACAD_XDICTIONARY
360
13E3
102
}
330
1
100
AcDbSymbolTableRecord
100
AcDbBlockTableRecord
  2
*MODEL_SPACE
  0
BLOCK_RECORD
  5
13BC
102
{ACAD_XDICTIONARY
360
13E5
102
}
330
1
100
AcDbSymbolTableRecord
100
AcDbBlockTableRecord
  2
*PAPER_SPACE
  0
ENDTAB
  0
ENDSEC
  0
SECTION
  2
BLOCKS
  0
BLOCK
  5
5D
330
2
100
AcDbEntity
  8
0
100
AcDbBlockBegin
  2
*MODEL_SPACE
 70
     0
 10
0.0
 20
0.0
 30
0.0
  3
*MODEL_SPACE
  1

  0
ENDBLK
  5
5F
330
2
100
AcDbEntity
  8
0
100
AcDbBlockEnd
  0
BLOCK
  5
13BE
330
13BC
100
AcDbEntity
 67
     1
  8
0
100
AcDbBlockBegin
  2
*PAPER_SPACE
 70
     0
 10
0.0
 20
0.0
 30
0.0
  3
*PAPER_SPACE
  1

  0
ENDBLK
  5
13BF
330
13BC
100
AcDbEntity
 67
     1
  8
0
100
AcDbBlockEnd
  0
ENDSEC
  0
SECTION
  2
ENTITIES
  0
LINE
  5
625
330
2
100
AcDbEntity
  8
0
100
AcDbLine
 10
176.2976178133254
 20
264.9327065241261
 30
0.0
 11
261.2976178133255
 21
264.9327065241261
 31
0.0
  0
LINE
  5
626
330
2
100
AcDbEntity
  8
0
100
AcDbLine
 10
177.0884658133254
 20
273.9327065241261
 30
0.0
 11
260.0877788133254
 21
273.9327065241261
 31
0.0
  0
LINE
  5
627
330
2
100
AcDbEntity
  8
0
100
AcDbLine
 10
257.4900918133254
 20
335.9327065241261
 30
0.0
 11
178.2459208133254
 21
335.9327065241261
 31
0.0
  0
LINE
  5
628
330
2
100
AcDbEntity
  8
CENTER
100
AcDbLine
 10
38.29761181332546
 20
304.9327065241261
 30
0.0
 11
267.2501739371067
 21
304.9327065241261
 31
0.0
  0
CIRCLE
  5
629
330
2
100
AcDbEntity
  8
0
100
AcDbCircle
 10
218.7976178133254
 20
108.0127085241261
 30
0.0
 40
20.0
  0
LINE
  5
62A
330
2
100
AcDbEntity
  8
0
100
AcDbLine
 10
198.7976178133254
 20
48.01270652412616
 30
0.0
 11
238.7976178133254
 21
48.01270652412616
 31
0.0
  0
LINE
  5
62B
330
2
100
AcDbEntity
  8
0
100
AcDbLine
 10
198.7976178133254
 20
142.0127085241261
 30
0.0
 11
238.7976178133254
 21
142.0127085241261
 31
0.0
  0
LINE
  5
62C
330
2
100
AcDbEntity
  8
CENTER
100
AcDbLine
 10
191.7976178133254
 20
108.0127085241261
 30
0.0
 11
245.7976178133254
 21
108.0127085241261
 31
0.0
  0
ARC
  5
62D
330
2
100
AcDbEntity
  8
0
100
AcDbCircle
 10
218.7976178133254
 20
95.01270452412615
 30
0.0
 40
42.5
100
AcDbArc
 50
199.7498929999997
 51
340.2500920000001
  0
ARC
  5
62E
330
2
100
AcDbEntity
  8
0
100
AcDbCircle
 10
218.7976178133254
 20
95.01270452412615
 30
0.0
 40
42.5
100
AcDbArc
 50
19.74990100000013
 51
160.2501069999998
  0
LINE
  5
62F
330
2
100
AcDbEntity
  8
0
100
AcDbLine
 10
186.7976178133254
 20
146.0127085241261
 30
0.0
 11
250.7976178133254
 21
146.0127085241261
 31
0.0
  0
LINE
  5
630
330
2
100
AcDbEntity
  8
0
100
AcDbLine
 10
186.7976178133254
 20
44.01270652412615
 30
0.0
 11
250.7976178133254
 21
44.01270652412615
 31
0.0
  0
LINE
  5
631
330
2
100
AcDbEntity
  8
0
100
AcDbLine
 10
103.7976098133254
 20
55.46374652412616
 30
0.0
 11
175.7976178133254
 21
55.46374652412616
 31
0.0
  0
LINE
  5
632
330
2
100
AcDbEntity
  8
0
100
AcDbLine
 10
103.7976098133254
 20
115.9616755241261
 30
0.0
 11
175.5476178133254
 21
115.9616755241261
 31
0.0
  0
LINE
  5
633
330
2
100
AcDbEntity
  8
0
100
AcDbLine
 10
174.2976178133254
 20
47.71270652412616
 30
0.0
 11
103.7976098133254
 21
47.71270652412616
 31
0.0
  0
LINE
  5
634
330
2
100
AcDbEntity
  8
0
100
AcDbLine
 10
103.7976098133254
 20
123.7127055241261
 30
0.0
 11
176.7176158133254
 21
123.7127055241261
 31
0.0
  0
LINE
  5
635
330
2
100
AcDbEntity
  8
CENTER
100
AcDbLine
 10
38.29761181332548
 20
85.71270552412617
 30
0.0
 11
194.0976058133254
 21
85.71270552412617
 31
0.0
  0
LINE
  5
636
330
2
100
AcDbEntity
  8
0
100
AcDbLine
 10
103.7976098133254
 20
47.71270652412616
 30
0.0
 11
103.7976098133254
 21
123.7127055241261
 31
0.0
  0
LINE
  5
637
330
2
100
AcDbEntity
  8
0
100
AcDbLine
 10
45.29761181332546
 20
50.71270652412616
 30
0.0
 11
45.29761181332546
 21
120.7127055241261
 31
0.0
  0
LINE
  5
638
330
2
100
AcDbEntity
  8
0
100
AcDbLine
 10
94.29760981332547
 20
45.71270652412616
 30
0.0
 11
94.29760981332547
 21
125.7127055241261
 31
0.0
  0
ARC
  5
639
330
2
100
AcDbEntity
  8
0
100
AcDbCircle
 10
50.29761181332546
 20
50.71270652412616
 30
0.0
 40
5.0
100
AcDbArc
 50
180.0
 51
270.0
  0
LINE
  5
63B
330
2
100
AcDbEntity
  8
0
100
AcDbLine
 10
47.79761181332546
 20
61.71270752412616
 30
0.0
 11
94.29760981332547
 21
61.71270752412616
 31
0.0
  0
LINE
  5
63C
330
2
100
AcDbEntity
  8
0
100
AcDbLine
 10
50.29761281332547
 20
45.71270652412616
 30
0.0
 11
94.29760981332547
 21
45.71270652412616
 31
0.0
  0
LINE
  5
63D
330
2
100
AcDbEntity
  8
0
100
AcDbLine
 10
94.29760981332547
 20
55.46370652412615
 30
0.0
 11
103.7976098133254
 21
55.46370652412615
 31
0.0
  0
LINE
  5
63E
330
2
100
AcDbEntity
  8
0
100
AcDbLine
 10
94.29760981332547
 20
47.71270652412616
 30
0.0
 11
103.7976098133254
 21
47.71270652412616
 31
0.0
  0
ARC
  5
63F
330
2
100
AcDbEntity
  8
0
100
AcDbCircle
 10
50.29763681332546
 20
120.7127285241261
 30
0.0
 40
5.0
100
AcDbArc
 50
90.0
 51
180.0
  0
LINE
  5
644
330
2
100
AcDbEntity
  8
0
100
AcDbLine
 10
47.79761181332546
 20
111.7127055241261
 30
0.0
 11
94.29760981332547
 21
111.7127055241261
 31
0.0
  0
LINE
  5
645
330
2
100
AcDbEntity
  8
0
100
AcDbLine
 10
50.29761181332546
 20
125.7127055241261
 30
0.0
 11
94.29760981332547
 21
125.7127055241261
 31
0.0
  0
LINE
  5
646
330
2
100
AcDbEntity
  8
0
100
AcDbLine
 10
94.29760981332547
 20
115.9617055241261
 30
0.0
 11
103.7976098133254
 21
115.9617055241261
 31
0.0
  0
LINE
  5
647
330
2
100
AcDbEntity
  8
0
100
AcDbLine
 10
94.29760981332547
 20
123.7127055241261
 30
0.0
 11
103.7976098133254
 21
123.7127055241261
 31
0.0
  0
LINE
  5
64E
330
2
100
AcDbEntity
  8
0
100
AcDbLine
 10
178.7976178133254
 20
109.3739755241261
 30
0.0
 11
178.7976178133254
 21
80.65116652412616
 31
0.0
  0
LINE
  5
64F
330
2
100
AcDbEntity
  8
CENTER
100
AcDbLine
 10
218.7976178133254
 20
153.0127085241261
 30
0.0
 11
218.7976178133254
 21
37.01270652412615
 31
0.0
  0
LINE
  5
650
330
2
100
AcDbEntity
  8
0
100
AcDbLine
 10
176.2976178133254
 20
120.7127055241261
 30
0.0
 11
176.2976178133254
 21
69.31270552412616
 31
0.0
  0
ARC
  5
651
330
2
100
AcDbEntity
  8
0
100
AcDbCircle
 10
186.7976178133254
 20
52.01270652412616
 30
0.0
 40
8.0
100
AcDbArc
 50
187.9696039999997
 51
270.0
  0
LINE
  5
652
330
2
100
AcDbEntity
  8
0
100
AcDbLine
 10
178.8481088133254
 20
79.94478352412617
 30
0.0
 11
181.1725108133254
 21
63.34221652412615
 31
0.0
  0
LINE
  5
653
330
2
100
AcDbEntity
  8
0
100
AcDbLine
 10
178.8749188133254
 20
50.90350652412616
 30
0.0
 11
176.2976178133254
 21
69.31270552412616
 31
0.0
  0
ARC
  5
654
330
2
100
AcDbEntity
  8
0
100
AcDbCircle
 10
186.7976178133254
 20
52.01270652412616
 30
0.0
 40
8.0
100
AcDbArc
 50
0.0
 51
97.96981799999995
  0
CIRCLE
  5
655
330
2
100
AcDbEntity
  8
0
100
AcDbCircle
 10
186.7976178133254
 20
52.01270652412616
 30
0.0
 40
3.25
  0
LINE
  5
657
330
2
100
AcDbEntity
  8
0
100
AcDbLine
 10
176.2976178133254
 20
49.71270652412616
 30
0.0
 11
176.2976178133254
 21
55.71271652412616
 31
0.0
  0
ARC
  5
659
330
2
100
AcDbEntity
  8
0
100
AcDbCircle
 10
174.2976178133254
 20
49.71270652412616
 30
0.0
 40
2.0
100
AcDbArc
 50
270.0
 51
0.0
  0
ARC
  5
65A
330
2
100
AcDbEntity
  8
0
100
AcDbCircle
 10
185.1338148133254
 20
63.89680652412616
 30
0.0
 40
4.0
100
AcDbArc
 50
187.9696960000001
 51
277.9697569999997
  0
ARC
  5
65B
330
2
100
AcDbEntity
  8
0
100
AcDbCircle
 10
181.2976178133254
 20
55.71272652412616
 30
0.0
 40
5.0
100
AcDbArc
 50
135.7928009999998
 51
180.0
  0
ARC
  5
65C
330
2
100
AcDbEntity
  8
0
100
AcDbCircle
 10
198.7976178133254
 20
52.01270652412616
 30
0.0
 40
4.0
100
AcDbArc
 50
180.0
 51
270.0
  0
LINE
  5
65D
330
2
100
AcDbEntity
  8
0
100
AcDbLine
 10
219.3704178133254
 20
78.40479852412617
 30
0.0
 11
221.0314128133254
 21
78.40479852412617
 31
0.0
  0
LINE
  5
65E
330
2
100
AcDbEntity
  8
0
100
AcDbLine
 10
215.6101178133254
 20
79.57520852412617
 30
0.0
 11
221.9851178133254
 21
79.57520852412617
 31
0.0
  0
LINE
  5
65F
330
2
100
AcDbEntity
  8
0
100
AcDbLine
 10
207.1184188133254
 20
77.41267952412616
 30
0.0
 11
207.1184188133254
 21
71.90362752412617
 31
0.0
  0
LINE
  5
660
330
2
100
AcDbEntity
  8
0
100
AcDbLine
 10
206.0476178133254
 20
78.09320652412615
 30
0.0
 11
206.0476178133254
 21
71.25356652412616
 31
0.0
  0
LINE
  5
661
330
2
100
AcDbEntity
  8
0
100
AcDbLine
 10
219.3704178133254
 20
78.40479852412617
 30
0.0
 11
219.3704178133254
 21
71.05860652412616
 31
0.0
  0
LINE
  5
662
330
2
100
AcDbEntity
  8
0
100
AcDbLine
 10
218.1750138133254
 20
78.40479852412617
 30
0.0
 11
218.1750138133254
 21
71.05860652412616
 31
0.0
  0
ARC
  5
663
330
2
100
AcDbEntity
  8
0
100
AcDbCircle
 10
209.5090128133254
 20
73.12549752412616
 30
0.0
 40
1.992186999999999
100
AcDbArc
 50
270.0002139999998
 51
0.0001089999998967
  0
LINE
  5
664
330
2
100
AcDbEntity
  8
0
100
AcDbLine
 10
207.1184188133254
 20
71.90362752412617
 30
0.0
 11
207.8497118133254
 21
71.13331552412616
 31
0.0
  0
LINE
  5
665
330
2
100
AcDbEntity
  8
0
100
AcDbLine
 10
212.4226178133254
 20
75.56593452412617
 30
0.0
 11
212.4226178133254
 21
70.01270652412616
 31
0.0
  0
LINE
  5
666
330
2
100
AcDbEntity
  8
0
100
AcDbLine
 10
207.2774148133254
 20
70.01270652412616
 30
0.0
 11
210.5927078133254
 21
70.01270652412616
 31
0.0
  0
LINE
  5
667
330
2
100
AcDbEntity
  8
0
100
AcDbLine
 10
209.5090128133254
 20
71.13331552412616
 30
0.0
 11
207.8497118133254
 21
71.13331552412616
 31
0.0
  0
LINE
  5
668
330
2
100
AcDbEntity
  8
0
100
AcDbLine
 10
206.0476178133254
 20
71.25356652412616
 30
0.0
 11
207.2774148133254
 21
70.01270652412616
 31
0.0
  0
LINE
  5
669
330
2
100
AcDbEntity
  8
0
100
AcDbLine
 10
211.5012158133254
 20
70.77496652412616
 30
0.0
 11
210.5927078133254
 21
70.01270652412616
 31
0.0
  0
LINE
  5
66A
330
2
100
AcDbEntity
  8
0
100
AcDbLine
 10
211.5012158133254
 20
70.01270652412616
 30
0.0
 11
212.4226178133254
 21
70.01270652412616
 31
0.0
  0
LINE
  5
66B
330
2
100
AcDbEntity
  8
0
100
AcDbLine
 10
211.5012158133254
 20
70.77496652412616
 30
0.0
 11
211.5012158133254
 21
70.01270652412616
 31
0.0
  0
LINE
  5
66C
330
2
100
AcDbEntity
  8
0
100
AcDbLine
 10
209.8328048133254
 20
75.56593452412617
 30
0.0
 11
212.4226178133254
 21
75.56593452412617
 31
0.0
  0
LINE
  5
66D
330
2
100
AcDbEntity
  8
0
100
AcDbLine
 10
209.8328048133254
 20
75.56593452412617
 30
0.0
 11
209.8328048133254
 21
74.52003652412617
 31
0.0
  0
LINE
  5
66E
330
2
100
AcDbEntity
  8
0
100
AcDbLine
 10
211.5012158133254
 20
74.52003652412617
 30
0.0
 11
211.5012158133254
 21
73.12549752412616
 31
0.0
  0
LINE
  5
66F
330
2
100
AcDbEntity
  8
0
100
AcDbLine
 10
211.5012158133254
 20
73.52393452412616
 30
0.0
 11
211.5012158133254
 21
74.32081752412617
 31
0.0
  0
LINE
  5
670
330
2
100
AcDbEntity
  8
0
100
AcDbLine
 10
211.5012158133254
 20
74.52003652412617
 30
0.0
 11
209.8328048133254
 21
74.52003652412617
 31
0.0
  0
LINE
  5
671
330
2
100
AcDbEntity
  8
0
100
AcDbLine
 10
217.7019148133254
 20
71.05860652412616
 30
0.0
 11
218.1750138133254
 21
71.05860652412616
 31
0.0
  0
LINE
  5
672
330
2
100
AcDbEntity
  8
0
100
AcDbLine
 10
217.7019148133254
 20
70.01270652412616
 30
0.0
 11
219.7688098133254
 21
70.01270652412616
 31
0.0
  0
LINE
  5
673
330
2
100
AcDbEntity
  8
0
100
AcDbLine
 10
219.7688098133254
 20
71.05860652412616
 30
0.0
 11
219.7688098133254
 21
70.01270652412616
 31
0.0
  0
LINE
  5
674
330
2
100
AcDbEntity
  8
0
100
AcDbLine
 10
217.7019148133254
 20
71.05860652412616
 30
0.0
 11
217.7019148133254
 21
70.01270652412616
 31
0.0
  0
LINE
  5
675
330
2
100
AcDbEntity
  8
0
100
AcDbLine
 10
219.3704178133254
 20
71.05860652412616
 30
0.0
 11
219.7688098133254
 21
71.05860652412616
 31
0.0
  0
LINE
  5
676
330
2
100
AcDbEntity
  8
0
100
AcDbLine
 10
207.2050128133254
 20
79.57520852412617
 30
0.0
 11
211.4916178133254
 21
79.57520852412617
 31
0.0
  0
LINE
  5
677
330
2
100
AcDbEntity
  8
0
100
AcDbLine
 10
210.9101058133254
 20
78.30518852412615
 30
0.0
 11
207.8382058133254
 21
78.30518852412615
 31
0.0
  0
LINE
  5
678
330
2
100
AcDbEntity
  8
0
100
AcDbLine
 10
207.2050128133254
 20
79.57520852412617
 30
0.0
 11
206.0476178133254
 21
78.09320652412615
 31
0.0
  0
LINE
  5
679
330
2
100
AcDbEntity
  8
0
100
AcDbLine
 10
207.8382058133254
 20
78.30518852412615
 30
0.0
 11
207.1184188133254
 21
77.41267952412616
 31
0.0
  0
LINE
  5
67A
330
2
100
AcDbEntity
  8
0
100
AcDbLine
 10
211.5012158133254
 20
77.73373952412616
 30
0.0
 11
211.5012158133254
 21
77.58302052412616
 31
0.0
  0
LINE
  5
67B
330
2
100
AcDbEntity
  8
0
100
AcDbLine
 10
212.4226178133254
 20
78.54206652412615
 30
0.0
 11
212.4226178133254
 21
77.58302052412616
 31
0.0
  0
LINE
  5
67C
330
2
100
AcDbEntity
  8
0
100
AcDbLine
 10
211.5012158133254
 20
77.58302052412616
 30
0.0
 11
212.4226178133254
 21
77.58302052412616
 31
0.0
  0
LINE
  5
67D
330
2
100
AcDbEntity
  8
0
100
AcDbLine
 10
211.4916178133254
 20
79.57520852412617
 30
0.0
 11
212.4226178133254
 21
78.54206652412615
 31
0.0
  0
LINE
  5
67E
330
2
100
AcDbEntity
  8
0
100
AcDbLine
 10
211.5012158133254
 20
77.73373952412616
 30
0.0
 11
210.8980058133254
 21
78.30518852412615
 31
0.0
  0
LINE
  5
67F
330
2
100
AcDbEntity
  8
0
100
AcDbLine
 10
218.1750138133254
 20
78.40479852412617
 30
0.0
 11
216.6601058133254
 21
78.40479852412617
 31
0.0
  0
LINE
  5
680
330
2
100
AcDbEntity
  8
0
100
AcDbLine
 10
216.6601058133254
 20
78.40479852412617
 30
0.0
 11
216.3177138133254
 21
77.58302052412616
 31
0.0
  0
LINE
  5
681
330
2
100
AcDbEntity
  8
0
100
AcDbLine
 10
215.6101178133254
 20
77.58302052412616
 30
0.0
 11
216.3177138133254
 21
77.58302052412616
 31
0.0
  0
LINE
  5
682
330
2
100
AcDbEntity
  8
0
100
AcDbLine
 10
215.6101178133254
 20
77.58302052412616
 30
0.0
 11
215.6101178133254
 21
79.57520852412617
 31
0.0
  0
LINE
  5
683
330
2
100
AcDbEntity
  8
0
100
AcDbLine
 10
226.7414048133254
 20
78.40479852412617
 30
0.0
 11
226.7414048133254
 21
75.47854752412615
 31
0.0
  0
ARC
  5
684
330
2
100
AcDbEntity
  8
0
100
AcDbCircle
 10
228.9951128133254
 20
77.02271852412616
 30
0.0
 40
1.557193
100
AcDbArc
 50
277.4147259999999
 51
62.41185000000005
  0
ARC
  5
685
330
2
100
AcDbEntity
  8
0
100
AcDbCircle
 10
228.9951128133254
 20
77.02271852412616
 30
0.0
 40
2.55249
100
AcDbArc
 50
286.018127
 51
90.00351000000003
  0
LINE
  5
686
330
2
100
AcDbEntity
  8
0
100
AcDbLine
 10
225.6457168133254
 20
78.40479852412617
 30
0.0
 11
225.6457168133254
 21
71.00880552412616
 31
0.0
  0
LINE
  5
687
330
2
100
AcDbEntity
  8
0
100
AcDbLine
 10
226.7414048133254
 20
74.48267552412616
 30
0.0
 11
228.7819168133254
 21
74.48267552412616
 31
0.0
  0
LINE
  5
688
330
2
100
AcDbEntity
  8
0
100
AcDbLine
 10
226.7414048133254
 20
75.47854752412615
 30
0.0
 11
229.1961168133254
 21
75.47854752412615
 31
0.0
  0
LINE
  5
689
330
2
100
AcDbEntity
  8
0
100
AcDbLine
 10
226.7414048133254
 20
74.48267552412616
 30
0.0
 11
226.7414048133254
 21
71.00880552412616
 31
0.0
  0
LINE
  5
68A
330
2
100
AcDbEntity
  8
0
100
AcDbLine
 10
225.1726178133254
 20
71.00880552412616
 30
0.0
 11
225.1726178133254
 21
70.01270652412616
 31
0.0
  0
LINE
  5
68B
330
2
100
AcDbEntity
  8
0
100
AcDbLine
 10
227.1772108133254
 20
71.00880552412616
 30
0.0
 11
227.1772108133254
 21
70.01270652412616
 31
0.0
  0
LINE
  5
68C
330
2
100
AcDbEntity
  8
0
100
AcDbLine
 10
227.1772108133254
 20
70.01270652412616
 30
0.0
 11
225.1726178133254
 21
70.01270652412616
 31
0.0
  0
LINE
  5
68D
330
2
100
AcDbEntity
  8
0
100
AcDbLine
 10
226.7414048133254
 20
71.00880552412616
 30
0.0
 11
227.1772108133254
 21
71.00880552412616
 31
0.0
  0
LINE
  5
68E
330
2
100
AcDbEntity
  8
0
100
AcDbLine
 10
225.1726178133254
 20
71.00880552412616
 30
0.0
 11
225.6457168133254
 21
71.00880552412616
 31
0.0
  0
LINE
  5
68F
330
2
100
AcDbEntity
  8
0
100
AcDbLine
 10
228.7819168133254
 20
74.48267552412616
 30
0.0
 11
230.2769118133254
 21
71.00880552412616
 31
0.0
  0
LINE
  5
690
330
2
100
AcDbEntity
  8
0
100
AcDbLine
 10
229.6994128133254
 20
74.56932652412615
 30
0.0
 11
231.2793078133254
 21
71.00880552412616
 31
0.0
  0
LINE
  5
691
330
2
100
AcDbEntity
  8
0
100
AcDbLine
 10
230.0784098133254
 20
71.00880552412616
 30
0.0
 11
230.0784098133254
 21
70.01270652412616
 31
0.0
  0
LINE
  5
692
330
2
100
AcDbEntity
  8
0
100
AcDbLine
 10
231.5476178133254
 20
71.00880552412616
 30
0.0
 11
231.5476178133254
 21
70.01270652412616
 31
0.0
  0
LINE
  5
693
330
2
100
AcDbEntity
  8
0
100
AcDbLine
 10
230.0784098133254
 20
70.01270652412616
 30
0.0
 11
231.5476178133254
 21
70.01270652412616
 31
0.0
  0
LINE
  5
694
330
2
100
AcDbEntity
  8
0
100
AcDbLine
 10
231.2793078133254
 20
71.00880552412616
 30
0.0
 11
231.5476178133254
 21
71.00880552412616
 31
0.0
  0
LINE
  5
695
330
2
100
AcDbEntity
  8
0
100
AcDbLine
 10
230.0784098133254
 20
71.00880552412616
 30
0.0
 11
230.2769118133254
 21
71.00880552412616
 31
0.0
  0
LINE
  5
696
330
2
100
AcDbEntity
  8
0
100
AcDbLine
 10
226.7414048133254
 20
78.40479852412617
 30
0.0
 11
229.7163188133254
 21
78.40285252412616
 31
0.0
  0
LINE
  5
697
330
2
100
AcDbEntity
  8
0
100
AcDbLine
 10
225.1726178133254
 20
79.57520852412617
 30
0.0
 11
228.9951128133254
 21
79.57520852412617
 31
0.0
  0
LINE
  5
698
330
2
100
AcDbEntity
  8
0
100
AcDbLine
 10
221.0314128133254
 20
78.40479852412617
 30
0.0
 11
221.3201098133254
 21
77.58302052412616
 31
0.0
  0
LINE
  5
699
330
2
100
AcDbEntity
  8
0
100
AcDbLine
 10
221.3201098133254
 20
77.58302052412616
 30
0.0
 11
221.9851178133254
 21
77.58302052412616
 31
0.0
  0
LINE
  5
69A
330
2
100
AcDbEntity
  8
0
100
AcDbLine
 10
221.9851178133254
 20
77.58302052412616
 30
0.0
 11
221.9851178133254
 21
79.57520852412617
 31
0.0
  0
LINE
  5
69B
330
2
100
AcDbEntity
  8
0
100
AcDbLine
 10
225.1726178133254
 20
78.40479852412617
 30
0.0
 11
225.6457168133254
 21
78.40479852412617
 31
0.0
  0
LINE
  5
69C
330
2
100
AcDbEntity
  8
0
100
AcDbLine
 10
225.1726178133254
 20
79.57520852412617
 30
0.0
 11
225.1726178133254
 21
78.40479852412617
 31
0.0
  0
ARC
  5
69D
330
2
100
AcDbEntity
  8
0
100
AcDbCircle
 10
186.7976178133254
 20
138.0127085241261
 30
0.0
 40
8.0
100
AcDbArc
 50
262.0304029999998
 51
0.0
  0
LINE
  5
69E
330
2
100
AcDbEntity
  8
0
100
AcDbLine
 10
178.8749188133254
 20
139.1218545241261
 30
0.0
 11
176.2976178133254
 21
120.7127055241261
 31
0.0
  0
LINE
  5
6A0
330
2
100
AcDbEntity
  8
0
100
AcDbLine
 10
181.1725108133254
 20
126.6831945241261
 30
0.0
 11
178.7143048133254
 21
109.1243875241261
 31
0.0
  0
ARC
  5
6A1
330
2
100
AcDbEntity
  8
0
100
AcDbCircle
 10
185.1338148133254
 20
126.1286065241261
 30
0.0
 40
4.0
100
AcDbArc
 50
82.03024299999979
 51
172.0303039999998
  0
ARC
  5
6A2
330
2
100
AcDbEntity
  8
0
100
AcDbCircle
 10
218.7976178133254
 20
108.0127085241261
 30
0.0
 40
7.5
100
AcDbArc
 50
19.47120100000013
 51
340.5288089999999
  0
LINE
  5
6A3
330
2
100
AcDbEntity
  8
0
100
AcDbLine
 10
223.2976178133254
 20
105.5127085241261
 30
0.0
 11
228.2976178133254
 21
105.5127085241261
 31
0.0
  0
LINE
  5
6A4
330
2
100
AcDbEntity
  8
0
100
AcDbLine
 10
223.2976178133254
 20
110.5127085241261
 30
0.0
 11
228.2976178133254
 21
110.5127085241261
 31
0.0
  0
LINE
  5
6A5
330
2
100
AcDbEntity
  8
0
100
AcDbLine
 10
223.2976178133254
 20
105.5127085241261
 30
0.0
 11
223.2976178133254
 21
110.5127085241261
 31
0.0
  0
LINE
  5
6A6
330
2
100
AcDbEntity
  8
0
100
AcDbLine
 10
228.2976178133254
 20
110.5127085241261
 30
0.0
 11
228.2976178133254
 21
105.5127085241261
 31
0.0
  0
CIRCLE
  5
6A7
330
2
100
AcDbEntity
  8
0
100
AcDbCircle
 10
186.7976178133254
 20
138.0127085241261
 30
0.0
 40
3.25
  0
ARC
  5
6A9
330
2
100
AcDbEntity
  8
0
100
AcDbCircle
 10
186.7976178133254
 20
138.0127085241261
 30
0.0
 40
8.0
100
AcDbArc
 50
90.0
 51
172.030502
  0
ARC
  5
6AA
330
2
100
AcDbEntity
  8
0
100
AcDbCircle
 10
198.7976178133254
 20
138.0127085241261
 30
0.0
 40
4.0
100
AcDbArc
 50
90.0
 51
180.0
  0
LINE
  5
6AB
330
2
100
AcDbEntity
  8
0
100
AcDbLine
 10
144.7974118133255
 20
281.9327065241261
 30
0.0
 11
175.8524578133254
 21
281.9327065241261
 31
0.0
  0
LINE
  5
6AC
330
2
100
AcDbEntity
  8
0
100
AcDbLine
 10
174.7840068133254
 20
266.9327065241261
 30
0.0
 11
103.7976098133254
 21
266.9327065241261
 31
0.0
  0
LINE
  5
6AD
330
2
100
AcDbEntity
  8
0
100
AcDbLine
 10
144.7976098133255
 20
327.9327065241261
 30
0.0
 11
179.7172958133254
 21
327.9327065241261
 31
0.0
  0
LINE
  5
6AE
330
2
100
AcDbEntity
  8
0
100
AcDbLine
 10
174.1659958133254
 20
342.9327065241261
 30
0.0
 11
103.7976098133254
 21
342.9327065241261
 31
0.0
  0
LINE
  5
6AF
330
2
100
AcDbEntity
  8
0
100
AcDbLine
 10
45.29761181332546
 20
269.9327065241261
 30
0.0
 11
45.29761181332546
 21
339.9327065241261
 31
0.0
  0
LINE
  5
6B0
330
2
100
AcDbEntity
  8
0
100
AcDbLine
 10
94.29760981332547
 20
264.9327065241261
 30
0.0
 11
94.29760981332547
 21
297.4327065241261
 31
0.0
  0
LINE
  5
6B1
330
2
100
AcDbEntity
  8
0
100
AcDbLine
 10
103.7976098133254
 20
266.9327065241261
 30
0.0
 11
103.7976098133254
 21
279.9327065241261
 31
0.0
  0
ARC
  5
6B2
330
2
100
AcDbEntity
  8
0
100
AcDbCircle
 10
50.29761181332546
 20
269.9327065241261
 30
0.0
 40
5.0
100
AcDbArc
 50
180.0
 51
270.0
  0
LINE
  5
6B3
330
2
100
AcDbEntity
  8
0
100
AcDbLine
 10
47.79761181332546
 20
278.9327065241261
 30
0.0
 11
94.29760981332547
 21
278.9327065241261
 31
0.0
  0
LINE
  5
6B4
330
2
100
AcDbEntity
  8
0
100
AcDbLine
 10
50.29761181332546
 20
264.9327065241261
 30
0.0
 11
94.29760981332547
 21
264.9327065241261
 31
0.0
  0
LINE
  5
6B5
330
2
100
AcDbEntity
  8
0
100
AcDbLine
 10
94.29760981332547
 20
266.9327065241261
 30
0.0
 11
103.7976098133254
 21
266.9327065241261
 31
0.0
  0
LINE
  5
6B6
330
2
100
AcDbEntity
  8
0
100
AcDbLine
 10
94.29760981332547
 20
281.9327065241261
 30
0.0
 11
94.79750281332554
 21
281.9327065241261
 31
0.0
  0
ARC
  5
6B7
330
2
100
AcDbEntity
  8
0
100
AcDbCircle
 10
50.29763181332547
 20
339.9327375241261
 30
0.0
 40
5.0
100
AcDbArc
 50
90.0
 51
180.0
  0
LINE
  5
6B8
330
2
100
AcDbEntity
  8
0
100
AcDbLine
 10
103.7976098133254
 20
329.9327065241261
 30
0.0
 11
103.7976098133254
 21
342.9327065241261
 31
0.0
  0
LINE
  5
6B9
330
2
100
AcDbEntity
  8
0
100
AcDbLine
 10
47.79761181332546
 20
328.9327065241261
 30
0.0
 11
94.29760981332547
 21
328.9327065241261
 31
0.0
  0
LINE
  5
6C8
330
2
100
AcDbEntity
  8
0
100
AcDbLine
 10
94.29760981332547
 20
327.9327065241261
 30
0.0
 11
94.79750281332554
 21
327.9327065241262
 31
0.0
  0
LINE
  5
6C9
330
2
100
AcDbEntity
  8
0
100
AcDbLine
 10
50.29761181332546
 20
344.9327065241261
 30
0.0
 11
94.29760981332547
 21
344.9327065241261
 31
0.0
  0
LINE
  5
6CA
330
2
100
AcDbEntity
  8
0
100
AcDbLine
 10
94.29760981332547
 20
342.9327065241261
 30
0.0
 11
103.7976098133254
 21
342.9327065241261
 31
0.0
  0
LINE
  5
6CB
330
2
100
AcDbEntity
  8
0
100
AcDbLine
 10
175.2501788133254
 20
304.9327065241261
 30
0.0
 11
176.2976178133254
 21
264.9327065241261
 31
0.0
  0
LINE
  5
6CC
330
2
100
AcDbEntity
  8
0
100
AcDbLine
 10
180.5722308133254
 20
275.1139505241261
 30
0.0
 11
180.5722308133254
 21
325.9329815241261
 31
0.0
  0
LINE
  5
6CD
330
2
100
AcDbEntity
  8
0
100
AcDbLine
 10
203.7976178133254
 20
274.9327065241261
 30
0.0
 11
203.7976178133254
 21
333.9676185241261
 31
0.0
  0
LINE
  5
6CE
330
2
100
AcDbEntity
  8
0
100
AcDbLine
 10
233.7976178133254
 20
274.9327065241261
 30
0.0
 11
233.7976178133254
 21
333.9676185241261
 31
0.0
  0
LINE
  5
6CF
330
2
100
AcDbEntity
  8
CENTER
100
AcDbLine
 10
218.7976178133254
 20
346.9327065241261
 30
0.0
 11
218.7976178133254
 21
233.9327065241261
 31
0.0
  0
LINE
  5
6D0
330
2
100
AcDbEntity
  8
0
100
AcDbLine
 10
225.8686168133254
 20
264.9327065241261
 30
0.0
 11
225.8686168133254
 21
240.9327065241261
 31
0.0
  0
LINE
  5
6D1
330
2
100
AcDbEntity
  8
0
100
AcDbLine
 10
228.2976178133254
 20
264.9327065241261
 30
0.0
 11
228.2976178133254
 21
240.9327065241261
 31
0.0
  0
LINE
  5
6D2
330
2
100
AcDbEntity
  8
0
100
AcDbLine
 10
211.2976178133254
 20
240.9327065241261
 30
0.0
 11
211.2976178133254
 21
264.9327065241261
 31
0.0
  0
LINE
  5
6D3
330
2
100
AcDbEntity
  8
0
100
AcDbLine
 10
211.2976178133254
 20
240.9327065241261
 30
0.0
 11
228.2976178133254
 21
240.9327065241261
 31
0.0
  0
LINE
  5
6D4
330
2
100
AcDbEntity
  8
0
100
AcDbLine
 10
203.7976178133254
 20
275.2527135241261
 30
0.0
 11
233.7976178133254
 21
275.2527135241261
 31
0.0
  0
LINE
  5
6D5
330
2
100
AcDbEntity
  8
CENTER
100
AcDbLine
 10
186.7976178133254
 20
261.4327065241261
 30
0.0
 11
186.7976178133254
 21
277.4327065241261
 31
0.0
  0
ARC
  5
6D6
330
2
100
AcDbEntity
  8
0
100
AcDbCircle
 10
202.7976178133254
 20
274.9327065241261
 30
0.0
 40
1.0
100
AcDbArc
 50
270.0
 51
0.0
  0
LINE
  5
6D7
330
2
100
AcDbEntity
  8
0
100
AcDbLine
 10
178.8749188133254
 20
264.9327065241261
 30
0.0
 11
178.8749188133254
 21
272.6223885241261
 31
0.0
  0
ARC
  5
6D8
330
2
100
AcDbEntity
  8
0
100
AcDbCircle
 10
174.7840068133254
 20
265.4327065241261
 30
0.0
 40
1.5
100
AcDbArc
 50
1.499998999999801
 51
90.0
  0
ARC
  5
6D9
330
2
100
AcDbEntity
  8
0
100
AcDbCircle
 10
177.0884658133254
 20
272.9327065241261
 30
0.0
 40
1.0
100
AcDbArc
 50
90.0
 51
181.4999999999998
  0
LINE
  5
6DA
330
2
100
AcDbEntity
  8
HIDS
  6
SEKKEI_H
100
AcDbLine
 10
183.5476178133254
 20
273.9327065241261
 30
0.0
 11
183.5476178133254
 21
264.9327065241261
 31
0.0
  0
LINE
  5
6DB
330
2
100
AcDbEntity
  8
HIDS
  6
SEKKEI_H
100
AcDbLine
 10
190.0476178133254
 20
273.9327065241261
 30
0.0
 11
190.0476178133254
 21
264.9327065241261
 31
0.0
  0
ARC
  5
6DC
330
2
100
AcDbEntity
  8
0
100
AcDbCircle
 10
234.7976178133254
 20
274.9327065241261
 30
0.0
 40
1.0
100
AcDbArc
 50
180.0
 51
270.0
  0
ARC
  5
6DD
330
2
100
AcDbEntity
  8
0
100
AcDbCircle
 10
174.1659958133254
 20
340.9327065241261
 30
0.0
 40
2.0
100
AcDbArc
 50
1.499999999999867
 51
90.0
  0
LINE
  5
6DE
330
2
100
AcDbEntity
  8
0
100
AcDbLine
 10
176.0881908133254
 20
327.9354535241261
 30
0.0
 11
176.2466078133254
 21
333.9850745241261
 31
0.0
  0
ARC
  5
6DF
330
2
100
AcDbEntity
  8
0
100
AcDbCircle
 10
178.2459208133254
 20
333.9327065241261
 30
0.0
 40
2.0
100
AcDbArc
 50
90.0
 51
178.5000000000001
  0
ARC
  5
6E0
330
2
100
AcDbEntity
  8
0
100
AcDbCircle
 10
178.2459208133254
 20
337.9327065241261
 30
0.0
 40
2.0
100
AcDbArc
 50
181.4999999999998
 51
270.0
  0
LINE
  5
6E1
330
2
100
AcDbEntity
  8
0
100
AcDbLine
 10
176.1653088133254
 20
340.9850745241261
 30
0.0
 11
176.2466078133254
 21
337.8803385241261
 31
0.0
  0
ARC
  5
6E2
330
2
100
AcDbEntity
  8
0
100
AcDbCircle
 10
380.8337085259356
 20
45.97577652412616
 30
0.0
 40
3.0
100
AcDbArc
 50
91.00048800000001
 51
165.0003049999998
  0
LINE
  5
6E3
330
2
100
AcDbEntity
  8
CENTER
100
AcDbLine
 10
361.2019335259355
 20
85.71270552412618
 30
0.0
 11
455.2019335259356
 21
85.71270552412618
 31
0.0
  0
LINE
  5
6E6
330
2
100
AcDbEntity
  8
CENTER
100
AcDbLine
 10
364.7019335259355
 20
52.01270652412616
 30
0.0
 11
380.7019335259356
 21
52.01270652412617
 31
0.0
  0
LINE
  5
6E7
330
2
100
AcDbEntity
  8
CENTER
100
AcDbLine
 10
364.7019335259356
 20
138.0127085241261
 30
0.0
 11
380.7019335259356
 21
138.0127085241261
 31
0.0
  0
ARC
  5
6E8
330
2
100
AcDbEntity
  8
0
100
AcDbCircle
 10
380.2019335259355
 20
66.31272652412616
 30
0.0
 40
3.0
100
AcDbArc
 50
90.0
 51
180.0
  0
ARC
  5
6E9
330
2
100
AcDbEntity
  8
0
100
AcDbCircle
 10
380.8350205259356
 20
144.0317435241261
 30
0.0
 40
3.0
100
AcDbArc
 50
194.9326019999999
 51
269.0006100000001
  0
LINE
  5
6EA
330
2
100
AcDbEntity
  8
0
100
AcDbLine
 10
437.2368155259356
 20
49.96093652412617
 30
0.0
 11
379.1670215259355
 21
48.94712652412616
 31
0.0
  0
LINE
  5
6EB
330
2
100
AcDbEntity
  8
0
100
AcDbLine
 10
437.2368155259356
 20
140.0470105241261
 30
0.0
 11
379.1670215259355
 21
141.0603845241261
 31
0.0
  0
LINE
  5
6EC
330
2
100
AcDbEntity
  8
CENTER
100
AcDbLine
 10
337.2019335259356
 20
108.0127085241261
 30
0.0
 11
455.1881434335872
 21
108.0127085241261
 31
0.0
  0
LINE
  5
6ED
330
2
100
AcDbEntity
  8
0
100
AcDbLine
 10
377.2019335259356
 20
145.4745845241261
 30
0.0
 11
377.2019335259356
 21
84.35002652412617
 31
0.0
  0
LINE
  5
6EE
330
2
100
AcDbEntity
  8
0
100
AcDbLine
 10
368.2019335259356
 20
44.01270652412615
 30
0.0
 11
368.2019335259356
 21
100.5127085241261
 31
0.0
  0
ARC
  5
6EF
330
2
100
AcDbEntity
  8
0
100
AcDbCircle
 10
374.2019335259356
 20
89.01270452412616
 30
0.0
 40
1.0
100
AcDbArc
 50
180.0
 51
270.0
  0
LINE
  5
6F0
330
2
100
AcDbEntity
  8
0
100
AcDbLine
 10
261.2976178133255
 20
120.7127055241261
 30
0.0
 11
261.2976178133255
 21
69.31271752412616
 31
0.0
  0
LINE
  5
6F1
330
2
100
AcDbEntity
  8
0
100
AcDbLine
 10
258.7976178133254
 20
109.3741055241261
 30
0.0
 11
258.7976178133254
 21
80.65156752412617
 31
0.0
  0
ARC
  5
6F2
330
2
100
AcDbEntity
  8
0
100
AcDbCircle
 10
250.7976178133254
 20
52.01270652412616
 30
0.0
 40
8.0
100
AcDbArc
 50
270.0
 51
352.0303039999999
  0
LINE
  5
6F3
330
2
100
AcDbEntity
  8
0
100
AcDbLine
 10
258.8000138133254
 20
80.32244252412615
 30
0.0
 11
256.4227098133254
 21
63.34220652412616
 31
0.0
  0
LINE
  5
6F4
330
2
100
AcDbEntity
  8
0
100
AcDbLine
 10
258.7203168133254
 20
50.90358652412616
 30
0.0
 11
261.2976178133255
 21
69.31271752412616
 31
0.0
  0
ARC
  5
6F5
330
2
100
AcDbEntity
  8
0
100
AcDbCircle
 10
252.4614058133254
 20
63.89680652412616
 30
0.0
 40
4.0
100
AcDbArc
 50
262.0302430000001
 51
352.0302990000002
  0
CIRCLE
  5
6F6
330
2
100
AcDbEntity
  8
0
100
AcDbCircle
 10
250.7976178133254
 20
52.01270652412616
 30
0.0
 40
3.25
  0
ARC
  5
6F8
330
2
100
AcDbEntity
  8
0
100
AcDbCircle
 10
250.7976178133254
 20
52.01270652412616
 30
0.0
 40
8.0
100
AcDbArc
 50
82.03034999999998
 51
180.0
  0
ARC
  5
6FA
330
2
100
AcDbEntity
  8
0
100
AcDbCircle
 10
238.7976178133254
 20
52.01270652412616
 30
0.0
 40
4.0
100
AcDbArc
 50
270.0
 51
0.0
  0
ARC
  5
6FB
330
2
100
AcDbEntity
  8
0
100
AcDbCircle
 10
375.6672345259356
 20
46.01270652412615
 30
0.0
 40
2.0
100
AcDbArc
 50
270.0
 51
345.0000920000001
  0
LINE
  5
6FC
330
2
100
AcDbEntity
  8
0
100
AcDbLine
 10
377.2019335259356
 20
66.31272652412616
 30
0.0
 11
377.2019335259356
 21
45.51270652412616
 31
0.0
  0
LINE
  5
6FD
330
2
100
AcDbEntity
  8
HIDS
  6
SEKKEI_H
100
AcDbLine
 10
368.2019335259356
 20
48.76270652412616
 30
0.0
 11
377.2019335259356
 21
48.76270652412616
 31
0.0
  0
LINE
  5
6FE
330
2
100
AcDbEntity
  8
0
100
AcDbLine
 10
375.6672345259356
 20
44.01270652412615
 30
0.0
 11
368.2019335259356
 21
44.01270652412615
 31
0.0
  0
ARC
  5
6FF
330
2
100
AcDbEntity
  8
0
100
AcDbCircle
 10
379.2019335259356
 20
46.94743652412616
 30
0.0
 40
2.0
100
AcDbArc
 50
91.00058700000005
 51
180.0
  0
ARC
  5
700
330
2
100
AcDbEntity
  8
0
100
AcDbCircle
 10
375.7019335259355
 20
45.51270652412616
 30
0.0
 40
1.5
100
AcDbArc
 50
270.0
 51
0.0
  0
LINE
  5
701
330
2
100
AcDbEntity
  8
0
100
AcDbLine
 10
377.5991195259356
 20
45.49506652412616
 30
0.0
 11
377.9359115259356
 21
46.75220652412616
 31
0.0
  0
LINE
  5
702
330
2
100
AcDbEntity
  8
HIDS
  6
SEKKEI_H
100
AcDbLine
 10
368.2019335259356
 20
55.26270652412616
 30
0.0
 11
377.2019335259356
 21
55.26270652412616
 31
0.0
  0
LINE
  5
705
330
2
100
AcDbEntity
  8
0
100
AcDbLine
 10
374.2019335259356
 20
88.01270452412614
 30
0.0
 11
375.2085667663987
 21
88.01270452412614
 31
0.0
  0
ARC
  5
706
330
2
100
AcDbEntity
  8
0
100
AcDbCircle
 10
250.7976178133254
 20
138.0127085241261
 30
0.0
 40
8.0
100
AcDbArc
 50
180.0
 51
277.9695129999997
  0
LINE
  5
707
330
2
100
AcDbEntity
  8
0
100
AcDbLine
 10
258.7203168133254
 20
139.1218695241261
 30
0.0
 11
261.2976178133255
 21
120.7127055241261
 31
0.0
  0
LINE
  5
708
330
2
100
AcDbEntity
  8
CENTER
100
AcDbLine
 10
250.7976178133254
 20
132.1690045241261
 30
0.0
 11
250.7976178133254
 21
143.8564125241261
 31
0.0
  0
LINE
  5
709
330
2
100
AcDbEntity
  8
0
100
AcDbLine
 10
256.4227098133254
 20
126.6832105241261
 30
0.0
 11
258.8219098133254
 21
109.5461325241261
 31
0.0
  0
ARC
  5
70A
330
2
100
AcDbEntity
  8
0
100
AcDbCircle
 10
252.4614058133254
 20
126.1286065241261
 30
0.0
 40
4.0
100
AcDbArc
 50
7.969700999999845
 51
97.96975699999983
  0
ARC
  5
70B
330
2
100
AcDbEntity
  8
0
100
AcDbCircle
 10
250.7976178133254
 20
138.0127085241261
 30
0.0
 40
8.0
100
AcDbArc
 50
7.969647000000191
 51
90.0
  0
CIRCLE
  5
70C
330
2
100
AcDbEntity
  8
0
100
AcDbCircle
 10
250.7976178133254
 20
138.0127085241261
 30
0.0
 40
3.25
  0
LINE
  5
70D
330
2
100
AcDbEntity
  8
CENTER
100
AcDbLine
 10
244.9539138133254
 20
138.0127085241261
 30
0.0
 11
256.6413218133254
 21
138.0127085241261
 31
0.0
  0
ARC
  5
70E
330
2
100
AcDbEntity
  8
0
100
AcDbCircle
 10
238.7976178133254
 20
138.0127085241261
 30
0.0
 40
4.0
100
AcDbArc
 50
0.0
 51
90.0
  0
LINE
  5
70F
330
2
100
AcDbEntity
  8
0
100
AcDbLine
 10
368.2019335259356
 20
146.0127085241261
 30
0.0
 11
368.2019335259356
 21
115.5127085241261
 31
0.0
  0
LINE
  5
710
330
2
100
AcDbEntity
  8
0
100
AcDbLine
 10
365.7019335259356
 20
110.5127085241261
 30
0.0
 11
344.2019335259355
 21
110.5127085241261
 31
0.0
  0
LINE
  5
711
330
2
100
AcDbEntity
  8
0
100
AcDbLine
 10
365.7019335259356
 20
105.5127085241261
 30
0.0
 11
344.2019335259355
 21
105.5127085241261
 31
0.0
  0
LINE
  5
712
330
2
100
AcDbEntity
  8
0
100
AcDbLine
 10
371.2019335259356
 20
100.5127085241261
 30
0.0
 11
344.2019335259355
 21
100.5127085241261
 31
0.0
  0
LINE
  5
713
330
2
100
AcDbEntity
  8
0
100
AcDbLine
 10
371.2019335259356
 20
115.5127085241261
 30
0.0
 11
344.2019335259355
 21
115.5127085241261
 31
0.0
  0
LINE
  5
714
330
2
100
AcDbEntity
  8
0
100
AcDbLine
 10
344.2019335259355
 20
100.5127085241261
 30
0.0
 11
344.2019335259355
 21
115.5127085241261
 31
0.0
  0
ARC
  5
715
330
2
100
AcDbEntity
  8
0
100
AcDbCircle
 10
365.7019335259356
 20
108.0127155241261
 30
0.0
 40
2.5
100
AcDbArc
 50
0.0
 51
90.0
  0
LINE
  5
716
330
2
100
AcDbEntity
  8
0
100
AcDbLine
 10
371.2019335259356
 20
116.5127085241261
 30
0.0
 11
371.2019335259356
 21
99.51270852412617
 31
0.0
  0
LINE
  5
717
330
2
100
AcDbEntity
  8
0
100
AcDbLine
 10
373.2019335259356
 20
89.01270452412616
 30
0.0
 11
373.2019335259356
 21
127.0127085241261
 31
0.0
  0
LINE
  5
718
330
2
100
AcDbEntity
  8
0
100
AcDbLine
 10
371.2019335259356
 20
99.51270852412617
 30
0.0
 11
373.2019335259356
 21
99.51270852412617
 31
0.0
  0
ARC
  5
719
330
2
100
AcDbEntity
  8
0
100
AcDbCircle
 10
365.7019335259356
 20
108.0127085241261
 30
0.0
 40
2.5
100
AcDbArc
 50
270.0
 51
0.0
  0
LINE
  5
71B
330
2
100
AcDbEntity
  8
0
100
AcDbLine
 10
371.2019335259356
 20
116.5127085241261
 30
0.0
 11
373.2019335259356
 21
116.5127085241261
 31
0.0
  0
ARC
  5
71E
330
2
100
AcDbEntity
  8
0
100
AcDbCircle
 10
374.2019335259356
 20
127.0127085241261
 30
0.0
 40
1.0
100
AcDbArc
 50
90.0
 51
180.0
  0
LINE
  5
71F
330
2
100
AcDbEntity
  8
0
100
AcDbLine
 10
374.2019335259356
 20
128.0127085241261
 30
0.0
 11
375.2019335259357
 21
128.0127085241261
 31
0.0
  0
LINE
  5
720
330
2
100
AcDbEntity
  8
0
100
AcDbLine
 10
377.4998155259356
 20
144.9009305241261
 30
0.0
 11
377.9396345259356
 21
143.2595655241261
 31
0.0
  0
LINE
  5
721
330
2
100
AcDbEntity
  8
HIDS
  6
SEKKEI_H
100
AcDbLine
 10
368.2019335259356
 20
134.7627085241261
 30
0.0
 11
377.2019335259356
 21
134.7627085241261
 31
0.0
  0
LINE
  5
722
330
2
100
AcDbEntity
  8
HIDS
  6
SEKKEI_H
100
AcDbLine
 10
368.2019335259356
 20
141.2627085241261
 30
0.0
 11
377.2019335259356
 21
141.2627085241261
 31
0.0
  0
ARC
  5
723
330
2
100
AcDbEntity
  8
0
100
AcDbCircle
 10
379.2019335259356
 20
143.0600865241261
 30
0.0
 40
2.0
100
AcDbArc
 50
180.0
 51
269.0006100000001
  0
LINE
  5
724
330
2
100
AcDbEntity
  8
0
100
AcDbLine
 10
368.2019335259356
 20
146.0127085241261
 30
0.0
 11
376.0509325259356
 21
146.0127085241261
 31
0.0
  0
ARC
  5
725
330
2
100
AcDbEntity
  8
0
100
AcDbCircle
 10
376.0509325259356
 20
144.5127085241261
 30
0.0
 40
1.5
100
AcDbArc
 50
15.00007000000016
 51
90.0
  0
LINE
  5
726
330
2
100
AcDbEntity
  8
0
100
AcDbLine
 10
448.2019335259356
 20
62.71270752412616
 30
0.0
 11
448.2019335259356
 21
107.6416375241261
 31
0.0
  0
ARC
  5
728
330
2
100
AcDbEntity
  8
0
100
AcDbCircle
 10
408.2019335259356
 20
85.71270552412617
 30
0.0
 40
38.0
100
AcDbArc
 50
324.6655310000001
 51
22.919519
  0
ARC
  5
729
330
2
100
AcDbEntity
  8
0
100
AcDbCircle
 10
441.2019335259356
 20
86.01271552412617
 30
0.0
 40
2.0
100
AcDbArc
 50
90.0
 51
180.0
  0
ARC
  5
72A
330
2
100
AcDbEntity
  8
0
100
AcDbCircle
 10
442.2019335259355
 20
89.01270452412616
 30
0.0
 40
1.0
100
AcDbArc
 50
270.0
 51
0.0
  0
LINE
  5
72B
330
2
100
AcDbEntity
  8
0
100
AcDbLine
 10
439.2019335259355
 20
51.96063652412616
 30
0.0
 11
439.2019335259355
 21
138.0473075241261
 31
0.0
  0
LINE
  5
72C
330
2
100
AcDbEntity
  8
CENTER
100
AcDbLine
 10
408.2019335259356
 20
38.71270652412616
 30
0.0
 11
408.2019335259357
 21
161.6002035241261
 31
0.0
  0
LINE
  5
72D
330
2
100
AcDbEntity
  8
0
100
AcDbLine
 10
445.2019335259356
 20
59.71270752412616
 30
0.0
 11
441.5989065259355
 21
59.71270752412616
 31
0.0
  0
LINE
  5
72E
330
2
100
AcDbEntity
  8
0
100
AcDbLine
 10
386.2729175259356
 20
45.71270652412616
 30
0.0
 11
431.2019335259356
 21
45.71270652412616
 31
0.0
  0
LINE
  5
72F
330
2
100
AcDbEntity
  8
0
100
AcDbLine
 10
387.2019335259356
 20
47.71270652412616
 30
0.0
 11
429.2019335259356
 21
47.71270652412616
 31
0.0
  0
LINE
  5
730
330
2
100
AcDbEntity
  8
0
100
AcDbLine
 10
380.2019335259355
 20
69.31270552412616
 30
0.0
 11
437.7644335259356
 21
69.31270552412616
 31
0.0
  0
ARC
  5
731
330
2
100
AcDbEntity
  8
0
100
AcDbCircle
 10
386.2729175259356
 20
50.71270652412616
 30
0.0
 40
5.0
100
AcDbArc
 50
225.0001070000001
 51
270.0
  0
LINE
  5
732
330
2
100
AcDbEntity
  8
0
100
AcDbLine
 10
382.7375165259356
 20
47.17715652412616
 30
0.0
 11
380.9366135259356
 21
48.97802652412616
 31
0.0
  0
ARC
  5
733
330
2
100
AcDbEntity
  8
0
100
AcDbCircle
 10
387.2019335259356
 20
49.71270652412616
 30
0.0
 40
2.0
100
AcDbArc
 50
199.2169949999999
 51
270.0
  0
LINE
  5
734
330
2
100
AcDbEntity
  8
0
100
AcDbLine
 10
434.2019335259355
 20
48.71270652412616
 30
0.0
 11
434.2019335259355
 21
49.90795652412616
 31
0.0
  0
ARC
  5
735
330
2
100
AcDbEntity
  8
0
100
AcDbCircle
 10
429.2019335259356
 20
49.71270652412616
 30
0.0
 40
2.0
100
AcDbArc
 50
270.0
 51
0.0
  0
ARC
  5
736
330
2
100
AcDbEntity
  8
0
100
AcDbCircle
 10
431.2019335259356
 20
48.71269652412616
 30
0.0
 40
3.0
100
AcDbArc
 50
270.0
 51
0.0
  0
LINE
  5
737
330
2
100
AcDbEntity
  8
0
100
AcDbLine
 10
431.2019335259356
 20
49.71270652412616
 30
0.0
 11
431.2019335259356
 21
49.85548652412616
 31
0.0
  0
ARC
  5
738
330
2
100
AcDbEntity
  8
0
100
AcDbCircle
 10
437.2019335259356
 20
51.96062652412615
 30
0.0
 40
2.0
100
AcDbArc
 50
271.0003659999999
 51
0.0
  0
LINE
  5
739
330
2
100
AcDbEntity
  8
0
100
AcDbLine
 10
439.2019335259355
 20
57.31573652412615
 30
0.0
 11
441.5989065259355
 21
59.71270752412616
 31
0.0
  0
LINE
  5
73A
330
2
100
AcDbEntity
  8
0
100
AcDbLine
 10
442.2019335259355
 20
88.01270452412614
 30
0.0
 11
441.2019335259356
 21
88.01270452412614
 31
0.0
  0
ARC
  5
73B
330
2
100
AcDbEntity
  8
0
100
AcDbCircle
 10
445.2019335259356
 20
62.71269552412616
 30
0.0
 40
3.0
100
AcDbArc
 50
270.0
 51
0.0
  0
ARC
  5
73C
330
2
100
AcDbEntity
  8
0
100
AcDbCircle
 10
442.2019335259355
 20
127.0127085241261
 30
0.0
 40
1.0
100
AcDbArc
 50
0.0
 51
90.0
  0
LINE
  5
73D
330
2
100
AcDbEntity
  8
0
100
AcDbLine
 10
380.7029105259355
 20
120.7127055241261
 30
0.0
 11
437.2332135259356
 21
120.7127055241261
 31
0.0
  0
ARC
  5
743
330
2
100
AcDbEntity
  8
0
100
AcDbCircle
 10
441.2019335259356
 20
130.0127085241261
 30
0.0
 40
2.0
100
AcDbArc
 50
180.0
 51
270.0
  0
LINE
  5
744
330
2
100
AcDbEntity
  8
0
100
AcDbLine
 10
442.2019335259355
 20
128.0127085241261
 30
0.0
 11
441.2019335259356
 21
128.0127085241261
 31
0.0
  0
ARC
  5
745
330
2
100
AcDbEntity
  8
0
100
AcDbCircle
 10
437.2019335259356
 20
138.0473005241261
 30
0.0
 40
2.0
100
AcDbArc
 50
0.0
 51
89.00035899999997
  0
ARC
  5
746
330
2
100
AcDbEntity
  8
0
100
AcDbCircle
 10
443.2019335259355
 20
107.6416145241261
 30
0.0
 40
5.0
100
AcDbArc
 50
0.0
 51
45.00022899999987
  0
LINE
  5
747
330
2
100
AcDbEntity
  8
0
100
AcDbLine
 10
443.2019335259355
 20
89.01270452412616
 30
0.0
 11
443.2019335259355
 21
127.0127085241261
 31
0.0
  0
LINE
  5
748
330
2
100
AcDbEntity
  8
0
100
AcDbLine
 10
446.7374255259356
 20
111.1771755241261
 30
0.0
 11
443.2019335259355
 21
114.7126975241261
 31
0.0
  0
LINE
  5
74A
330
2
100
AcDbEntity
  8
0
100
AcDbLine
 10
259.4894058133254
 20
333.9850745241261
 30
0.0
 11
261.2976178133255
 21
264.9327065241261
 31
0.0
  0
LINE
  5
74B
330
2
100
AcDbEntity
  8
CENTER
100
AcDbLine
 10
250.7976178133254
 20
261.4327065241261
 30
0.0
 11
250.7976178133254
 21
277.4327065241261
 31
0.0
  0
LINE
  5
74C
330
2
100
AcDbEntity
  8
HIDS
  6
SEKKEI_H
100
AcDbLine
 10
247.5476178133254
 20
273.9327065241261
 30
0.0
 11
247.5476178133254
 21
264.9327065241261
 31
0.0
  0
ARC
  5
74D
330
2
100
AcDbEntity
  8
0
100
AcDbCircle
 10
260.0877788133254
 20
272.9327065241261
 30
0.0
 40
1.0
100
AcDbArc
 50
1.499998000000141
 51
90.0
  0
LINE
  5
74E
330
2
100
AcDbEntity
  8
HIDS
  6
SEKKEI_H
100
AcDbLine
 10
254.0476178133254
 20
273.9327065241261
 30
0.0
 11
254.0476178133254
 21
264.9327065241261
 31
0.0
  0
LINE
  5
74F
330
2
100
AcDbEntity
  8
0
100
AcDbLine
 10
258.7203168133254
 20
264.9327065241261
 30
0.0
 11
258.7203168133254
 21
272.6223885241261
 31
0.0
  0
ARC
  5
750
330
2
100
AcDbEntity
  8
0
100
AcDbCircle
 10
257.4900918133254
 20
333.9327065241261
 30
0.0
 40
2.0
100
AcDbArc
 50
1.499999999999867
 51
90.0
  0
LWPOLYLINE
  5
757
330
2
100
AcDbEntity
  8
HOJO
100
AcDbPolyline
 90
       13
 70
     0
 43
0.0
 10
368.2019335259356
 20
131.2223565241261
 10
374.0925275259355
 20
130.0095875241261
 10
379.3425275259355
 20
126.7595875241261
 10
379.8425275259355
 20
121.6345875241261
 10
381.5925275259355
 20
119.7595875241261
 10
382.3425275259355
 20
110.5095875241261
 10
383.0925275259355
 20
105.2595875241261
 10
381.0925275259355
 20
98.88458752412617
 10
381.7175275259355
 20
92.38458052412616
 10
380.2175275259355
 20
86.63458052412616
 10
376.0925275259355
 20
83.50958052412616
 10
371.2175275259355
 20
82.88458052412616
 10
368.2019335259356
 20
81.65599252412617
  0
LINE
  5
75A
330
2
100
AcDbEntity
  8
CENTER
100
AcDbLine
 10
180.9539138133254
 20
138.0127085241261
 30
0.0
 11
192.6413218133254
 21
138.0127085241261
 31
0.0
  0
LINE
  5
75B
330
2
100
AcDbEntity
  8
CENTER
100
AcDbLine
 10
186.7976178133254
 20
132.1690045241261
 30
0.0
 11
186.7976178133254
 21
143.8564125241261
 31
0.0
  0
LINE
  5
75C
330
2
100
AcDbEntity
  8
CENTER
100
AcDbLine
 10
180.9539138133254
 20
52.01270652412616
 30
0.0
 11
192.6413218133254
 21
52.01270652412616
 31
0.0
  0
LINE
  5
75D
330
2
100
AcDbEntity
  8
CENTER
100
AcDbLine
 10
186.7976178133254
 20
46.16900252412615
 30
0.0
 11
186.7976178133254
 21
57.85641052412616
 31
0.0
  0
LINE
  5
75E
330
2
100
AcDbEntity
  8
CENTER
100
AcDbLine
 10
244.9539138133254
 20
52.01270652412616
 30
0.0
 11
256.6413218133254
 21
52.01270652412616
 31
0.0
  0
LINE
  5
75F
330
2
100
AcDbEntity
  8
CENTER
100
AcDbLine
 10
250.7976178133254
 20
46.16900252412615
 30
0.0
 11
250.7976178133254
 21
57.85641052412616
 31
0.0
  0
TEXT
  5
76D
330
2
100
AcDbEntity
  8
TITLE
100
AcDbText
 10
324.8857476051138
 20
291.0799351957267
 30
0.0
 40
5.0
  1
HFM-15R-10~120-S40WT
100
AcDbText
  0
TEXT
  5
76E
330
2
100
AcDbEntity
  8
TITLE
100
AcDbText
 10
324.8857476051138
 20
299.0799351957267
 30
0.0
 40
5.0
  1
HFM-15R-10~120-S40T
100
AcDbText
  0
TEXT
  5
76F
330
2
100
AcDbEntity
  8
TITLE
100
AcDbText
 10
324.8857476051138
 20
307.0799351957266
 30
0.0
 40
5.0
  1
HFM-15R-10~60-T60T
100
AcDbText
  0
TEXT
  5
770
330
2
100
AcDbEntity
  8
TITLE
100
AcDbText
 10
324.8857476051138
 20
315.0799351957267
 30
0.0
 40
5.0
  1
HFM-15R-10~120-T40WT
100
AcDbText
  0
LINE
  5
11ED
330
2
100
AcDbEntity
  8
CENTER
100
AcDbLine
 10
119.7976098133255
 20
120.5190045241261
 30
0.0
 11
119.7976098133255
 21
161.6002035241261
 31
0.0
  0
LINE
  5
11EF
330
2
100
AcDbEntity
  8
CENTER
100
AcDbLine
 10
378.1583265447271
 20
146.7127035241262
 30
0.0
 11
438.2455405071442
 21
146.7127035241262
 31
0.0
  0
LINE
  5
11F2
330
2
100
AcDbEntity
  8
CENTER
100
AcDbLine
 10
86.85385381332549
 20
146.7127035241261
 30
0.0
 11
148.7499127770636
 21
146.7127035241261
 31
0.0
  0
LINE
  5
11F3
330
2
100
AcDbEntity
  8
0
100
AcDbLine
 10
102.2976032418964
 20
155.2127035241261
 30
0.0
 11
144.7976168133255
 21
155.2127035241261
 31
0.0
  0
LINE
  5
11F4
330
2
100
AcDbEntity
  8
0
100
AcDbLine
 10
94.7976028133255
 20
127.2127055241261
 30
0.0
 11
144.7976098133255
 21
127.2127055241261
 31
0.0
  0
LINE
  5
11F5
330
2
100
AcDbEntity
  8
0
100
AcDbLine
 10
92.79760281332551
 20
137.2127055241261
 30
0.0
 11
144.7976098133255
 21
137.2127055241261
 31
0.0
  0
LINE
  5
11F6
330
2
100
AcDbEntity
  8
0
100
AcDbLine
 10
96.29760281332551
 20
125.2127055241261
 30
0.0
 11
142.7976098133254
 21
125.2127055241261
 31
0.0
  0
LINE
  5
11F7
330
2
100
AcDbEntity
  8
0
100
AcDbLine
 10
99.63551862935105
 20
156.2127035241261
 30
0.0
 11
143.7976098133255
 21
156.2127035241261
 31
0.0
  0
LINE
  5
11F8
330
2
100
AcDbEntity
  8
0
100
AcDbLine
 10
94.7976028133255
 20
155.2127035241261
 30
0.0
 11
94.7976028133255
 21
127.2127055241261
 31
0.0
  0
LINE
  5
11F9
330
2
100
AcDbEntity
  8
0
100
AcDbLine
 10
96.29760281332551
 20
125.2127055241261
 30
0.0
 11
96.29760281332551
 21
123.7127055241261
 31
0.0
  0
LINE
  5
11FA
330
2
100
AcDbEntity
  8
0
100
AcDbLine
 10
94.7976028133255
 20
127.2127055241261
 30
0.0
 11
96.79760281332551
 21
125.2127055241261
 31
0.0
  0
LINE
  5
11FB
330
2
100
AcDbEntity
  8
0
100
AcDbLine
 10
89.29761781332548
 20
150.7127035241261
 30
0.0
 11
89.29761781332548
 21
142.7127035241261
 31
0.0
  0
LINE
  5
11FC
330
2
100
AcDbEntity
  8
0
100
AcDbLine
 10
92.79761781332547
 20
153.2127035241261
 30
0.0
 11
92.79760281332551
 21
137.2127055241261
 31
0.0
  0
LINE
  5
11FD
330
2
100
AcDbEntity
  8
0
100
AcDbLine
 10
89.29760281332551
 20
142.7127035241261
 30
0.0
 11
92.79760281332551
 21
141.2127035241261
 31
0.0
  0
LINE
  5
11FE
330
2
100
AcDbEntity
  8
0
100
AcDbLine
 10
98.5851098137806
 20
154.795703524126
 30
0.0
 11
98.01010981287062
 21
154.795703524126
 31
0.0
  0
ARC
  5
11FF
330
2
100
AcDbEntity
  8
0
100
AcDbCircle
 10
98.29760981332562
 20
147.312703524126
 30
0.0
 40
9.0
100
AcDbArc
 50
74.11914999171883
 51
105.8808500082811
  0
LINE
  5
1200
330
2
100
AcDbEntity
  8
0
100
AcDbLine
 10
102.2976032418964
 20
153.712703524126
 30
0.0
 11
94.79760324189646
 21
153.7127035241261
 31
0.0
  0
LINE
  5
1201
330
2
100
AcDbEntity
  8
0
100
AcDbLine
 10
89.29761781332548
 20
150.7127035241261
 30
0.0
 11
92.79761781332547
 21
152.2127035241261
 31
0.0
  0
LINE
  5
1202
330
2
100
AcDbEntity
  8
0
100
AcDbLine
 10
95.79760281332552
 20
156.2127035241261
 30
0.0
 11
96.95970099730017
 21
156.2127035241261
 31
0.0
  0
ARC
  5
1203
330
2
100
AcDbEntity
  8
0
100
AcDbCircle
 10
93.79761781332547
 20
153.2127035241261
 30
0.0
 40
1.0
100
AcDbArc
 50
90.0
 51
180.0
  0
LINE
  5
1204
330
2
100
AcDbEntity
  8
0
100
AcDbLine
 10
93.79760281332551
 20
154.2127035241261
 30
0.0
 11
94.7976028133255
 21
154.2127035241261
 31
0.0
  0
LINE
  5
1205
330
2
100
AcDbEntity
  8
0
100
AcDbLine
 10
94.7976028133255
 20
155.2127035241261
 30
0.0
 11
95.79760281332552
 21
156.2127035241261
 31
0.0
  0
LINE
  5
1206
330
2
100
AcDbEntity
  8
0
100
AcDbLine
 10
95.79760324189647
 20
156.212703524126
 30
0.0
 11
94.7976028133255
 21
155.2127035241261
 31
0.0
  0
ARC
  5
1207
330
2
100
AcDbEntity
  8
0
100
AcDbCircle
 10
96.19059905973257
 20
154.7188162483724
 30
0.0
 40
1.3
100
AcDbArc
 50
105.8808500082811
 51
175.0000000000002
  0
LINE
  5
1208
330
2
100
AcDbEntity
  8
0
100
AcDbLine
 10
94.7976098133256
 20
153.7127035241261
 30
0.0
 11
94.8955459522134
 21
154.8321187139443
 31
0.0
  0
LINE
  5
1209
330
2
100
AcDbEntity
  8
0
100
AcDbLine
 10
96.26786999016156
 20
155.8651450615036
 30
0.0
 11
96.24760981332554
 21
156.0761218069652
 31
0.0
  0
SPLINE
  5
120A
330
2
100
AcDbEntity
  8
0
100
AcDbSpline
210
0.0
220
0.0
230
1.0
 70
     8
 71
     3
 72
    11
 73
     7
 74
     0
 42
0.0000000001
 43
0.0000000001
 40
0.0
 40
0.0
 40
0.0
 40
0.0
 40
0.4601364636755307
 40
1.04988694485363
 40
1.713742833862792
 40
2.320347933405154
 40
2.320347933405154
 40
2.320347933405154
 40
2.320347933405179
 10
98.01010981287062
 20
154.795703524126
 30
0.0
 10
97.98769215576271
 20
154.9507269638059
 30
0.0
 10
97.93654210052944
 20
155.3044417817235
 30
0.0
 10
97.5006569389958
 20
155.7291694533251
 30
0.0
 10
96.89560622398847
 20
155.948356633291
 30
0.0
 10
96.47042159981253
 20
155.8793653336803
 30
0.0
 10
96.26786999016156
 20
155.8651450615036
 30
0.0
  0
LINE
  5
120B
330
2
100
AcDbEntity
  8
0
100
AcDbLine
 10
102.2976032418964
 20
153.712703524126
 30
0.0
 11
102.2976032418964
 21
155.7127035241261
 31
0.0
  0
LINE
  5
120C
330
2
100
AcDbEntity
  8
0
100
AcDbLine
 10
102.7976032418964
 20
156.212703524126
 30
0.0
 11
102.2976032418964
 21
155.712703524126
 31
0.0
  0
SPLINE
  5
120D
330
2
100
AcDbEntity
  8
0
100
AcDbSpline
210
0.0
220
0.0
230
1.0
 70
     8
 71
     3
 72
    11
 73
     7
 74
     0
 42
0.0000000001
 43
0.0000000001
 40
0.0
 40
0.0
 40
0.0
 40
0.0
 40
0.4601364636755307
 40
1.04988694485363
 40
1.713742833862792
 40
2.320347933405154
 40
2.320347933405154
 40
2.320347933405154
 40
2.320347933405179
 10
98.5851098137806
 20
154.795703524126
 30
0.0
 10
98.6075274708885
 20
154.9507269638059
 30
0.0
 10
98.65867752612178
 20
155.3044417817235
 30
0.0
 10
99.09456268765541
 20
155.7291694533251
 30
0.0
 10
99.69961340266275
 20
155.948356633291
 30
0.0
 10
100.1247980268386
 20
155.8793653336803
 30
0.0
 10
100.3273496364896
 20
155.8651450615036
 30
0.0
  0
LINE
  5
120E
330
2
100
AcDbEntity
  8
0
100
AcDbLine
 10
100.3273496364896
 20
155.8651450615036
 30
0.0
 11
100.3476098133256
 21
156.0761218069652
 31
0.0
  0
LINE
  5
120F
330
2
100
AcDbEntity
  8
0
100
AcDbLine
 10
101.7976098133254
 20
153.7127035241261
 30
0.0
 11
101.6996736744376
 21
154.8321187139443
 31
0.0
  0
LINE
  5
1210
330
2
100
AcDbEntity
  8
0
100
AcDbLine
 10
102.2976032418964
 20
155.712703524126
 30
0.0
 11
101.2425872029457
 21
155.712703524126
 31
0.0
  0
ARC
  5
1211
330
2
100
AcDbEntity
  8
0
100
AcDbCircle
 10
100.4046205669184
 20
154.7188162483724
 30
0.0
 40
1.3
100
AcDbArc
 50
4.999999999999743
 51
74.11914999171883
  0
LINE
  5
1212
330
2
100
AcDbEntity
  8
0
100
AcDbLine
 10
144.7976098133255
 20
155.2127035241261
 30
0.0
 11
144.7976098133255
 21
127.2127055241261
 31
0.0
  0
LINE
  5
1214
330
2
100
AcDbEntity
  8
0
100
AcDbLine
 10
142.2976098133254
 20
125.2127055241261
 30
0.0
 11
142.2976098133254
 21
123.7127055241261
 31
0.0
  0
LINE
  5
1215
330
2
100
AcDbEntity
  8
0
100
AcDbLine
 10
142.7976098133254
 20
125.2127055241261
 30
0.0
 11
144.7976098133255
 21
127.2127055241261
 31
0.0
  0
LINE
  5
1216
330
2
100
AcDbEntity
  8
0
100
AcDbLine
 10
143.7976168133255
 20
156.2127035241261
 30
0.0
 11
144.7976168133255
 21
155.2127035241261
 31
0.0
  0
LINE
  5
1217
330
2
100
AcDbEntity
  8
0
100
AcDbLine
 10
433.2019185259357
 20
155.2127035241261
 30
0.0
 11
433.2019185259357
 21
140.1174233744365
 31
0.0
  0
LINE
  5
1218
330
2
100
AcDbEntity
  8
0
100
AcDbLine
 10
383.2019335259356
 20
155.2127035241262
 30
0.0
 11
383.2019335259356
 21
140.9899714120512
 31
0.0
  0
LINE
  5
1220
330
2
100
AcDbEntity
  8
0
100
AcDbLine
 10
383.2019335259356
 20
155.2127035241262
 30
0.0
 11
425.7019185259356
 21
155.2127035241262
 31
0.0
  0
LINE
  5
1221
330
2
100
AcDbEntity
  8
0
100
AcDbLine
 10
384.2019335259356
 20
156.2127035241262
 30
0.0
 11
428.3640247099095
 21
156.2127035241261
 31
0.0
  0
LINE
  5
1223
330
2
100
AcDbEntity
  8
0
100
AcDbLine
 10
384.2019335259356
 20
156.2127035241262
 30
0.0
 11
383.2019335259356
 21
155.2127035241262
 31
0.0
  0
SPLINE
  5
1224
330
2
100
AcDbEntity
  8
0
100
AcDbSpline
210
0.0
220
0.0
230
1.0
 70
     8
 71
     3
 72
    11
 73
     7
 74
     0
 42
0.0000000001
 43
0.0000000001
 40
0.0
 40
0.0
 40
0.0
 40
0.0
 40
0.4601364636755307
 40
1.04988694485363
 40
1.713742833862792
 40
2.320347933405154
 40
2.320347933405154
 40
2.320347933405154
 40
2.320347933405179
 10
429.9894335263907
 20
154.7957035241262
 30
0.0
 10
430.0118511834985
 20
154.950726963806
 30
0.0
 10
430.0630012387319
 20
155.3044417817236
 30
0.0
 10
430.4988864002655
 20
155.7291694533253
 30
0.0
 10
431.1039371152729
 20
155.9483566332911
 30
0.0
 10
431.5291217394487
 20
155.8793653336804
 30
0.0
 10
431.7316733490998
 20
155.8651450615037
 30
0.0
  0
ARC
  5
1225
330
2
100
AcDbEntity
  8
0
100
AcDbCircle
 10
429.7019335259356
 20
147.3127035241262
 30
0.0
 40
9.0
100
AcDbArc
 50
74.11914999171883
 51
105.8808500082811
  0
LINE
  5
1226
330
2
100
AcDbEntity
  8
0
100
AcDbLine
 10
425.7019185259356
 20
153.7127035241261
 30
0.0
 11
433.2019185259357
 21
153.7127035241262
 31
0.0
  0
SPLINE
  5
1227
330
2
100
AcDbEntity
  8
0
100
AcDbSpline
210
0.0
220
0.0
230
1.0
 70
     8
 71
     3
 72
    11
 73
     7
 74
     0
 42
0.0000000001
 43
0.0000000001
 40
0.0
 40
0.0
 40
0.0
 40
0.0
 40
0.4601364636755307
 40
1.04988694485363
 40
1.713742833862792
 40
2.320347933405154
 40
2.320347933405154
 40
2.320347933405154
 40
2.320347933405179
 10
429.4144335254806
 20
154.7957035241262
 30
0.0
 10
429.3920158683727
 20
154.950726963806
 30
0.0
 10
429.3408658131395
 20
155.3044417817236
 30
0.0
 10
428.9049806516059
 20
155.7291694533253
 30
0.0
 10
428.2999299365985
 20
155.9483566332911
 30
0.0
 10
427.8747453124227
 20
155.8793653336804
 30
0.0
 10
427.6721937027716
 20
155.8651450615037
 30
0.0
  0
LINE
  5
1228
330
2
100
AcDbEntity
  8
0
100
AcDbLine
 10
429.9894335263907
 20
154.7957035241262
 30
0.0
 11
429.4144335254806
 21
154.7957035241262
 31
0.0
  0
LINE
  5
1229
330
2
100
AcDbEntity
  8
0
100
AcDbLine
 10
427.6721937027716
 20
155.8651450615037
 30
0.0
 11
427.6519335259357
 21
156.0761218069654
 31
0.0
  0
LINE
  5
122A
330
2
100
AcDbEntity
  8
0
100
AcDbLine
 10
425.7019185259356
 20
155.7127035241261
 30
0.0
 11
426.7569561363153
 21
155.7127035241261
 31
0.0
  0
LINE
  5
122B
330
2
100
AcDbEntity
  8
0
100
AcDbLine
 10
425.7019185259356
 20
153.7127035241261
 30
0.0
 11
425.7019185259356
 21
155.7127035241262
 31
0.0
  0
LINE
  5
122C
330
2
100
AcDbEntity
  8
0
100
AcDbLine
 10
425.2019185259356
 20
156.2127035241261
 30
0.0
 11
425.7019185259356
 21
155.7127035241261
 31
0.0
  0
LINE
  5
122D
330
2
100
AcDbEntity
  8
0
100
AcDbLine
 10
426.2019335259356
 20
153.7127035241262
 30
0.0
 11
426.2998696648235
 21
154.8321187139445
 31
0.0
  0
ARC
  5
122E
330
2
100
AcDbEntity
  8
0
100
AcDbCircle
 10
427.5949227723427
 20
154.7188162483725
 30
0.0
 40
1.3
100
AcDbArc
 50
105.8808500082811
 51
175.0000000000002
  0
LINE
  5
122F
330
2
100
AcDbEntity
  8
0
100
AcDbLine
 10
432.2019185259357
 20
156.2127035241261
 30
0.0
 11
433.2019185259357
 21
155.2127035241261
 31
0.0
  0
ARC
  5
1230
330
2
100
AcDbEntity
  8
0
100
AcDbCircle
 10
431.8089442795286
 20
154.7188162483725
 30
0.0
 40
1.3
100
AcDbArc
 50
4.999999999999743
 51
74.11914999171883
  0
LINE
  5
1231
330
2
100
AcDbEntity
  8
0
100
AcDbLine
 10
433.2019335259357
 20
153.7127035241262
 30
0.0
 11
433.1039973870477
 21
154.8321187139445
 31
0.0
  0
LINE
  5
1232
330
2
100
AcDbEntity
  8
0
100
AcDbLine
 10
431.7316733490998
 20
155.8651450615037
 30
0.0
 11
431.7519335259357
 21
156.0761218069654
 31
0.0
  0
LINE
  5
1233
330
2
100
AcDbEntity
  8
0
100
AcDbLine
 10
431.0398423419619
 20
156.2127035241261
 30
0.0
 11
432.2019185259357
 21
156.2127035241261
 31
0.0
  0
LINE
  5
1247
330
2
100
AcDbEntity
  8
0
100
AcDbLine
 10
144.7975028133254
 20
281.9327065241261
 30
0.0
 11
142.7975028133254
 21
279.9327065241261
 31
0.0
  0
LINE
  5
1248
330
2
100
AcDbEntity
  8
0
100
AcDbLine
 10
144.7975028133254
 20
281.9327065241261
 30
0.0
 11
142.7975028133254
 21
279.9327065241261
 31
0.0
  0
LINE
  5
1249
330
2
100
AcDbEntity
  8
0
100
AcDbLine
 10
144.7977018133254
 20
281.9327065241261
 30
0.0
 11
142.7975028133254
 21
279.9327065241261
 31
0.0
  0
LINE
  5
124A
330
2
100
AcDbEntity
  8
0
100
AcDbLine
 10
102.2976028133255
 20
283.4327065241261
 30
0.0
 11
102.2976028133255
 21
279.9329055241261
 31
0.0
  0
LINE
  5
124B
330
2
100
AcDbEntity
  8
0
100
AcDbLine
 10
94.7976028133255
 20
281.9327065241261
 30
0.0
 11
96.79760281332551
 21
279.9327065241261
 31
0.0
  0
LINE
  5
124C
330
2
100
AcDbEntity
  8
0
100
AcDbLine
 10
94.7976028133255
 20
281.9327065241261
 30
0.0
 11
96.79760281332551
 21
279.9327065241261
 31
0.0
  0
CIRCLE
  5
124D
330
2
100
AcDbEntity
  8
0
100
AcDbCircle
 10
98.29763281332544
 20
283.4327065241261
 30
0.0
 40
3.500000000000028
  0
LINE
  5
124E
330
2
100
AcDbEntity
  8
CENTER
100
AcDbLine
 10
119.7976098133255
 20
335.3219324682338
 30
0.0
 11
119.7976098133255
 21
274.1827065241261
 31
0.0
  0
LINE
  5
124F
330
2
100
AcDbEntity
  8
0
100
AcDbLine
 10
96.79760281332551
 20
279.9327065241261
 30
0.0
 11
142.7975028133254
 21
279.9327065241261
 31
0.0
  0
ARC
  5
1250
330
2
100
AcDbEntity
  8
0
100
AcDbCircle
 10
141.2977018133254
 20
326.4327065241261
 30
0.0
 40
4.0
100
AcDbArc
 50
180.0
 51
270.0
  0
CIRCLE
  5
1251
330
2
100
AcDbEntity
  8
0
100
AcDbCircle
 10
141.2977018133254
 20
326.4327065241261
 30
0.0
 40
3.500000000000028
  0
ARC
  5
1252
330
2
100
AcDbEntity
  8
0
100
AcDbCircle
 10
139.2680018133255
 20
324.4030065241261
 30
0.0
 40
1.742199999999999
100
AcDbArc
 50
359.9986903345002
 51
90.00130966549649
  0
ARC
  5
1253
330
2
100
AcDbEntity
  8
0
100
AcDbCircle
 10
139.2680018133255
 20
328.462406524126
 30
0.0
 40
1.742199999999999
100
AcDbArc
 50
269.9986903345002
 51
0.0013096654997424
  0
LINE
  5
1254
330
2
100
AcDbEntity
  8
0
100
AcDbLine
 10
96.79760281332551
 20
329.9327065241261
 30
0.0
 11
142.7975028133255
 21
329.9327065241261
 31
0.0
  0
LINE
  5
1255
330
2
100
AcDbEntity
  8
0
100
AcDbLine
 10
142.3977078133255
 20
281.3327005241261
 30
0.0
 11
102.2976028133255
 21
281.3327005241261
 31
0.0
  0
LINE
  5
1256
330
2
100
AcDbEntity
  8
0
100
AcDbLine
 10
92.79760281332551
 20
298.4327065241261
 30
0.0
 11
92.79760281332551
 21
311.4327065241261
 31
0.0
  0
LINE
  5
1257
330
2
100
AcDbEntity
  8
0
100
AcDbLine
 10
89.29760281332551
 20
306.9327065241261
 30
0.0
 11
92.79760281332551
 21
310.4327065241261
 31
0.0
  0
LINE
  5
1258
330
2
100
AcDbEntity
  8
0
100
AcDbLine
 10
96.19759681332551
 20
327.5326975241261
 30
0.0
 11
96.19760381332548
 21
287.4327065241261
 31
0.0
  0
LINE
  5
1259
330
2
100
AcDbEntity
  8
0
100
AcDbLine
 10
94.7976028133255
 20
327.9327065241261
 30
0.0
 11
94.7976028133255
 21
281.9327065241261
 31
0.0
  0
ARC
  5
125A
330
2
100
AcDbEntity
  8
0
100
AcDbCircle
 10
98.29763281332544
 20
283.4327065241261
 30
0.0
 40
2.049999999999998
100
AcDbArc
 50
270.0
 51
278.0619600839818
  0
ARC
  5
125B
330
2
100
AcDbEntity
  8
0
100
AcDbCircle
 10
98.29763281332544
 20
283.4327065241261
 30
0.0
 40
2.049999999999998
100
AcDbArc
 50
81.93803991601813
 51
90.0
  0
ARC
  5
125C
330
2
100
AcDbEntity
  8
0
100
AcDbCircle
 10
100.3273328133255
 20
281.4030065241261
 30
0.0
 40
1.742199999999999
100
AcDbArc
 50
89.9986903345035
 51
180.0013096654997
  0
ARC
  5
125D
330
2
100
AcDbEntity
  8
0
100
AcDbCircle
 10
100.3273328133255
 20
285.4624065241261
 30
0.0
 40
1.742199999999999
100
AcDbArc
 50
179.9986903345002
 51
270.0013096654964
  0
ARC
  5
125E
330
2
100
AcDbEntity
  8
0
100
AcDbCircle
 10
96.26793281332551
 20
281.4030065241261
 30
0.0
 40
1.742199999999999
100
AcDbArc
 50
359.9986903345002
 51
90.00130966549649
  0
ARC
  5
125F
330
2
100
AcDbEntity
  8
0
100
AcDbCircle
 10
96.26793281332551
 20
285.4624065241261
 30
0.0
 40
1.742199999999999
100
AcDbArc
 50
269.9986903345002
 51
0.0013096654997424
  0
ARC
  5
1260
330
2
100
AcDbEntity
  8
0
100
AcDbCircle
 10
98.29763281332544
 20
283.4327065241261
 30
0.0
 40
4.0
100
AcDbArc
 50
0.0
 51
90.0
  0
ARC
  5
1261
330
2
100
AcDbEntity
  8
0
100
AcDbCircle
 10
98.29763281332544
 20
283.4327065241261
 30
0.0
 40
2.049999999999998
100
AcDbArc
 50
261.9380399160181
 51
270.0
  0
ARC
  5
1262
330
2
100
AcDbEntity
  8
0
100
AcDbCircle
 10
98.29763281332544
 20
283.4327065241261
 30
0.0
 40
2.049999999999998
100
AcDbArc
 50
90.0
 51
98.06196008398188
  0
ARC
  5
1263
330
2
100
AcDbEntity
  8
0
100
AcDbCircle
 10
98.29763281332544
 20
283.4327065241261
 30
0.0
 40
2.049999999999998
100
AcDbArc
 50
171.9380399160178
 51
180.0
  0
ARC
  5
1264
330
2
100
AcDbEntity
  8
0
100
AcDbCircle
 10
98.29763281332544
 20
283.4327065241261
 30
0.0
 40
2.049999999999998
100
AcDbArc
 50
180.0
 51
188.0619600839821
  0
LINE
  5
1265
330
2
100
AcDbEntity
  8
0
100
AcDbLine
 10
98.29763281332555
 20
287.4327065241261
 30
0.0
 11
94.79763281332555
 21
287.4327065241261
 31
0.0
  0
ARC
  5
1266
330
2
100
AcDbEntity
  8
0
100
AcDbCircle
 10
98.29763281332544
 20
283.4327065241261
 30
0.0
 40
2.049999999999998
100
AcDbArc
 50
0.0
 51
8.061960083982105
  0
ARC
  5
1267
330
2
100
AcDbEntity
  8
0
100
AcDbCircle
 10
98.29763281332544
 20
283.4327065241261
 30
0.0
 40
2.049999999999998
100
AcDbArc
 50
351.9380399160179
 51
0.0
  0
LINE
  5
1268
330
2
100
AcDbEntity
  8
0
100
AcDbLine
 10
92.79760281332551
 20
299.4327065241261
 30
0.0
 11
89.29760281332551
 21
302.9327065241261
 31
0.0
  0
LINE
  5
1269
330
2
100
AcDbEntity
  8
0
100
AcDbLine
 10
93.79760281332551
 20
297.4327065241261
 30
0.0
 11
94.7976028133255
 21
297.4327065241261
 31
0.0
  0
ARC
  5
126A
330
2
100
AcDbEntity
  8
0
100
AcDbCircle
 10
93.7976028133254
 20
298.4327065241261
 30
0.0
 40
1.0
100
AcDbArc
 50
180.0
 51
270.0
  0
LINE
  5
126B
330
2
100
AcDbEntity
  8
0
100
AcDbLine
 10
89.29760281332551
 20
306.9327065241261
 30
0.0
 11
89.29760281332551
 21
302.9327065241261
 31
0.0
  0
LINE
  5
126C
330
2
100
AcDbEntity
  8
0
100
AcDbLine
 10
97.19760381332548
 20
328.5326975241261
 30
0.0
 11
137.2975028133255
 21
328.5326975241261
 31
0.0
  0
LINE
  5
126D
330
2
100
AcDbEntity
  8
0
100
AcDbLine
 10
93.79760281332551
 20
312.4327065241261
 30
0.0
 11
94.7976028133255
 21
312.4327065241261
 31
0.0
  0
ARC
  5
126E
330
2
100
AcDbEntity
  8
0
100
AcDbCircle
 10
93.79761781332547
 20
311.4327065241261
 30
0.0
 40
1.0
100
AcDbArc
 50
90.0
 51
180.0
  0
LINE
  5
126F
330
2
100
AcDbEntity
  8
0
100
AcDbLine
 10
94.7976028133255
 20
327.9327065241261
 30
0.0
 11
96.79760281332551
 21
329.9327065241261
 31
0.0
  0
LINE
  5
1270
330
2
100
AcDbEntity
  8
0
100
AcDbLine
 10
96.19759681332551
 20
327.5326975241261
 30
0.0
 11
97.19760381332548
 21
328.5326975241261
 31
0.0
  0
ARC
  5
1271
330
2
100
AcDbEntity
  8
0
100
AcDbCircle
 10
141.2977018133254
 20
326.4327065241261
 30
0.0
 40
2.049999999999998
100
AcDbArc
 50
171.9380399160178
 51
180.0
  0
ARC
  5
1272
330
2
100
AcDbEntity
  8
0
100
AcDbCircle
 10
141.2977018133254
 20
326.4327065241261
 30
0.0
 40
2.049999999999998
100
AcDbArc
 50
180.0
 51
188.0619600839821
  0
LINE
  5
1273
330
2
100
AcDbEntity
  8
0
100
AcDbLine
 10
137.2975028133255
 20
326.4327065241261
 30
0.0
 11
137.2975028133255
 21
329.9327065241261
 31
0.0
  0
LINE
  5
1274
330
2
100
AcDbEntity
  8
0
100
AcDbLine
 10
143.3977078133255
 20
282.3327005241261
 30
0.0
 11
143.3977078133255
 21
322.4327065241261
 31
0.0
  0
LINE
  5
1275
330
2
100
AcDbEntity
  8
0
100
AcDbLine
 10
144.7975028133255
 20
327.9327065241261
 30
0.0
 11
144.7975028133254
 21
281.9327065241261
 31
0.0
  0
LINE
  5
1276
330
2
100
AcDbEntity
  8
0
100
AcDbLine
 10
142.3977078133255
 20
281.3327005241261
 30
0.0
 11
143.3977078133255
 21
282.3327005241261
 31
0.0
  0
LINE
  5
1277
330
2
100
AcDbEntity
  8
0
100
AcDbLine
 10
141.2975028133255
 20
322.4327065241261
 30
0.0
 11
144.7975028133255
 21
322.4327065241261
 31
0.0
  0
LINE
  5
1278
330
2
100
AcDbEntity
  8
0
100
AcDbLine
 10
144.7975028133255
 20
327.9327065241261
 30
0.0
 11
142.7975028133255
 21
329.9327065241261
 31
0.0
  0
LINE
  5
1279
330
2
100
AcDbEntity
  8
0
100
AcDbLine
 10
142.7975028133255
 20
329.9327065241261
 30
0.0
 11
144.7975028133255
 21
327.9327065241261
 31
0.0
  0
ARC
  5
127A
330
2
100
AcDbEntity
  8
0
100
AcDbCircle
 10
141.2977018133254
 20
326.4327065241261
 30
0.0
 40
2.049999999999998
100
AcDbArc
 50
90.0
 51
98.06196008398188
  0
ARC
  5
127B
330
2
100
AcDbEntity
  8
0
100
AcDbCircle
 10
141.2977018133254
 20
326.4327065241261
 30
0.0
 40
2.049999999999998
100
AcDbArc
 50
81.93803991601813
 51
90.0
  0
ARC
  5
127C
330
2
100
AcDbEntity
  8
0
100
AcDbCircle
 10
141.2977018133254
 20
326.4327065241261
 30
0.0
 40
2.049999999999998
100
AcDbArc
 50
261.9380399160181
 51
270.0
  0
ARC
  5
127D
330
2
100
AcDbEntity
  8
0
100
AcDbCircle
 10
141.2977018133254
 20
326.4327065241261
 30
0.0
 40
2.049999999999998
100
AcDbArc
 50
270.0
 51
278.0619600839818
  0
ARC
  5
127E
330
2
100
AcDbEntity
  8
0
100
AcDbCircle
 10
141.2977018133254
 20
326.4327065241261
 30
0.0
 40
2.049999999999998
100
AcDbArc
 50
0.0
 51
8.061960083982105
  0
ARC
  5
127F
330
2
100
AcDbEntity
  8
0
100
AcDbCircle
 10
143.3274018133256
 20
324.4030065241261
 30
0.0
 40
1.742199999999999
100
AcDbArc
 50
89.9986903345035
 51
180.0013096654997
  0
ARC
  5
1280
330
2
100
AcDbEntity
  8
0
100
AcDbCircle
 10
141.2977018133254
 20
326.4327065241261
 30
0.0
 40
2.049999999999998
100
AcDbArc
 50
351.9380399160179
 51
0.0
  0
ARC
  5
1281
330
2
100
AcDbEntity
  8
0
100
AcDbCircle
 10
143.3274018133256
 20
328.462406524126
 30
0.0
 40
1.742199999999999
100
AcDbArc
 50
179.9986903345002
 51
270.0013096654964
  0
LINE
  5
1356
330
2
100
AcDbEntity
  8
0
100
AcDbLine
 10
94.29760981332547
 20
312.4327065241261
 30
0.0
 11
94.29760981332547
 21
344.9327065241261
 31
0.0
  0
ARC
  5
1375
330
2
100
AcDbEntity
  8
0
100
AcDbCircle
 10
375.2019335259357
 20
130.0127085241261
 30
0.0
 40
2.0
100
AcDbArc
 50
270.0
 51
311.1850544871383
  0
ARC
  5
1376
330
2
100
AcDbEntity
  8
0
100
AcDbCircle
 10
375.2019335259357
 20
86.01271552412617
 30
0.0
 40
2.0
100
AcDbArc
 50
0.000000000000007
 51
90.0
  0
ARC
  5
1377
330
2
100
AcDbEntity
  8
0
100
AcDbCircle
 10
196.7976178133254
 20
337.9327065241261
 30
0.0
 40
2.0
100
AcDbArc
 50
270.0
 51
0.0
  0
LINE
  5
1378
330
2
100
AcDbEntity
  8
0
100
AcDbLine
 10
237.7976218133254
 20
339.9327065241261
 30
0.0
 11
199.7976178133254
 21
339.9327065241261
 31
0.0
  0
LINE
  5
1379
330
2
100
AcDbEntity
  8
0
100
AcDbLine
 10
198.7976178133254
 20
338.9327065241261
 30
0.0
 11
198.7976178133254
 21
337.9327065241261
 31
0.0
  0
ARC
  5
137A
330
2
100
AcDbEntity
  8
0
100
AcDbCircle
 10
199.7976178133255
 20
338.9327065241261
 30
0.0
 40
1.0
100
AcDbArc
 50
90.0
 51
180.0
  0
ARC
  5
137B
330
2
100
AcDbEntity
  8
0
100
AcDbCircle
 10
240.7976108133255
 20
337.9327065241261
 30
0.0
 40
2.0
100
AcDbArc
 50
180.0
 51
270.0
  0
LINE
  5
137C
330
2
100
AcDbEntity
  8
0
100
AcDbLine
 10
238.7976218133254
 20
338.9327065241261
 30
0.0
 11
238.7976218133254
 21
337.9327065241261
 31
0.0
  0
ARC
  5
137D
330
2
100
AcDbEntity
  8
0
100
AcDbCircle
 10
237.7976218133254
 20
338.9327065241261
 30
0.0
 40
1.0
100
AcDbArc
 50
0.0
 51
90.0
  0
ENDSEC
  0
SECTION
  2
OBJECTS
  0
DICTIONARY
  5
7
330
0
100
AcDbDictionary
  3
ACAD_GROUP
350
75
  3
ACAD_LAYOUT
350
61
  3
ACAD_MLINESTYLE
350
76
  3
ACAD_PLOTSETTINGS
350
77
  3
ACAD_PLOTSTYLENAME
350
6
  3
ACADDIM
350
480
  3
ACDBHEADERROUNDTRIPXREC
350
13C2
  3
ACDBVARIABLEDICTIONARY
350
102
  3
DWGPROPS
350
3D2
  0
DICTIONARY
  5
13E3
330
2
100
AcDbDictionary
280
     1
  3
ACAD_LAYOUTSELFREF
360
13E4
  0
DICTIONARY
  5
13E5
330
13BC
100
AcDbDictionary
280
     1
  3
ACAD_LAYOUTSELFREF
360
13E6
  0
DICTIONARY
  5
75
102
{ACAD_REACTORS
330
7
102
}
330
7
100
AcDbDictionary
  0
DICTIONARY
  5
61
102
{ACAD_REACTORS
330
7
102
}
330
7
100
AcDbDictionary
  0
DICTIONARY
  5
76
102
{ACAD_REACTORS
330
7
102
}
330
7
100
AcDbDictionary
  3
STANDARD
350
78
  0
DICTIONARY
  5
77
102
{ACAD_REACTORS
330
7
102
}
330
7
100
AcDbDictionary
  0
ACDBDICTIONARYWDFLT
  5
6
102
{ACAD_REACTORS
330
7
102
}
330
7
100
AcDbDictionary
281
     1
  3
Normal
350
5
100
AcDbDictionaryWithDefault
340
5
  0
XRECORD
  5
480
102
{ACAD_REACTORS
330
7
102
}
330
7
100
AcDbXrecord
 90
   990106
  3

 60
     0
 61
     0
 62
     1
 63
     3
 64
     1
 65
     0
 66
     0
 67
     3
 68
     1
 69
     0
 70
     0
 71
     0
 72
     0
 40
0.0
170
     2
340
0
  0
DICTIONARY
  5
13C2
102
{ACAD_REACTORS
330
7
102
}
330
7
100
AcDbDictionary
  3
CEPSNTYPE
350
13CC
  3
DIMSTYLEDATA
350
13D0
  3
FINGERPRINTGUID
350
13CD
  3
HYPERLINKBASE
350
13C5
  3
INSUNITS
350
13CB
  3
LAYOUTDICT
350
13C7
  3
LWETCUNION
350
13CA
  3
PLOTSETDICT
350
13C8
  3
PLOTSTYLNAMDICT
350
13C9
  3
PSVPSCALE
350
13CF
  3
PUCSBASE
350
13D3
  3
PUCSORGBACK
350
13D9
  3
PUCSORGBOTTOM
350
13D5
  3
PUCSORGFRONT
350
13D8
  3
PUCSORGLEFT
350
13D6
  3
PUCSORGRIGHT
350
13D7
  3
PUCSORGTOP
350
13D4
  3
PUCSORTHOREF
350
13D1
  3
PUCSORTHOVIEW
350
13D2
  3
STYLESHEET
350
13C6
  3
TSTACKALIGN
350
13C3
  3
TSTACKSIZE
350
13C4
  3
UCSBASE
350
13DC
  3
UCSORGBACK
350
13E2
  3
UCSORGBOTTOM
350
13DE
  3
UCSORGFRONT
350
13E1
  3
UCSORGLEFT
350
13DF
  3
UCSORGRIGHT
350
13E0
  3
UCSORGTOP
350
13DD
  3
UCSORTHOREF
350
13DA
  3
UCSORTHOVIEW
350
13DB
  3
VERSIONGUID
350
13CE
  0
DICTIONARY
  5
102
102
{ACAD_REACTORS
330
7
102
}
330
7
100
AcDbDictionary
  3
DIMASSOC
350
103
  0
XRECORD
  5
3D2
102
{ACAD_REACTORS
330
7
102
}
330
7
100
AcDbXrecord
  1
DWGPROPS COOKIE
  2

  3

  4

  6

  7

  8

  9

300
=
301
=
302
=
303
=
304
=
305
=
306
=
307
=
308
=
309
=
 40
0.5353330671296296
 41
2452052.431989363
 42
2453406.550756377
  1

 90
        0
  0
XRECORD
  5
13E4
102
{ACAD_REACTORS
330
13E3
102
}
330
13E3
100
AcDbXrecord
340
2
  0
XRECORD
  5
13E6
102
{ACAD_REACTORS
330
13E5
102
}
330
13E5
100
AcDbXrecord
340
13BC
  0
MLINESTYLE
  5
78
102
{ACAD_REACTORS
330
76
102
}
330
76
100
AcDbMlineStyle
  2
STANDARD
 70
     0
  3

 62
     0
 51
90.0
 52
90.0
 71
     2
 49
0.5
 62
   256
  6
BYLAYER
 49
-0.5
 62
   256
  6
BYLAYER
  0
ACDBPLACEHOLDER
  5
5
102
{ACAD_REACTORS
330
6
102
}
330
6
100
AcDbPlaceHolder
280
     0
  0
XRECORD
  5
13CC
102
{ACAD_REACTORS
330
13C2
102
}
330
13C2
100
AcDbXrecord
 90
        0
  0
XRECORD
  5
13D0
102
{ACAD_REACTORS
330
13C2
102
}
330
13C2
100
AcDbXrecord
1000
DSTYLE
1002
{
1070
   179
 70
     2
1070
   277
 70
     6
1002
}
  0
XRECORD
  5
13CD
102
{ACAD_REACTORS
330
13C2
102
}
330
13C2
100
AcDbXrecord
  1
{6385560B-F4B1-4644-A7C2-A3E32AC3D232}
  0
XRECORD
  5
13C5
102
{ACAD_REACTORS
330
13C2
102
}
330
13C2
100
AcDbXrecord
  1

  0
XRECORD
  5
13CB
102
{ACAD_REACTORS
330
13C2
102
}
330
13C2
100
AcDbXrecord
 90
        0
  0
XRECORD
  5
13C7
102
{ACAD_REACTORS
330
13C2
102
}
330
13C2
100
AcDbXrecord
340
61
  0
XRECORD
  5
13CA
102
{ACAD_REACTORS
330
13C2
102
}
330
13C2
100
AcDbXrecord
 90
    10781
  0
XRECORD
  5
13C8
102
{ACAD_REACTORS
330
13C2
102
}
330
13C2
100
AcDbXrecord
340
77
  0
XRECORD
  5
13C9
102
{ACAD_REACTORS
330
13C2
102
}
330
13C2
100
AcDbXrecord
340
6
  0
XRECORD
  5
13CF
102
{ACAD_REACTORS
330
13C2
102
}
330
13C2
100
AcDbXrecord
 40
0.0
  0
XRECORD
  5
13D3
102
{ACAD_REACTORS
330
13C2
102
}
330
13C2
100
AcDbXrecord
340
0
  0
XRECORD
  5
13D9
102
{ACAD_REACTORS
330
13C2
102
}
330
13C2
100
AcDbXrecord
 10
0.0
 20
0.0
 30
0.0
  0
XRECORD
  5
13D5
102
{ACAD_REACTORS
330
13C2
102
}
330
13C2
100
AcDbXrecord
 10
0.0
 20
0.0
 30
0.0
  0
XRECORD
  5
13D8
102
{ACAD_REACTORS
330
13C2
102
}
330
13C2
100
AcDbXrecord
 10
0.0
 20
0.0
 30
0.0
  0
XRECORD
  5
13D6
102
{ACAD_REACTORS
330
13C2
102
}
330
13C2
100
AcDbXrecord
 10
0.0
 20
0.0
 30
0.0
  0
XRECORD
  5
13D7
102
{ACAD_REACTORS
330
13C2
102
}
330
13C2
100
AcDbXrecord
 10
0.0
 20
0.0
 30
0.0
  0
XRECORD
  5
13D4
102
{ACAD_REACTORS
330
13C2
102
}
330
13C2
100
AcDbXrecord
 10
0.0
 20
0.0
 30
0.0
  0
XRECORD
  5
13D1
102
{ACAD_REACTORS
330
13C2
102
}
330
13C2
100
AcDbXrecord
340
0
  0
XRECORD
  5
13D2
102
{ACAD_REACTORS
330
13C2
102
}
330
13C2
100
AcDbXrecord
 70
     0
  0
XRECORD
  5
13C6
102
{ACAD_REACTORS
330
13C2
102
}
330
13C2
100
AcDbXrecord
  1
Sekkei.ctb
  0
XRECORD
  5
13C3
102
{ACAD_REACTORS
330
13C2
102
}
330
13C2
100
AcDbXrecord
 90
        1
  0
XRECORD
  5
13C4
102
{ACAD_REACTORS
330
13C2
102
}
330
13C2
100
AcDbXrecord
 90
       70
  0
XRECORD
  5
13DC
102
{ACAD_REACTORS
330
13C2
102
}
330
13C2
100
AcDbXrecord
340
0
  0
XRECORD
  5
13E2
102
{ACAD_REACTORS
330
13C2
102
}
330
13C2
100
AcDbXrecord
 10
0.0
 20
0.0
 30
0.0
  0
XRECORD
  5
13DE
102
{ACAD_REACTORS
330
13C2
102
}
330
13C2
100
AcDbXrecord
 10
0.0
 20
0.0
 30
0.0
  0
XRECORD
  5
13E1
102
{ACAD_REACTORS
330
13C2
102
}
330
13C2
100
AcDbXrecord
 10
0.0
 20
0.0
 30
0.0
  0
XRECORD
  5
13DF
102
{ACAD_REACTORS
330
13C2
102
}
330
13C2
100
AcDbXrecord
 10
0.0
 20
0.0
 30
0.0
  0
XRECORD
  5
13E0
102
{ACAD_REACTORS
330
13C2
102
}
330
13C2
100
AcDbXrecord
 10
0.0
 20
0.0
 30
0.0
  0
XRECORD
  5
13DD
102
{ACAD_REACTORS
330
13C2
102
}
330
13C2
100
AcDbXrecord
 10
0.0
 20
0.0
 30
0.0
  0
XRECORD
  5
13DA
102
{ACAD_REACTORS
330
13C2
102
}
330
13C2
100
AcDbXrecord
340
0
  0
XRECORD
  5
13DB
102
{ACAD_REACTORS
330
13C2
102
}
330
13C2
100
AcDbXrecord
 70
     0
  0
XRECORD
  5
13CE
102
{ACAD_REACTORS
330
13C2
102
}
330
13C2
100
AcDbXrecord
  1
{787C0BB5-240E-4D3C-8DA6-949D0171359E}
  0
DICTIONARYVAR
  5
103
102
{ACAD_REACTORS
330
102
102
}
330
102
100
DictionaryVariables
280
     0
  1
1
  0
ENDSEC
  0
EOF
