  0
SECTION
  2
HEADER
  9
$CLAYER
  8
1
  9
$LTSCALE
 40
3.0
  0
ENDSEC
  0
SECTION
  2
TABLES
  0
TABLE
  2
LTYPE
 70
     4
  0
LTYPE
  2
CONTINUOUS
  3
solid line
 70
    64
 72
    65
 73
     0
 40
0.0
  0
LTYPE
  2
DASHED
  3
__ __ __ __ __ __ __ __ __ __ __ __ __ __ __
 70
    64
 72
    65
 73
     2
 40
0.75
 49
0.5
 49
-0.25
  0
LTYPE
  2
CENTER
  3
____ _ ____ _ ____ _ ____ _ ____ _ ____ _ ____
 70
    64
 72
    65
 73
     4
 40
2.0
 49
1.25
 49
-0.25
 49
0.25
 49
-0.25
  0
LTYPE
  2
PHANTOM
  3
_____ _ _ _____ _ _ _____ _ _ _____ _ _ ____
 70
    64
 72
    65
 73
     6
 40
2.5
 49
1.25
 49
-0.25
 49
0.25
 49
-0.25
 49
0.25
 49
-0.25
  0
ENDTAB
  0
TABLE
  2
LAYER
 70
     1
  0
LAYER
  2
0
 70
    64
 62
     7
  6
CONTINUOUS
  0
ENDTAB
  0
TABLE
  2
STYLE
 70
     1
  0
STYLE
  2
STANDARD
 70
     0
 40
0.000000
 41
1.000000
 50
0.000000
 71
     0
 42
3.000000
  3
txt
  4
BIGFONT
  0
ENDTAB
  0
ENDSEC
  0
SECTION
  2
BLOCKS
  0
ENDSEC
  0
SECTION
  2
ENTITIES
  0
LINE
  8
0
  6
CENTER
 10
140.252502
 20
310.265015
 11
140.252502
 21
173.764999
  0
LINE
  8
0
  6
CENTER
 10
-5.247500
 20
241.764999
 11
188.752502
 21
241.764999
  0
LINE
  8
0
  6
CONTINUOUS
 10
178.944992
 20
272.765015
 11
99.700813
 21
272.765015
  0
LINE
  8
0
  6
CONTINUOUS
 10
95.620888
 20
279.765015
 11
25.252501
 21
279.765015
  0
LINE
  8
0
  6
CONTINUOUS
 10
66.252487
 20
264.765015
 11
101.172180
 21
264.765015
  0
LINE
  8
0
  6
CONTINUOUS
 10
98.543358
 20
210.764999
 11
181.542664
 21
210.764999
  0
LINE
  8
0
  6
CONTINUOUS
 10
96.238892
 20
203.764999
 11
25.252501
 21
203.764999
  0
LINE
  8
0
  6
CONTINUOUS
 10
66.252495
 20
218.764999
 11
97.307343
 21
218.764999
  0
LINE
  8
0
  6
CONTINUOUS
 10
132.752502
 20
177.764999
 11
132.752502
 21
201.764999
  0
LINE
  8
0
  6
CONTINUOUS
 10
132.752502
 20
177.764999
 11
149.752502
 21
177.764999
  0
LINE
  8
0
  6
CONTINUOUS
 10
120.252502
 20
275.765015
 11
120.252502
 21
272.765015
  0
LINE
  8
0
  6
CONTINUOUS
 10
160.252502
 20
275.765015
 11
160.252502
 21
272.765015
  0
LINE
  8
0
  6
CONTINUOUS
 10
159.252502
 20
276.765015
 11
121.252502
 21
276.765015
  0
ARC
  8
0
  6
CONTINUOUS
 10
121.252502
 20
275.765015
 40
1.000000
 50
90.000000
 51
180.000000
  0
ARC
  8
0
  6
CONTINUOUS
 10
159.252502
 20
275.765015
 40
1.000000
 50
0.000000
 51
90.000000
  0
LINE
  8
0
  6
CONTINUOUS
 10
149.752502
 20
201.764999
 11
149.752502
 21
177.764999
  0
LINE
  8
0
  6
CONTINUOUS
 10
147.323502
 20
201.764999
 11
147.323502
 21
177.764999
  0
LINE
  8
0
  6
CONTINUOUS
 10
132.752502
 20
305.765015
 11
132.752502
 21
278.765015
  0
LINE
  8
0
  6
CONTINUOUS
 10
132.752502
 20
305.765015
 11
149.752502
 21
305.765015
  0
LINE
  8
0
  6
CONTINUOUS
 10
131.752502
 20
278.765015
 11
148.752502
 21
278.765015
  0
LINE
  8
0
  6
CONTINUOUS
 10
131.752502
 20
278.765015
 11
131.752502
 21
276.765015
  0
LINE
  8
0
  6
CONTINUOUS
 10
148.752502
 20
278.765015
 11
148.752502
 21
276.765015
  0
LINE
  8
0
  6
CONTINUOUS
 10
149.752502
 20
281.765015
 11
149.752502
 21
305.765015
  0
LINE
  8
0
  6
CONTINUOUS
 10
147.323502
 20
281.765015
 11
147.323502
 21
305.765015
  0
LINE
  8
0
  6
CONTINUOUS
 10
147.323502
 20
281.765015
 11
149.752502
 21
281.765015
  0
LINE
  8
0
  6
CONTINUOUS
 10
147.752502
 20
281.765015
 11
147.752502
 21
278.765015
  0
LINE
  8
0
  6
CONTINUOUS
 10
155.252502
 20
211.764999
 11
155.252502
 21
270.799896
  0
LINE
  8
0
  6
CONTINUOUS
 10
125.252502
 20
211.764999
 11
125.252502
 21
270.799896
  0
LINE
  8
0
  6
CONTINUOUS
 10
97.543083
 20
264.767731
 11
97.701500
 21
270.817352
  0
LINE
  8
0
  6
CONTINUOUS
 10
102.027107
 20
211.946243
 11
102.027107
 21
262.765259
  0
LINE
  8
0
  6
CONTINUOUS
 10
97.752502
 20
201.764999
 11
182.752502
 21
201.764999
  0
LINE
  8
0
  6
CONTINUOUS
 10
180.944305
 20
270.817352
 11
182.752502
 21
201.764999
  0
ARC
  8
0
  6
CONTINUOUS
 10
178.944992
 20
270.765015
 40
2.000000
 50
1.500000
 51
90.000000
  0
LINE
  8
0
  6
CONTINUOUS
 10
96.705063
 20
241.764999
 11
97.752502
 21
201.764999
  0
LINE
  8
0
  6
CONTINUOUS
 10
180.175201
 20
201.764999
 11
180.175201
 21
209.454681
  0
LINE
  8
0
  6
CONTINUOUS
 10
100.329803
 20
201.764999
 11
100.329803
 21
209.454681
  0
ARC
  8
0
  6
CONTINUOUS
 10
124.252502
 20
211.764999
 40
1.000000
 50
-90.000000
 51
0.000000
  0
ARC
  8
0
  6
CONTINUOUS
 10
156.252502
 20
211.764999
 40
1.000000
 50
180.000000
 51
270.000000
  0
LINE
  8
0
  6
CONTINUOUS
 10
125.252502
 20
212.085007
 11
155.252502
 21
212.085007
  0
ARC
  8
0
  6
CONTINUOUS
 10
181.542664
 20
209.764999
 40
1.000000
 50
1.499998
 51
90.000000
  0
LINE
  8
0
  6
CONTINUOUS
 10
97.620201
 20
277.817352
 11
97.701500
 21
274.712646
  0
ARC
  8
0
  6
CONTINUOUS
 10
98.543358
 20
209.764999
 40
1.000000
 50
90.000000
 51
181.500000
  0
ARC
  8
0
  6
CONTINUOUS
 10
96.238892
 20
202.264999
 40
1.500000
 50
1.499999
 51
90.000000
  0
ARC
  8
0
  6
CONTINUOUS
 10
95.620888
 20
277.765015
 40
2.000000
 50
1.500000
 51
90.000000
  0
ARC
  8
0
  6
CONTINUOUS
 10
99.700813
 20
274.765015
 40
2.000000
 50
181.500000
 51
270.000000
  0
ARC
  8
0
  6
CONTINUOUS
 10
99.700813
 20
270.765015
 40
2.000000
 50
90.000000
 51
178.500000
  0
LINE
  8
0
  6
CENTER
 10
172.252502
 20
197.874847
 11
172.252502
 21
215.015625
  0
LINE
  8
0
  6
DASHED
 10
175.502502
 20
210.764999
 11
175.502502
 21
201.764999
  0
LINE
  8
0
  6
DASHED
 10
169.002502
 20
210.764999
 11
169.002502
 21
201.764999
  0
LINE
  8
0
  6
CENTER
 10
108.252502
 20
197.874847
 11
108.252502
 21
215.015625
  0
LINE
  8
0
  6
DASHED
 10
105.002502
 20
210.764999
 11
105.002502
 21
201.764999
  0
LINE
  8
0
  6
DASHED
 10
111.502502
 20
210.764999
 11
111.502502
 21
201.764999
  0
LINE
  8
0
  6
CONTINUOUS
 10
25.252501
 20
279.765015
 11
25.252501
 21
266.765015
  0
LINE
  8
0
  6
CONTINUOUS
 10
25.252501
 20
279.765015
 11
8.716610
 21
279.765015
  0
LINE
  8
0
  6
CONTINUOUS
 10
5.252500
 20
276.765015
 11
5.252500
 21
206.764999
  0
LINE
  8
0
  6
CONTINUOUS
 10
25.252501
 20
203.764999
 11
8.716610
 21
203.764999
  0
LINE
  8
0
  6
CONTINUOUS
 10
16.252501
 20
218.764999
 11
6.834130
 21
218.764999
  0
LINE
  8
0
  6
CONTINUOUS
 10
16.252501
 20
264.765015
 11
6.834130
 21
264.765015
  0
LINE
  8
0
  6
CONTINUOUS
 10
6.118520
 20
278.265015
 11
5.252500
 21
276.765015
  0
ARC
  8
0
  6
CONTINUOUS
 10
8.716610
 20
276.765015
 40
3.000000
 50
90.000000
 51
150.000397
  0
LINE
  8
0
  6
CONTINUOUS
 10
6.118520
 20
205.264999
 11
5.252500
 21
206.764999
  0
ARC
  8
0
  6
CONTINUOUS
 10
8.716610
 20
206.764999
 40
3.000000
 50
-150.000397
 51
-90.000000
  0
LINE
  8
0
  6
CONTINUOUS
 10
4.752500
 20
273.765015
 11
4.752500
 21
209.764999
  0
LINE
  8
0
  6
CONTINUOUS
 10
4.752500
 20
273.765015
 11
5.252500
 21
274.265015
  0
LINE
  8
0
  6
CONTINUOUS
 10
4.752500
 20
209.764999
 11
5.252500
 21
209.264999
  0
LINE
  8
0
  6
CONTINUOUS
 10
25.252501
 20
216.764999
 11
25.252501
 21
203.764999
  0
LINE
  8
0
  6
CONTINUOUS
 10
4.752500
 20
14.656563
 11
4.752500
 21
78.656563
  0
LINE
  8
0
  6
CONTINUOUS
 10
8.716597
 20
84.656563
 11
25.252501
 21
84.656563
  0
LINE
  8
0
  6
CONTINUOUS
 10
8.716603
 20
8.656563
 11
25.252501
 21
8.656563
  0
LINE
  8
0
  6
CONTINUOUS
 10
5.252500
 20
11.656563
 11
5.252500
 21
81.656563
  0
LINE
  8
0
  6
CONTINUOUS
 10
4.752500
 20
78.656563
 11
5.252500
 21
79.156563
  0
LINE
  8
0
  6
CONTINUOUS
 10
4.752500
 20
14.656563
 11
5.252500
 21
14.156563
  0
LINE
  8
0
  6
CONTINUOUS
 10
6.118518
 20
83.156555
 11
5.252500
 21
81.656563
  0
ARC
  8
0
  6
CONTINUOUS
 10
8.716608
 20
81.656570
 40
3.000000
 50
90.000000
 51
150.000397
  0
LINE
  8
0
  6
CONTINUOUS
 10
6.118518
 20
10.156573
 11
5.252500
 21
11.656563
  0
ARC
  8
0
  6
CONTINUOUS
 10
8.716608
 20
11.656553
 40
3.000000
 50
-150.000397
 51
-90.000000
  0
LINE
  8
0
  6
CONTINUOUS
 10
6.834136
 20
76.905563
 11
25.252501
 21
76.905563
  0
LINE
  8
0
  6
CONTINUOUS
 10
25.252501
 20
16.407562
 11
6.834136
 21
16.407562
  0
LINE
  8
0
  6
CONTINUOUS
 10
25.252501
 20
8.656563
 11
25.252501
 21
84.656563
  0
LINE
  8
0
  6
CENTER
 10
-3.081250
 20
46.656563
 11
118.410004
 21
46.656563
  0
LINE
  8
0
  6
CONTINUOUS
 10
25.252501
 20
84.656563
 11
98.172493
 21
84.656563
  0
LINE
  8
0
  6
CONTINUOUS
 10
95.752502
 20
8.656563
 11
25.252501
 21
8.656563
  0
LINE
  8
0
  6
CONTINUOUS
 10
108.252502
 20
4.956563
 11
172.252502
 21
4.956563
  0
LINE
  8
0
  6
CONTINUOUS
 10
108.252502
 20
106.956566
 11
172.252502
 21
106.956566
  0
LINE
  8
0
  6
CONTINUOUS
 10
97.752502
 20
81.656563
 11
97.752502
 21
30.256563
  0
LINE
  8
0
  6
CENTER
 10
140.252502
 20
119.344063
 11
140.252502
 21
-4.280937
  0
LINE
  8
0
  6
CENTER
 10
172.252502
 20
19.094063
 11
172.252502
 21
7.594063
  0
LINE
  8
0
  6
CENTER
 10
166.408798
 20
12.956563
 11
178.658798
 21
12.956563
  0
CIRCLE
  8
0
  6
CONTINUOUS
 10
172.252502
 20
12.956563
 40
3.250000
  0
LINE
  8
0
  6
CENTER
 10
172.252502
 20
92.819061
 11
172.252502
 21
104.319061
  0
LINE
  8
0
  6
CENTER
 10
166.408798
 20
98.956566
 11
178.658798
 21
98.956566
  0
CIRCLE
  8
0
  6
CONTINUOUS
 10
172.252502
 20
98.956566
 40
3.250000
  0
LINE
  8
0
  6
CENTER
 10
108.252502
 20
92.819061
 11
108.252502
 21
104.319061
  0
LINE
  8
0
  6
CENTER
 10
114.096298
 20
98.956566
 11
101.846298
 21
98.956566
  0
CIRCLE
  8
0
  6
CONTINUOUS
 10
108.252502
 20
98.956566
 40
3.250000
  0
LINE
  8
0
  6
CENTER
 10
108.252502
 20
19.094063
 11
108.252502
 21
7.594063
  0
LINE
  8
0
  6
CENTER
 10
114.096298
 20
12.956563
 11
101.846298
 21
12.956563
  0
CIRCLE
  8
0
  6
CONTINUOUS
 10
108.252502
 20
12.956563
 40
3.250000
  0
LINE
  8
0
  6
CONTINUOUS
 10
180.252502
 20
70.317963
 11
180.252502
 21
41.595425
  0
LINE
  8
0
  6
CONTINUOUS
 10
100.252502
 20
70.317833
 11
100.252502
 21
41.595024
  0
ARC
  8
0
  6
CONTINUOUS
 10
140.252502
 20
55.956562
 40
42.500000
 50
19.749901
 51
160.250107
  0
ARC
  8
0
  6
CONTINUOUS
 10
140.252502
 20
55.956562
 40
42.500000
 50
199.749893
 51
340.250092
  0
LINE
  8
0
  6
CONTINUOUS
 10
182.752502
 20
81.656563
 11
182.752502
 21
30.256573
  0
LINE
  8
0
  6
CONTINUOUS
 10
180.175201
 20
100.065720
 11
182.752502
 21
81.656563
  0
LINE
  8
0
  6
CONTINUOUS
 10
180.175201
 20
11.847443
 11
182.752502
 21
30.256573
  0
LINE
  8
0
  6
CONTINUOUS
 10
100.329803
 20
11.847363
 11
97.752502
 21
30.256563
  0
LINE
  8
0
  6
CONTINUOUS
 10
100.329803
 20
100.065712
 11
97.752502
 21
81.656563
  0
LINE
  8
0
  6
CENTER
 10
109.129997
 20
68.956566
 11
170.785004
 21
68.956566
  0
LINE
  8
0
  6
CONTINUOUS
 10
149.752502
 20
71.456566
 11
149.752502
 21
66.456566
  0
LINE
  8
0
  6
CONTINUOUS
 10
144.752502
 20
66.456566
 11
144.752502
 21
71.456566
  0
LINE
  8
0
  6
CONTINUOUS
 10
144.752502
 20
71.456566
 11
149.752502
 21
71.456566
  0
LINE
  8
0
  6
CONTINUOUS
 10
144.752502
 20
66.456566
 11
149.752502
 21
66.456566
  0
ARC
  8
0
  6
CONTINUOUS
 10
140.252502
 20
68.956566
 40
7.500000
 50
19.471201
 51
340.528809
  0
LINE
  8
0
  6
CONTINUOUS
 10
120.252502
 20
102.956566
 11
160.252502
 21
102.956566
  0
LINE
  8
0
  6
CONTINUOUS
 10
120.252502
 20
8.956563
 11
160.252502
 21
8.956563
  0
LINE
  8
0
  6
CONTINUOUS
 10
177.877594
 20
87.627060
 11
180.276794
 21
70.489990
  0
LINE
  8
0
  6
CONTINUOUS
 10
180.254898
 20
41.266296
 11
177.877594
 21
24.286062
  0
LINE
  8
0
  6
CONTINUOUS
 10
100.303001
 20
40.888641
 11
102.627403
 21
24.286074
  0
LINE
  8
0
  6
CONTINUOUS
 10
102.627403
 20
87.627052
 11
100.169159
 21
70.068245
  0
ARC
  8
0
  6
CONTINUOUS
 10
160.252502
 20
98.956566
 40
4.000000
 50
0.000000
 51
90.000000
  0
ARC
  8
0
  6
CONTINUOUS
 10
120.252502
 20
98.956566
 40
4.000000
 50
90.000000
 51
180.000000
  0
ARC
  8
0
  6
CONTINUOUS
 10
160.252502
 20
12.956563
 40
4.000000
 50
-90.000000
 51
0.000000
  0
ARC
  8
0
  6
CONTINUOUS
 10
120.252502
 20
12.956563
 40
4.000000
 50
-180.000000
 51
-90.000000
  0
ARC
  8
0
  6
CONTINUOUS
 10
173.916306
 20
87.072464
 40
4.000000
 50
7.969701
 51
97.969757
  0
ARC
  8
0
  6
CONTINUOUS
 10
172.252502
 20
98.956566
 40
8.000000
 50
180.000000
 51
277.969513
  0
ARC
  8
0
  6
CONTINUOUS
 10
172.252502
 20
98.956566
 40
8.000000
 50
7.969647
 51
90.000000
  0
ARC
  8
0
  6
CONTINUOUS
 10
106.588699
 20
87.072464
 40
4.000000
 50
82.030243
 51
172.030304
  0
ARC
  8
0
  6
CONTINUOUS
 10
173.916306
 20
24.840664
 40
4.000000
 50
-97.969757
 51
-7.969701
  0
ARC
  8
0
  6
CONTINUOUS
 10
106.588699
 20
24.840664
 40
4.000000
 50
-172.030304
 51
-82.030243
  0
ARC
  8
0
  6
CONTINUOUS
 10
108.252502
 20
98.956566
 40
8.000000
 50
90.000000
 51
172.030502
  0
ARC
  8
0
  6
CONTINUOUS
 10
108.252502
 20
98.956566
 40
8.000000
 50
-97.969597
 51
0.000000
  0
ARC
  8
0
  6
CONTINUOUS
 10
108.252502
 20
12.956563
 40
8.000000
 50
0.000000
 51
97.969818
  0
ARC
  8
0
  6
CONTINUOUS
 10
108.252502
 20
12.956563
 40
8.000000
 50
187.969604
 51
270.000000
  0
ARC
  8
0
  6
CONTINUOUS
 10
172.252502
 20
12.956563
 40
8.000000
 50
270.000000
 51
352.030304
  0
ARC
  8
0
  6
CONTINUOUS
 10
172.252502
 20
12.956563
 40
8.000000
 50
82.030350
 51
180.000000
  0
LINE
  8
0
  6
CONTINUOUS
 10
97.752502
 20
10.656563
 11
97.752502
 21
16.656572
  0
ARC
  8
0
  6
CONTINUOUS
 10
95.752502
 20
10.656563
 40
2.000000
 50
-90.000000
 51
0.000000
  0
ARC
  8
0
  6
CONTINUOUS
 10
102.752502
 20
16.656584
 40
5.000000
 50
135.792801
 51
180.000000
  0
LINE
  8
0
  6
CONTINUOUS
 10
25.252501
 20
76.905533
 11
97.002502
 21
76.905533
  0
LINE
  8
0
  6
CONTINUOUS
 10
25.252501
 20
16.407602
 11
97.252502
 21
16.407602
  0
CIRCLE
  8
0
  6
CONTINUOUS
 10
140.252502
 20
68.956566
 40
20.000000
  0
LINE
  8
0
  6
CONTINUOUS
 10
133.877502
 20
36.509792
 11
133.877502
 21
30.956564
  0
LINE
  8
0
  6
CONTINUOUS
 10
137.065002
 20
38.526878
 11
137.065002
 21
40.519066
  0
LINE
  8
0
  6
CONTINUOUS
 10
143.440002
 20
38.526878
 11
143.440002
 21
40.519066
  0
LINE
  8
0
  6
CONTINUOUS
 10
139.629898
 20
39.348656
 11
139.629898
 21
32.002464
  0
LINE
  8
0
  6
CONTINUOUS
 10
140.825302
 20
39.348656
 11
140.825302
 21
32.002464
  0
LINE
  8
0
  6
CONTINUOUS
 10
147.100601
 20
39.348656
 11
147.100601
 21
31.952663
  0
LINE
  8
0
  6
CONTINUOUS
 10
148.196304
 20
35.426533
 11
148.196304
 21
31.952663
  0
LINE
  8
0
  6
CONTINUOUS
 10
132.365005
 20
39.249046
 11
129.293106
 21
39.249046
  0
LINE
  8
0
  6
CONTINUOUS
 10
129.293106
 20
39.249046
 11
128.573303
 21
38.356537
  0
LINE
  8
0
  6
CONTINUOUS
 10
128.659897
 20
40.519066
 11
127.502502
 21
39.037064
  0
LINE
  8
0
  6
CONTINUOUS
 10
128.573303
 20
32.847485
 11
129.304596
 21
32.077171
  0
LINE
  8
0
  6
CONTINUOUS
 10
127.502502
 20
32.197422
 11
128.732300
 21
30.956564
  0
LINE
  8
0
  6
CONTINUOUS
 10
127.502502
 20
39.037064
 11
127.502502
 21
32.197422
  0
LINE
  8
0
  6
CONTINUOUS
 10
128.573303
 20
38.356537
 11
128.573303
 21
32.847485
  0
LINE
  8
0
  6
CONTINUOUS
 10
132.956100
 20
38.677597
 11
132.352905
 21
39.249046
  0
LINE
  8
0
  6
CONTINUOUS
 10
132.946503
 20
40.519066
 11
133.877502
 21
39.485924
  0
LINE
  8
0
  6
CONTINUOUS
 10
132.956100
 20
38.526878
 11
133.877502
 21
38.526878
  0
LINE
  8
0
  6
CONTINUOUS
 10
128.659897
 20
40.519066
 11
132.946503
 21
40.519066
  0
LINE
  8
0
  6
CONTINUOUS
 10
132.956100
 20
35.463894
 11
131.287704
 21
35.463894
  0
LINE
  8
0
  6
CONTINUOUS
 10
132.956100
 20
34.467793
 11
132.956100
 21
35.264671
  0
LINE
  8
0
  6
CONTINUOUS
 10
130.963898
 20
32.077171
 11
129.304596
 21
32.077171
  0
ARC
  8
0
  6
CONTINUOUS
 10
130.963898
 20
34.069351
 40
1.992187
 50
-89.999786
 51
0.000109
  0
LINE
  8
0
  6
CONTINUOUS
 10
132.956100
 20
31.718822
 11
132.956100
 21
30.956564
  0
LINE
  8
0
  6
CONTINUOUS
 10
133.877502
 20
39.485924
 11
133.877502
 21
38.526878
  0
LINE
  8
0
  6
CONTINUOUS
 10
132.956100
 20
35.463894
 11
132.956100
 21
34.069351
  0
LINE
  8
0
  6
CONTINUOUS
 10
131.287704
 20
36.509792
 11
131.287704
 21
35.463894
  0
LINE
  8
0
  6
CONTINUOUS
 10
132.956100
 20
30.956564
 11
133.877502
 21
30.956564
  0
LINE
  8
0
  6
CONTINUOUS
 10
132.956100
 20
31.718822
 11
132.047607
 21
30.956564
  0
LINE
  8
0
  6
CONTINUOUS
 10
140.825302
 20
32.002464
 11
141.223694
 21
32.002464
  0
LINE
  8
0
  6
CONTINUOUS
 10
139.156799
 20
32.002464
 11
139.156799
 21
30.956564
  0
LINE
  8
0
  6
CONTINUOUS
 10
141.223694
 20
32.002464
 11
141.223694
 21
30.956564
  0
LINE
  8
0
  6
CONTINUOUS
 10
142.774994
 20
38.526878
 11
143.440002
 21
38.526878
  0
LINE
  8
0
  6
CONTINUOUS
 10
137.065002
 20
38.526878
 11
137.772598
 21
38.526878
  0
LINE
  8
0
  6
CONTINUOUS
 10
137.065002
 20
40.519066
 11
143.440002
 21
40.519066
  0
LINE
  8
0
  6
CONTINUOUS
 10
139.156799
 20
30.956564
 11
141.223694
 21
30.956564
  0
LINE
  8
0
  6
CONTINUOUS
 10
139.156799
 20
32.002464
 11
139.629898
 21
32.002464
  0
ARC
  8
0
  6
CONTINUOUS
 10
150.449997
 20
37.966576
 40
2.552490
 50
-73.981873
 51
90.003510
  0
ARC
  8
0
  6
CONTINUOUS
 10
150.449997
 20
37.966576
 40
1.557193
 50
-82.585274
 51
62.411850
  0
LINE
  8
0
  6
CONTINUOUS
 10
146.627502
 20
40.519066
 11
150.449997
 21
40.519066
  0
LINE
  8
0
  6
CONTINUOUS
 10
146.627502
 20
40.519066
 11
146.627502
 21
39.348656
  0
LINE
  8
0
  6
CONTINUOUS
 10
148.196304
 20
39.348656
 11
148.196304
 21
36.422401
  0
LINE
  8
0
  6
CONTINUOUS
 10
151.154297
 20
35.513184
 11
152.734207
 21
31.952663
  0
LINE
  8
0
  6
CONTINUOUS
 10
150.236801
 20
35.426533
 11
151.731796
 21
31.952663
  0
LINE
  8
0
  6
CONTINUOUS
 10
146.627502
 20
31.952663
 11
147.100601
 21
31.952663
  0
LINE
  8
0
  6
CONTINUOUS
 10
148.196304
 20
31.952663
 11
148.632095
 21
31.952663
  0
LINE
  8
0
  6
CONTINUOUS
 10
148.632095
 20
30.956564
 11
146.627502
 21
30.956564
  0
LINE
  8
0
  6
CONTINUOUS
 10
151.533295
 20
31.952663
 11
151.731796
 21
31.952663
  0
LINE
  8
0
  6
CONTINUOUS
 10
152.734207
 20
31.952663
 11
153.002502
 21
31.952663
  0
LINE
  8
0
  6
CONTINUOUS
 10
151.533295
 20
30.956564
 11
153.002502
 21
30.956564
  0
LINE
  8
0
  6
CONTINUOUS
 10
153.002502
 20
31.952663
 11
153.002502
 21
30.956564
  0
LINE
  8
0
  6
CONTINUOUS
 10
151.533295
 20
31.952663
 11
151.533295
 21
30.956564
  0
LINE
  8
0
  6
CONTINUOUS
 10
148.632095
 20
31.952663
 11
148.632095
 21
30.956564
  0
LINE
  8
0
  6
CONTINUOUS
 10
146.627502
 20
31.952663
 11
146.627502
 21
30.956564
  0
LINE
  8
0
  6
CONTINUOUS
 10
138.115005
 20
39.348656
 11
137.772598
 21
38.526878
  0
LINE
  8
0
  6
CONTINUOUS
 10
142.486298
 20
39.348656
 11
142.774994
 21
38.526878
  0
LINE
  8
0
  6
CONTINUOUS
 10
140.825302
 20
39.348656
 11
142.486298
 21
39.348656
  0
LINE
  8
0
  6
CONTINUOUS
 10
139.629898
 20
39.348656
 11
138.115005
 21
39.348656
  0
LINE
  8
0
  6
CONTINUOUS
 10
146.627502
 20
39.348656
 11
147.100601
 21
39.348656
  0
LINE
  8
0
  6
CONTINUOUS
 10
148.196304
 20
39.348656
 11
151.171204
 21
39.346710
  0
LINE
  8
0
  6
CONTINUOUS
 10
132.956100
 20
38.677597
 11
132.956100
 21
38.526878
  0
LINE
  8
0
  6
CONTINUOUS
 10
128.732300
 20
30.956564
 11
132.047607
 21
30.956564
  0
LINE
  8
0
  6
CONTINUOUS
 10
148.196304
 20
36.422401
 11
150.651001
 21
36.422401
  0
LINE
  8
0
  6
CONTINUOUS
 10
148.196304
 20
35.426533
 11
150.236801
 21
35.426533
  0
LINE
  8
0
  6
CONTINUOUS
 10
131.287704
 20
36.509792
 11
133.877502
 21
36.509792
  0
LINE
  8
0
  6
CENTER
 10
310.252502
 20
-3.030937
 11
310.252502
 21
137.809372
  0
LINE
  8
0
  6
CONTINUOUS
 10
341.252502
 20
12.904493
 11
341.252502
 21
98.991165
  0
LINE
  8
0
  6
CONTINUOUS
 10
345.252502
 20
49.956562
 11
345.252502
 21
87.956566
  0
LINE
  8
0
  6
CENTER
 10
237.518097
 20
68.956566
 11
383.018097
 21
68.956566
  0
LINE
  8
0
  6
CONTINUOUS
 10
344.252502
 20
88.956566
 11
343.252502
 21
88.956566
  0
LINE
  8
0
  6
CONTINUOUS
 10
344.252502
 20
48.956562
 11
343.252502
 21
48.956562
  0
LINE
  8
0
  6
CONTINUOUS
 10
339.287415
 20
100.990860
 11
281.217590
 21
102.004242
  0
LINE
  8
0
  6
CONTINUOUS
 10
339.287415
 20
10.904793
 11
281.217590
 21
9.890973
  0
ARC
  8
0
  6
CONTINUOUS
 10
339.252502
 20
98.991150
 40
2.000000
 50
0.000000
 51
89.000359
  0
ARC
  8
0
  6
CONTINUOUS
 10
339.252502
 20
12.904483
 40
2.000000
 50
-88.999634
 51
0.000000
  0
ARC
  8
0
  6
CONTINUOUS
 10
344.252502
 20
87.956566
 40
1.000000
 50
0.000000
 51
90.000000
  0
ARC
  8
0
  6
CONTINUOUS
 10
344.252502
 20
49.956558
 40
1.000000
 50
-90.000000
 51
0.000000
  0
LINE
  8
0
  6
CONTINUOUS
 10
279.252502
 20
27.256582
 11
279.252502
 21
6.456563
  0
LINE
  8
0
  6
CONTINUOUS
 10
270.252502
 20
106.956566
 11
278.101501
 21
106.956566
  0
LINE
  8
0
  6
CONTINUOUS
 10
277.717804
 20
4.956563
 11
270.252502
 21
4.956563
  0
LINE
  8
0
  6
CONTINUOUS
 10
282.753510
 20
81.656563
 11
339.283813
 21
81.656563
  0
LINE
  8
0
  6
CONTINUOUS
 10
282.252502
 20
30.256563
 11
339.815002
 21
30.256563
  0
ARC
  8
0
  6
CONTINUOUS
 10
277.752502
 20
6.456563
 40
1.500000
 50
-90.000000
 51
0.000000
  0
LINE
  8
0
  6
CONTINUOUS
 10
279.550415
 20
105.844780
 11
279.990204
 21
104.203423
  0
ARC
  8
0
  6
CONTINUOUS
 10
282.885590
 20
104.975601
 40
3.000000
 50
194.932602
 51
269.000610
  0
ARC
  8
0
  6
CONTINUOUS
 10
278.101501
 20
105.456566
 40
1.500000
 50
15.000070
 51
90.000000
  0
ARC
  8
0
  6
CONTINUOUS
 10
282.252502
 20
27.256582
 40
3.000000
 50
90.000000
 51
180.000000
  0
ARC
  8
0
  6
CONTINUOUS
 10
343.252502
 20
90.956566
 40
2.000000
 50
180.000000
 51
270.000000
  0
ARC
  8
0
  6
CONTINUOUS
 10
343.252502
 20
46.956573
 40
2.000000
 50
90.000000
 51
180.000000
  0
LINE
  8
0
  6
CONTINUOUS
 10
347.252502
 20
76.456566
 11
374.252502
 21
76.456566
  0
LINE
  8
0
  6
CONTINUOUS
 10
347.252502
 20
61.456562
 11
374.252502
 21
61.456562
  0
LINE
  8
0
  6
CONTINUOUS
 10
374.252502
 20
61.456562
 11
374.252502
 21
76.456566
  0
LINE
  8
0
  6
CONTINUOUS
 10
352.752502
 20
66.456566
 11
374.252502
 21
66.456566
  0
LINE
  8
0
  6
CONTINUOUS
 10
352.752502
 20
71.456566
 11
374.252502
 21
71.456566
  0
ARC
  8
0
  6
CONTINUOUS
 10
352.752502
 20
68.956573
 40
2.500000
 50
90.000000
 51
180.000000
  0
ARC
  8
0
  6
CONTINUOUS
 10
352.752502
 20
68.956566
 40
2.500000
 50
180.000000
 51
270.000000
  0
LINE
  8
0
  6
CENTER
 10
266.533813
 20
98.956566
 11
282.783813
 21
98.956566
  0
LINE
  8
0
  6
CENTER
 10
267.533813
 20
12.956563
 11
282.533813
 21
12.956563
  0
LINE
  8
0
  6
DASHED
 10
270.252502
 20
16.206564
 11
279.252502
 21
16.206564
  0
LINE
  8
0
  6
DASHED
 10
270.252502
 20
9.706563
 11
279.252502
 21
9.706563
  0
LINE
  8
0
  6
DASHED
 10
270.252502
 20
102.206566
 11
279.252502
 21
102.206566
  0
LINE
  8
0
  6
DASHED
 10
270.252502
 20
95.706566
 11
279.252502
 21
95.706566
  0
LINE
  8
0
  6
CONTINUOUS
 10
289.252502
 20
8.656563
 11
331.252502
 21
8.656563
  0
ARC
  8
0
  6
CONTINUOUS
 10
331.252502
 20
10.656563
 40
2.000000
 50
-90.000000
 51
0.000000
  0
ARC
  8
0
  6
CONTINUOUS
 10
289.252502
 20
10.656563
 40
2.000000
 50
199.216995
 51
270.000000
  0
LINE
  8
0
  6
CONTINUOUS
 10
333.252502
 20
10.656563
 11
333.252502
 21
10.799343
  0
ARC
  8
0
  6
CONTINUOUS
 10
310.252502
 20
46.656563
 40
38.000000
 50
-35.334469
 51
21.294241
  0
LINE
  8
0
  6
CONTINUOUS
 10
275.252502
 20
49.956562
 11
275.252502
 21
87.956566
  0
LINE
  8
0
  6
CONTINUOUS
 10
276.252502
 20
48.956562
 11
279.252502
 21
48.956562
  0
ARC
  8
0
  6
CONTINUOUS
 10
276.252502
 20
87.956566
 40
1.000000
 50
90.000000
 51
180.000000
  0
ARC
  8
0
  6
CONTINUOUS
 10
276.252502
 20
49.956558
 40
1.000000
 50
180.000000
 51
270.000000
  0
LINE
  8
0
  6
CONTINUOUS
 10
273.252502
 20
76.456566
 11
246.252502
 21
76.456566
  0
LINE
  8
0
  6
CONTINUOUS
 10
273.252502
 20
61.456562
 11
246.252502
 21
61.456562
  0
LINE
  8
0
  6
CONTINUOUS
 10
246.252502
 20
61.456562
 11
246.252502
 21
76.456566
  0
LINE
  8
0
  6
CONTINUOUS
 10
273.252502
 20
77.456566
 11
273.252502
 21
60.456562
  0
LINE
  8
0
  6
CONTINUOUS
 10
267.752502
 20
66.456566
 11
246.252502
 21
66.456566
  0
LINE
  8
0
  6
CONTINUOUS
 10
267.752502
 20
71.456566
 11
246.252502
 21
71.456566
  0
ARC
  8
0
  6
CONTINUOUS
 10
267.752502
 20
68.956573
 40
2.500000
 50
0.000000
 51
90.000000
  0
ARC
  8
0
  6
CONTINUOUS
 10
267.752502
 20
68.956566
 40
2.500000
 50
-90.000000
 51
0.000000
  0
LINE
  8
0
  6
CONTINUOUS
 10
270.252502
 20
4.956563
 11
270.252502
 21
61.456562
  0
LINE
  8
0
  6
CONTINUOUS
 10
270.252502
 20
106.956566
 11
270.252502
 21
76.456566
  0
LINE
  8
0
  6
CONTINUOUS
 10
276.252502
 20
88.956566
 11
279.252502
 21
88.956566
  0
LINE
  8
0
  6
CONTINUOUS
 10
270.252502
 20
92.166214
 11
276.143097
 21
90.953445
  0
LINE
  8
0
  6
CONTINUOUS
 10
276.143097
 20
90.953445
 11
281.393097
 21
87.703445
  0
LINE
  8
0
  6
CONTINUOUS
 10
281.393097
 20
87.703445
 11
281.893097
 21
82.578445
  0
LINE
  8
0
  6
CONTINUOUS
 10
281.893097
 20
82.578445
 11
283.643097
 21
80.703445
  0
LINE
  8
0
  6
CONTINUOUS
 10
283.643097
 20
80.703445
 11
284.018097
 21
77.078445
  0
LINE
  8
0
  6
CONTINUOUS
 10
284.018097
 20
77.078445
 11
284.393097
 21
71.453445
  0
LINE
  8
0
  6
CONTINUOUS
 10
284.393097
 20
71.453445
 11
285.143097
 21
66.203445
  0
LINE
  8
0
  6
CONTINUOUS
 10
285.143097
 20
66.203445
 11
283.143097
 21
59.828442
  0
LINE
  8
0
  6
CONTINUOUS
 10
283.143097
 20
59.828442
 11
283.768097
 21
53.328438
  0
LINE
  8
0
  6
CONTINUOUS
 10
283.768097
 20
53.328438
 11
282.268097
 21
47.578438
  0
LINE
  8
0
  6
CONTINUOUS
 10
282.268097
 20
47.578438
 11
278.143097
 21
44.453438
  0
LINE
  8
0
  6
CONTINUOUS
 10
278.143097
 20
44.453438
 11
273.268097
 21
43.828438
  0
LINE
  8
0
  6
CONTINUOUS
 10
273.268097
 20
43.828438
 11
270.252502
 21
42.599850
  0
LINE
  8
0
  6
CONTINUOUS
 10
347.252502
 20
77.456566
 11
347.252502
 21
60.456562
  0
LINE
  8
0
  6
CENTER
 10
266.248749
 20
46.656563
 11
351.989990
 21
46.656563
  0
LINE
  8
0
  6
CONTINUOUS
 10
279.252502
 20
106.418442
 11
279.252502
 21
45.293884
  0
LINE
  8
0
  6
CONTINUOUS
 10
345.252502
 20
77.456566
 11
347.252502
 21
77.456566
  0
LINE
  8
0
  6
CONTINUOUS
 10
345.252502
 20
60.456562
 11
347.252502
 21
60.456562
  0
LINE
  8
0
  6
CONTINUOUS
 10
273.252502
 20
77.456566
 11
275.252502
 21
77.456566
  0
LINE
  8
0
  6
CONTINUOUS
 10
273.252502
 20
60.456562
 11
275.252502
 21
60.456562
  0
ARC
  8
0
  6
CONTINUOUS
 10
281.252502
 20
104.003944
 40
2.000000
 50
180.000000
 51
269.000610
  0
ARC
  8
0
  6
CONTINUOUS
 10
281.252502
 20
7.891293
 40
2.000000
 50
91.000641
 51
180.000000
  0
LINE
  8
0
  6
CONTINUOUS
 10
279.649689
 20
6.438923
 11
279.986511
 21
7.696053
  0
ARC
  8
0
  6
CONTINUOUS
 10
277.717804
 20
6.956563
 40
2.000000
 50
270.000000
 51
345.000092
  0
ARC
  8
0
  6
CONTINUOUS
 10
282.884308
 20
6.919633
 40
3.000000
 50
91.000488
 51
165.000397
  0
LINE
  8
0
  6
CONTINUOUS
 10
16.252501
 20
218.764999
 11
16.252501
 21
264.765015
  0
LINE
  8
0
  6
CONTINUOUS
 10
18.252501
 20
266.765015
 11
16.252501
 21
264.765015
  0
LINE
  8
0
  6
CONTINUOUS
 10
18.252501
 20
266.765015
 11
64.252487
 21
266.765015
  0
LINE
  8
0
  6
CONTINUOUS
 10
58.752499
 20
262.265015
 11
58.752499
 21
266.765015
  0
ARC
  8
0
  6
CONTINUOUS
 10
61.752499
 20
262.265015
 40
3.000000
 50
180.000000
 51
270.000000
  0
LINE
  8
0
  6
CONTINUOUS
 10
61.752499
 20
259.265015
 11
66.252487
 21
259.265015
  0
CIRCLE
  8
0
  6
CONTINUOUS
 10
62.752499
 20
263.265015
 40
2.250000
  0
LINE
  8
0
  6
CONTINUOUS
 10
66.252495
 20
218.764999
 11
66.252487
 21
264.765015
  0
LINE
  8
0
  6
CONTINUOUS
 10
64.252487
 20
266.765015
 11
66.252487
 21
264.765015
  0
LINE
  8
0
  6
CONTINUOUS
 10
64.252495
 20
216.764999
 11
66.252495
 21
218.764999
  0
LINE
  8
0
  6
CONTINUOUS
 10
64.252495
 20
216.764999
 11
18.252501
 21
216.764999
  0
LINE
  8
0
  6
CONTINUOUS
 10
16.252501
 20
218.764999
 11
18.252501
 21
216.764999
  0
LINE
  8
0
  6
CONTINUOUS
 10
20.752501
 20
224.264999
 11
16.252510
 21
224.264999
  0
CIRCLE
  8
0
  6
CONTINUOUS
 10
19.752501
 20
220.264999
 40
2.250000
  0
ARC
  8
0
  6
CONTINUOUS
 10
20.752501
 20
221.264999
 40
3.000000
 50
0.000000
 51
90.000000
  0
LINE
  8
0
  6
CONTINUOUS
 10
23.752501
 20
221.264999
 11
23.752501
 21
216.764999
  0
LINE
  8
0
  6
CENTER
 10
41.252499
 20
209.299225
 11
41.252499
 21
273.431244
  0
LINE
  8
0
  6
CONTINUOUS
 10
17.252506
 20
224.264999
 11
17.252506
 21
259.265015
  0
LINE
  8
0
  6
CONTINUOUS
 10
58.752499
 20
265.765015
 11
23.752501
 21
265.765015
  0
LINE
  8
0
  6
CONTINUOUS
 10
65.252495
 20
259.265015
 11
65.252495
 21
224.264999
  0
LINE
  8
0
  6
CONTINUOUS
 10
23.752501
 20
217.764999
 11
58.752499
 21
217.764999
  0
LINE
  8
0
  6
CONTINUOUS
 10
20.752501
 20
259.265015
 11
16.252501
 21
259.265015
  0
ARC
  8
0
  6
CONTINUOUS
 10
20.752501
 20
262.265015
 40
3.000000
 50
-90.000000
 51
0.000000
  0
LINE
  8
0
  6
CONTINUOUS
 10
23.752501
 20
262.265015
 11
23.752501
 21
266.764984
  0
CIRCLE
  8
0
  6
CONTINUOUS
 10
19.752501
 20
263.265015
 40
2.250000
  0
ARC
  8
0
  6
CONTINUOUS
 10
61.752499
 20
221.264999
 40
3.000000
 50
90.000000
 51
180.000000
  0
LINE
  8
0
  6
CONTINUOUS
 10
58.752499
 20
221.264999
 11
58.752499
 21
216.765015
  0
LINE
  8
0
  6
CONTINUOUS
 10
61.752499
 20
224.264999
 11
66.252502
 21
224.264999
  0
CIRCLE
  8
0
  6
CONTINUOUS
 10
62.752499
 20
220.264999
 40
2.250000
  0
LINE
  8
0
  6
CONTINUOUS
 10
335.252472
 20
130.156570
 11
335.252472
 21
101.061279
  0
LINE
  8
0
  6
CONTINUOUS
 10
285.252502
 20
130.156570
 11
285.252502
 21
101.933830
  0
LINE
  8
0
  6
CONTINUOUS
 10
286.252502
 20
131.156570
 11
334.252472
 21
131.156570
  0
LINE
  8
0
  6
CONTINUOUS
 10
334.252472
 20
131.156570
 11
335.252472
 21
130.156570
  0
LINE
  8
0
  6
CONTINUOUS
 10
286.252502
 20
131.156570
 11
285.252502
 21
130.156570
  0
LINE
  8
0
  6
CONTINUOUS
 10
285.252502
 20
130.156570
 11
335.252472
 21
130.156570
  0
LINE
  8
0
  6
CONTINUOUS
 10
17.752501
 20
86.156563
 11
64.252502
 21
86.156563
  0
LINE
  8
0
  6
CONTINUOUS
 10
66.252480
 20
130.156570
 11
66.252502
 21
88.156563
  0
LINE
  8
0
  6
CONTINUOUS
 10
16.252501
 20
130.156570
 11
16.252501
 21
88.156563
  0
LINE
  8
0
  6
CONTINUOUS
 10
16.252501
 20
98.156563
 11
66.252502
 21
98.156563
  0
LINE
  8
0
  6
CONTINUOUS
 10
64.252502
 20
86.156563
 11
66.252502
 21
88.156563
  0
LINE
  8
0
  6
CONTINUOUS
 10
16.252501
 20
88.156563
 11
18.252501
 21
86.156563
  0
LINE
  8
0
  6
CONTINUOUS
 10
16.252501
 20
88.156563
 11
66.252502
 21
88.156563
  0
LINE
  8
0
  6
CONTINUOUS
 10
16.252501
 20
99.156563
 11
66.252480
 21
99.156563
  0
LINE
  8
0
  6
CONTINUOUS
 10
17.252501
 20
131.156570
 11
65.252480
 21
131.156570
  0
LINE
  8
0
  6
CONTINUOUS
 10
65.252480
 20
131.156570
 11
66.252480
 21
130.156570
  0
LINE
  8
0
  6
CONTINUOUS
 10
17.252501
 20
131.156570
 11
16.252501
 21
130.156570
  0
LINE
  8
0
  6
CONTINUOUS
 10
16.252501
 20
130.156570
 11
66.252480
 21
130.156570
  0
LINE
  8
0
  6
CENTER
 10
41.252499
 20
79.767052
 11
41.252499
 21
137.459061
  0
LINE
  8
0
  6
CENTER
 10
13.877500
 20
114.156563
 11
18.502501
 21
114.156563
  0
LINE
  8
0
  6
CONTINUOUS
 10
17.752501
 20
86.156563
 11
17.752501
 21
84.656563
  0
LINE
  8
0
  6
CONTINUOUS
 10
63.752499
 20
86.156563
 11
63.752499
 21
84.656563
  0
LINE
  8
0
  6
CONTINUOUS
 10
15.377500
 20
124.656563
 11
17.377501
 21
124.656563
  0
LINE
  8
0
  6
CONTINUOUS
 10
15.377500
 20
103.656563
 11
17.377501
 21
103.656563
  0
TEXT
  8
0
 10
-5.000000
 20
-4.000000
 40
4.000000
 41
1.000000
  1
HFM-15T-10~240-S15K
 50
0.000000
  0
ENDSEC
  0
EOF
