  0
SECTION
  2
HEADER
  9
$CLAYER
  8
1
  9
$LTSCALE
 40
3.0
  0
ENDSEC
  0
SECTION
  2
TABLES
  0
TABLE
  2
LTYPE
 70
     4
  0
LTYPE
  2
CONTINUOUS
  3
solid line
 70
    64
 72
    65
 73
     0
 40
0.0
  0
LTYPE
  2
DASHED
  3
__ __ __ __ __ __ __ __ __ __ __ __ __ __ __
 70
    64
 72
    65
 73
     2
 40
0.75
 49
0.5
 49
-0.25
  0
LTYPE
  2
CENTER
  3
____ _ ____ _ ____ _ ____ _ ____ _ ____ _ ____
 70
    64
 72
    65
 73
     4
 40
2.0
 49
1.25
 49
-0.25
 49
0.25
 49
-0.25
  0
LTYPE
  2
PHANTOM
  3
_____ _ _ _____ _ _ _____ _ _ _____ _ _ ____
 70
    64
 72
    65
 73
     6
 40
2.5
 49
1.25
 49
-0.25
 49
0.25
 49
-0.25
 49
0.25
 49
-0.25
  0
ENDTAB
  0
TABLE
  2
LAYER
 70
     1
  0
LAYER
  2
0
 70
    64
 62
     7
  6
CONTINUOUS
  0
ENDTAB
  0
TABLE
  2
STYLE
 70
     1
  0
STYLE
  2
STANDARD
 70
     0
 40
0.000000
 41
1.000000
 50
0.000000
 71
     0
 42
3.000000
  3
txt
  4
BIGFONT
  0
ENDTAB
  0
ENDSEC
  0
SECTION
  2
BLOCKS
  0
ENDSEC
  0
SECTION
  2
ENTITIES
  0
LINE
  8
0
  6
CENTER
 10
137.712494
 20
314.445007
 11
137.712494
 21
177.945007
  0
LINE
  8
0
  6
CENTER
 10
-7.787500
 20
245.945007
 11
186.212494
 21
245.945007
  0
LINE
  8
0
  6
CONTINUOUS
 10
176.404984
 20
276.945007
 11
97.160812
 21
276.945007
  0
LINE
  8
0
  6
CONTINUOUS
 10
93.080887
 20
283.945007
 11
22.712500
 21
283.945007
  0
LINE
  8
0
  6
CONTINUOUS
 10
63.712490
 20
268.945007
 11
98.632179
 21
268.945007
  0
LINE
  8
0
  6
CONTINUOUS
 10
96.003357
 20
214.945007
 11
179.002670
 21
214.945007
  0
LINE
  8
0
  6
CONTINUOUS
 10
93.698891
 20
207.945007
 11
22.712500
 21
207.945007
  0
LINE
  8
0
  6
CONTINUOUS
 10
63.712494
 20
222.945007
 11
94.767342
 21
222.945007
  0
LINE
  8
0
  6
CONTINUOUS
 10
130.212494
 20
181.945007
 11
130.212494
 21
205.945007
  0
LINE
  8
0
  6
CONTINUOUS
 10
130.212494
 20
181.945007
 11
147.212494
 21
181.945007
  0
LINE
  8
0
  6
CONTINUOUS
 10
117.712502
 20
279.945007
 11
117.712502
 21
276.945007
  0
LINE
  8
0
  6
CONTINUOUS
 10
157.712494
 20
279.945007
 11
157.712494
 21
276.945007
  0
LINE
  8
0
  6
CONTINUOUS
 10
156.712494
 20
280.945007
 11
118.712502
 21
280.945007
  0
ARC
  8
0
  6
CONTINUOUS
 10
118.712502
 20
279.945007
 40
1.000000
 50
90.000000
 51
180.000000
  0
ARC
  8
0
  6
CONTINUOUS
 10
156.712509
 20
279.945007
 40
1.000000
 50
0.000000
 51
90.000000
  0
LINE
  8
0
  6
CONTINUOUS
 10
147.212494
 20
205.945007
 11
147.212494
 21
181.945007
  0
LINE
  8
0
  6
CONTINUOUS
 10
144.783493
 20
205.945007
 11
144.783493
 21
181.945007
  0
LINE
  8
0
  6
CONTINUOUS
 10
130.212494
 20
309.945007
 11
130.212494
 21
282.945007
  0
LINE
  8
0
  6
CONTINUOUS
 10
130.212494
 20
309.945007
 11
147.212494
 21
309.945007
  0
LINE
  8
0
  6
CONTINUOUS
 10
129.212494
 20
282.945007
 11
146.212494
 21
282.945007
  0
LINE
  8
0
  6
CONTINUOUS
 10
129.212494
 20
282.945007
 11
129.212494
 21
280.945007
  0
LINE
  8
0
  6
CONTINUOUS
 10
146.212494
 20
282.945007
 11
146.212494
 21
280.945007
  0
LINE
  8
0
  6
CONTINUOUS
 10
147.212494
 20
285.945007
 11
147.212494
 21
309.945007
  0
LINE
  8
0
  6
CONTINUOUS
 10
144.783493
 20
285.945007
 11
144.783493
 21
309.945007
  0
LINE
  8
0
  6
CONTINUOUS
 10
144.783493
 20
285.945007
 11
147.212494
 21
285.945007
  0
LINE
  8
0
  6
CONTINUOUS
 10
145.212494
 20
285.945007
 11
145.212494
 21
282.945007
  0
LINE
  8
0
  6
CONTINUOUS
 10
152.712494
 20
215.945007
 11
152.712494
 21
274.979919
  0
LINE
  8
0
  6
CONTINUOUS
 10
122.712502
 20
215.945007
 11
122.712502
 21
274.979919
  0
LINE
  8
0
  6
CONTINUOUS
 10
95.003082
 20
268.947754
 11
95.161499
 21
274.997345
  0
LINE
  8
0
  6
CONTINUOUS
 10
99.487114
 20
216.126251
 11
99.487114
 21
266.945282
  0
LINE
  8
0
  6
CONTINUOUS
 10
95.212502
 20
205.945007
 11
180.212494
 21
205.945007
  0
LINE
  8
0
  6
CONTINUOUS
 10
178.404297
 20
274.997345
 11
180.212494
 21
205.945007
  0
ARC
  8
0
  6
CONTINUOUS
 10
176.404984
 20
274.945007
 40
2.000000
 50
1.500000
 51
90.000000
  0
LINE
  8
0
  6
CONTINUOUS
 10
94.165062
 20
245.945007
 11
95.212502
 21
205.945007
  0
LINE
  8
0
  6
CONTINUOUS
 10
177.635193
 20
205.945007
 11
177.635193
 21
213.634689
  0
LINE
  8
0
  6
CONTINUOUS
 10
97.789803
 20
205.945007
 11
97.789803
 21
213.634689
  0
ARC
  8
0
  6
CONTINUOUS
 10
121.712502
 20
215.945007
 40
1.000000
 50
-90.000000
 51
0.000000
  0
ARC
  8
0
  6
CONTINUOUS
 10
153.712494
 20
215.945007
 40
1.000000
 50
180.000000
 51
270.000000
  0
LINE
  8
0
  6
CONTINUOUS
 10
122.712502
 20
216.264999
 11
152.712494
 21
216.264999
  0
ARC
  8
0
  6
CONTINUOUS
 10
179.002670
 20
213.945007
 40
1.000000
 50
1.499998
 51
90.000000
  0
LINE
  8
0
  6
CONTINUOUS
 10
95.080200
 20
281.997345
 11
95.161499
 21
278.892639
  0
ARC
  8
0
  6
CONTINUOUS
 10
96.003357
 20
213.945007
 40
1.000000
 50
90.000000
 51
181.500000
  0
ARC
  8
0
  6
CONTINUOUS
 10
93.698891
 20
206.445007
 40
1.500000
 50
1.499999
 51
90.000000
  0
ARC
  8
0
  6
CONTINUOUS
 10
93.080887
 20
281.945007
 40
2.000000
 50
1.500000
 51
90.000000
  0
ARC
  8
0
  6
CONTINUOUS
 10
97.160812
 20
278.945007
 40
2.000000
 50
181.500000
 51
270.000000
  0
ARC
  8
0
  6
CONTINUOUS
 10
97.160812
 20
274.945007
 40
2.000000
 50
90.000000
 51
178.500000
  0
LINE
  8
0
  6
CENTER
 10
169.712494
 20
202.054840
 11
169.712494
 21
219.195618
  0
LINE
  8
0
  6
DASHED
 10
172.962494
 20
214.945007
 11
172.962494
 21
205.945007
  0
LINE
  8
0
  6
DASHED
 10
166.462494
 20
214.945007
 11
166.462494
 21
205.945007
  0
LINE
  8
0
  6
CENTER
 10
105.712502
 20
202.054840
 11
105.712502
 21
219.195618
  0
LINE
  8
0
  6
DASHED
 10
102.462502
 20
214.945007
 11
102.462502
 21
205.945007
  0
LINE
  8
0
  6
DASHED
 10
108.962502
 20
214.945007
 11
108.962502
 21
205.945007
  0
LINE
  8
0
  6
CONTINUOUS
 10
22.712500
 20
283.945007
 11
22.712500
 21
270.945007
  0
LINE
  8
0
  6
CONTINUOUS
 10
22.712500
 20
283.945007
 11
6.176610
 21
283.945007
  0
LINE
  8
0
  6
CONTINUOUS
 10
2.712500
 20
280.945007
 11
2.712500
 21
210.945007
  0
LINE
  8
0
  6
CONTINUOUS
 10
22.712500
 20
207.945007
 11
6.176610
 21
207.945007
  0
LINE
  8
0
  6
CONTINUOUS
 10
13.712500
 20
222.945007
 11
4.294130
 21
222.945007
  0
LINE
  8
0
  6
CONTINUOUS
 10
13.712500
 20
268.945007
 11
4.294130
 21
268.945007
  0
LINE
  8
0
  6
CONTINUOUS
 10
3.578520
 20
282.445007
 11
2.712500
 21
280.945007
  0
ARC
  8
0
  6
CONTINUOUS
 10
6.176610
 20
280.945007
 40
3.000000
 50
90.000000
 51
150.000397
  0
LINE
  8
0
  6
CONTINUOUS
 10
3.578520
 20
209.445007
 11
2.712500
 21
210.945007
  0
ARC
  8
0
  6
CONTINUOUS
 10
6.176610
 20
210.945007
 40
3.000000
 50
-150.000397
 51
-90.000000
  0
LINE
  8
0
  6
CONTINUOUS
 10
2.212500
 20
277.945007
 11
2.212500
 21
213.945007
  0
LINE
  8
0
  6
CONTINUOUS
 10
2.212500
 20
277.945007
 11
2.712500
 21
278.445007
  0
LINE
  8
0
  6
CONTINUOUS
 10
2.212500
 20
213.945007
 11
2.712500
 21
213.445007
  0
LINE
  8
0
  6
CONTINUOUS
 10
22.712500
 20
220.945007
 11
22.712500
 21
207.945007
  0
LINE
  8
0
  6
CONTINUOUS
 10
12.712500
 20
253.445007
 11
13.712500
 21
253.445007
  0
ARC
  8
0
  6
CONTINUOUS
 10
12.712520
 20
252.445007
 40
1.000000
 50
90.000000
 51
180.000000
  0
LINE
  8
0
  6
CONTINUOUS
 10
8.212515
 20
249.945007
 11
8.212515
 21
241.945007
  0
LINE
  8
0
  6
CONTINUOUS
 10
8.212515
 20
249.945007
 11
11.712515
 21
251.445007
  0
LINE
  8
0
  6
CONTINUOUS
 10
8.212500
 20
241.945007
 11
11.712500
 21
240.445007
  0
LINE
  8
0
  6
CONTINUOUS
 10
11.712515
 20
252.445007
 11
11.712515
 21
239.445007
  0
LINE
  8
0
  6
CONTINUOUS
 10
12.712500
 20
238.445007
 11
13.712500
 21
238.445007
  0
ARC
  8
0
  6
CONTINUOUS
 10
12.712520
 20
239.445007
 40
1.000000
 50
-180.000000
 51
-90.000000
  0
LINE
  8
0
  6
CONTINUOUS
 10
13.712500
 20
222.945007
 11
13.712500
 21
268.945007
  0
LINE
  8
0
  6
CONTINUOUS
 10
15.712500
 20
270.945007
 11
13.712500
 21
268.945007
  0
LINE
  8
0
  6
CONTINUOUS
 10
15.712500
 20
270.945007
 11
61.712490
 21
270.945007
  0
LINE
  8
0
  6
CONTINUOUS
 10
56.212502
 20
266.445007
 11
56.212502
 21
270.945007
  0
ARC
  8
0
  6
CONTINUOUS
 10
59.212502
 20
266.445007
 40
3.000000
 50
180.000000
 51
270.000000
  0
LINE
  8
0
  6
CONTINUOUS
 10
59.212502
 20
263.445007
 11
63.712490
 21
263.445007
  0
CIRCLE
  8
0
  6
CONTINUOUS
 10
60.212502
 20
267.445007
 40
2.250000
  0
LINE
  8
0
  6
CONTINUOUS
 10
63.712494
 20
222.945007
 11
63.712490
 21
268.945007
  0
LINE
  8
0
  6
CONTINUOUS
 10
61.712490
 20
270.945007
 11
63.712490
 21
268.945007
  0
LINE
  8
0
  6
CONTINUOUS
 10
61.712494
 20
220.945007
 11
63.712494
 21
222.945007
  0
LINE
  8
0
  6
CONTINUOUS
 10
61.712494
 20
220.945007
 11
15.712500
 21
220.945007
  0
LINE
  8
0
  6
CONTINUOUS
 10
13.712500
 20
222.945007
 11
15.712500
 21
220.945007
  0
LINE
  8
0
  6
CONTINUOUS
 10
18.212500
 20
228.445007
 11
13.712510
 21
228.445007
  0
CIRCLE
  8
0
  6
CONTINUOUS
 10
17.212500
 20
224.445007
 40
2.250000
  0
ARC
  8
0
  6
CONTINUOUS
 10
18.212500
 20
225.445007
 40
3.000000
 50
0.000000
 51
90.000000
  0
LINE
  8
0
  6
CONTINUOUS
 10
21.212500
 20
225.445007
 11
21.212500
 21
220.945007
  0
LINE
  8
0
  6
CENTER
 10
38.712502
 20
213.479218
 11
38.712502
 21
277.611237
  0
LINE
  8
0
  6
CONTINUOUS
 10
16.126719
 20
269.945007
 11
14.712506
 21
268.530792
  0
LINE
  8
0
  6
CONTINUOUS
 10
14.712506
 20
228.445007
 11
14.712506
 21
268.530792
  0
LINE
  8
0
  6
CONTINUOUS
 10
56.212502
 20
269.945007
 11
16.126719
 21
269.945007
  0
LINE
  8
0
  6
CONTINUOUS
 10
62.712494
 20
263.445007
 11
62.712494
 21
223.359207
  0
LINE
  8
0
  6
CONTINUOUS
 10
21.212500
 20
221.945007
 11
61.298283
 21
221.945007
  0
LINE
  8
0
  6
CONTINUOUS
 10
61.298283
 20
221.945007
 11
62.712494
 21
223.359207
  0
LINE
  8
0
  6
CONTINUOUS
 10
2.212500
 20
18.836563
 11
2.212500
 21
82.836563
  0
LINE
  8
0
  6
CONTINUOUS
 10
6.176597
 20
88.836563
 11
22.712500
 21
88.836563
  0
LINE
  8
0
  6
CONTINUOUS
 10
6.176603
 20
12.836563
 11
22.712500
 21
12.836563
  0
LINE
  8
0
  6
CONTINUOUS
 10
2.712500
 20
15.836563
 11
2.712500
 21
85.836563
  0
LINE
  8
0
  6
CONTINUOUS
 10
2.212500
 20
82.836563
 11
2.712500
 21
83.336563
  0
LINE
  8
0
  6
CONTINUOUS
 10
2.212500
 20
18.836563
 11
2.712500
 21
18.336563
  0
LINE
  8
0
  6
CONTINUOUS
 10
3.578518
 20
87.336555
 11
2.712500
 21
85.836563
  0
ARC
  8
0
  6
CONTINUOUS
 10
6.176608
 20
85.836571
 40
3.000000
 50
90.000000
 51
150.000397
  0
LINE
  8
0
  6
CONTINUOUS
 10
3.578518
 20
14.336573
 11
2.712500
 21
15.836563
  0
ARC
  8
0
  6
CONTINUOUS
 10
6.176608
 20
15.836553
 40
3.000000
 50
-150.000397
 51
-90.000000
  0
LINE
  8
0
  6
CONTINUOUS
 10
4.294136
 20
81.085564
 11
22.712500
 21
81.085564
  0
LINE
  8
0
  6
CONTINUOUS
 10
22.712500
 20
20.587563
 11
4.294136
 21
20.587563
  0
LINE
  8
0
  6
CONTINUOUS
 10
22.712500
 20
12.836563
 11
22.712500
 21
88.836563
  0
LINE
  8
0
  6
CENTER
 10
-5.621250
 20
50.836563
 11
115.870003
 21
50.836563
  0
LINE
  8
0
  6
CONTINUOUS
 10
22.712500
 20
88.836563
 11
95.632492
 21
88.836563
  0
LINE
  8
0
  6
CONTINUOUS
 10
93.212502
 20
12.836563
 11
22.712500
 21
12.836563
  0
LINE
  8
0
  6
CONTINUOUS
 10
105.712502
 20
9.136563
 11
169.712494
 21
9.136563
  0
LINE
  8
0
  6
CONTINUOUS
 10
105.712502
 20
111.136566
 11
169.712494
 21
111.136566
  0
LINE
  8
0
  6
CONTINUOUS
 10
95.212502
 20
85.836563
 11
95.212502
 21
34.436562
  0
LINE
  8
0
  6
CENTER
 10
137.712494
 20
123.524063
 11
137.712494
 21
-0.100937
  0
LINE
  8
0
  6
CENTER
 10
169.712494
 20
23.274063
 11
169.712494
 21
11.774063
  0
LINE
  8
0
  6
CENTER
 10
163.868805
 20
17.136562
 11
176.118805
 21
17.136562
  0
CIRCLE
  8
0
  6
CONTINUOUS
 10
169.712494
 20
17.136562
 40
3.250000
  0
LINE
  8
0
  6
CENTER
 10
169.712494
 20
96.999062
 11
169.712494
 21
108.499062
  0
LINE
  8
0
  6
CENTER
 10
163.868805
 20
103.136566
 11
176.118805
 21
103.136566
  0
CIRCLE
  8
0
  6
CONTINUOUS
 10
169.712494
 20
103.136566
 40
3.250000
  0
LINE
  8
0
  6
CENTER
 10
105.712502
 20
96.999062
 11
105.712502
 21
108.499062
  0
LINE
  8
0
  6
CENTER
 10
111.556297
 20
103.136566
 11
99.306297
 21
103.136566
  0
CIRCLE
  8
0
  6
CONTINUOUS
 10
105.712502
 20
103.136566
 40
3.250000
  0
LINE
  8
0
  6
CENTER
 10
105.712502
 20
23.274063
 11
105.712502
 21
11.774063
  0
LINE
  8
0
  6
CENTER
 10
111.556297
 20
17.136562
 11
99.306297
 21
17.136562
  0
CIRCLE
  8
0
  6
CONTINUOUS
 10
105.712502
 20
17.136562
 40
3.250000
  0
LINE
  8
0
  6
CONTINUOUS
 10
177.712494
 20
74.497963
 11
177.712494
 21
45.775425
  0
LINE
  8
0
  6
CONTINUOUS
 10
97.712502
 20
74.497833
 11
97.712502
 21
45.775024
  0
ARC
  8
0
  6
CONTINUOUS
 10
137.712494
 20
60.136562
 40
42.500000
 50
19.749901
 51
160.250107
  0
ARC
  8
0
  6
CONTINUOUS
 10
137.712494
 20
60.136562
 40
42.500000
 50
199.749893
 51
340.250092
  0
LINE
  8
0
  6
CONTINUOUS
 10
180.212494
 20
85.836563
 11
180.212494
 21
34.436573
  0
LINE
  8
0
  6
CONTINUOUS
 10
177.635193
 20
104.245720
 11
180.212494
 21
85.836563
  0
LINE
  8
0
  6
CONTINUOUS
 10
177.635193
 20
16.027443
 11
180.212494
 21
34.436573
  0
LINE
  8
0
  6
CONTINUOUS
 10
97.789803
 20
16.027363
 11
95.212502
 21
34.436562
  0
LINE
  8
0
  6
CONTINUOUS
 10
97.789803
 20
104.245712
 11
95.212502
 21
85.836563
  0
LINE
  8
0
  6
CENTER
 10
110.014999
 20
73.136566
 11
162.362503
 21
73.136566
  0
LINE
  8
0
  6
CONTINUOUS
 10
147.212494
 20
75.636566
 11
147.212494
 21
70.636566
  0
LINE
  8
0
  6
CONTINUOUS
 10
142.212494
 20
70.636566
 11
142.212494
 21
75.636566
  0
LINE
  8
0
  6
CONTINUOUS
 10
142.212494
 20
75.636566
 11
147.212494
 21
75.636566
  0
LINE
  8
0
  6
CONTINUOUS
 10
142.212494
 20
70.636566
 11
147.212494
 21
70.636566
  0
ARC
  8
0
  6
CONTINUOUS
 10
137.712494
 20
73.136566
 40
7.500000
 50
19.471201
 51
340.528809
  0
LINE
  8
0
  6
CONTINUOUS
 10
117.712502
 20
107.136566
 11
157.712494
 21
107.136566
  0
LINE
  8
0
  6
CONTINUOUS
 10
117.712502
 20
13.136563
 11
157.712494
 21
13.136563
  0
LINE
  8
0
  6
CONTINUOUS
 10
175.337601
 20
91.807060
 11
177.736801
 21
74.669991
  0
LINE
  8
0
  6
CONTINUOUS
 10
177.714905
 20
45.446297
 11
175.337601
 21
28.466063
  0
LINE
  8
0
  6
CONTINUOUS
 10
97.763000
 20
45.068642
 11
100.087402
 21
28.466072
  0
LINE
  8
0
  6
CONTINUOUS
 10
100.087402
 20
91.807053
 11
97.629158
 21
74.248245
  0
ARC
  8
0
  6
CONTINUOUS
 10
157.712494
 20
103.136566
 40
4.000000
 50
0.000000
 51
90.000000
  0
ARC
  8
0
  6
CONTINUOUS
 10
117.712502
 20
103.136566
 40
4.000000
 50
90.000000
 51
180.000000
  0
ARC
  8
0
  6
CONTINUOUS
 10
157.712494
 20
17.136562
 40
4.000000
 50
-90.000000
 51
0.000000
  0
ARC
  8
0
  6
CONTINUOUS
 10
117.712502
 20
17.136562
 40
4.000000
 50
-180.000000
 51
-90.000000
  0
ARC
  8
0
  6
CONTINUOUS
 10
171.376297
 20
91.252464
 40
4.000000
 50
7.969701
 51
97.969757
  0
ARC
  8
0
  6
CONTINUOUS
 10
169.712494
 20
103.136566
 40
8.000000
 50
180.000000
 51
277.969513
  0
ARC
  8
0
  6
CONTINUOUS
 10
169.712494
 20
103.136566
 40
8.000000
 50
7.969647
 51
90.000000
  0
ARC
  8
0
  6
CONTINUOUS
 10
104.048698
 20
91.252464
 40
4.000000
 50
82.030243
 51
172.030304
  0
ARC
  8
0
  6
CONTINUOUS
 10
171.376297
 20
29.020662
 40
4.000000
 50
-97.969757
 51
-7.969701
  0
ARC
  8
0
  6
CONTINUOUS
 10
104.048698
 20
29.020662
 40
4.000000
 50
-172.030304
 51
-82.030243
  0
ARC
  8
0
  6
CONTINUOUS
 10
105.712502
 20
103.136566
 40
8.000000
 50
90.000000
 51
172.030502
  0
ARC
  8
0
  6
CONTINUOUS
 10
105.712502
 20
103.136566
 40
8.000000
 50
-97.969597
 51
0.000000
  0
ARC
  8
0
  6
CONTINUOUS
 10
105.712502
 20
17.136562
 40
8.000000
 50
0.000000
 51
97.969818
  0
ARC
  8
0
  6
CONTINUOUS
 10
105.712502
 20
17.136562
 40
8.000000
 50
187.969604
 51
270.000000
  0
ARC
  8
0
  6
CONTINUOUS
 10
169.712494
 20
17.136562
 40
8.000000
 50
270.000000
 51
352.030304
  0
ARC
  8
0
  6
CONTINUOUS
 10
169.712494
 20
17.136562
 40
8.000000
 50
82.030350
 51
180.000000
  0
LINE
  8
0
  6
CONTINUOUS
 10
95.212502
 20
14.836563
 11
95.212502
 21
20.836573
  0
ARC
  8
0
  6
CONTINUOUS
 10
93.212502
 20
14.836563
 40
2.000000
 50
-90.000000
 51
0.000000
  0
ARC
  8
0
  6
CONTINUOUS
 10
100.212502
 20
20.836582
 40
5.000000
 50
135.792801
 51
180.000000
  0
LINE
  8
0
  6
CONTINUOUS
 10
22.712500
 20
81.085533
 11
94.462502
 21
81.085533
  0
LINE
  8
0
  6
CONTINUOUS
 10
22.712500
 20
20.587603
 11
94.712502
 21
20.587603
  0
CIRCLE
  8
0
  6
CONTINUOUS
 10
137.712494
 20
73.136566
 40
20.000000
  0
LINE
  8
0
  6
CONTINUOUS
 10
131.337494
 20
40.689793
 11
131.337494
 21
35.136562
  0
LINE
  8
0
  6
CONTINUOUS
 10
134.524994
 20
42.706879
 11
134.524994
 21
44.699066
  0
LINE
  8
0
  6
CONTINUOUS
 10
140.899994
 20
42.706879
 11
140.899994
 21
44.699066
  0
LINE
  8
0
  6
CONTINUOUS
 10
137.089905
 20
43.528656
 11
137.089905
 21
36.182465
  0
LINE
  8
0
  6
CONTINUOUS
 10
138.285294
 20
43.528656
 11
138.285294
 21
36.182465
  0
LINE
  8
0
  6
CONTINUOUS
 10
144.560593
 20
43.528656
 11
144.560593
 21
36.132664
  0
LINE
  8
0
  6
CONTINUOUS
 10
145.656296
 20
39.606533
 11
145.656296
 21
36.132664
  0
LINE
  8
0
  6
CONTINUOUS
 10
129.824997
 20
43.429047
 11
126.753098
 21
43.429047
  0
LINE
  8
0
  6
CONTINUOUS
 10
126.753098
 20
43.429047
 11
126.033302
 21
42.536537
  0
LINE
  8
0
  6
CONTINUOUS
 10
126.119904
 20
44.699066
 11
124.962502
 21
43.217064
  0
LINE
  8
0
  6
CONTINUOUS
 10
126.033302
 20
37.027485
 11
126.764603
 21
36.257172
  0
LINE
  8
0
  6
CONTINUOUS
 10
124.962502
 20
36.377422
 11
126.192299
 21
35.136562
  0
LINE
  8
0
  6
CONTINUOUS
 10
124.962502
 20
43.217064
 11
124.962502
 21
36.377422
  0
LINE
  8
0
  6
CONTINUOUS
 10
126.033302
 20
42.536537
 11
126.033302
 21
37.027485
  0
LINE
  8
0
  6
CONTINUOUS
 10
130.416107
 20
42.857597
 11
129.812897
 21
43.429047
  0
LINE
  8
0
  6
CONTINUOUS
 10
130.406494
 20
44.699066
 11
131.337494
 21
43.665924
  0
LINE
  8
0
  6
CONTINUOUS
 10
130.416107
 20
42.706879
 11
131.337494
 21
42.706879
  0
LINE
  8
0
  6
CONTINUOUS
 10
126.119904
 20
44.699066
 11
130.406494
 21
44.699066
  0
LINE
  8
0
  6
CONTINUOUS
 10
130.416107
 20
39.643894
 11
128.747696
 21
39.643894
  0
LINE
  8
0
  6
CONTINUOUS
 10
130.416107
 20
38.647793
 11
130.416107
 21
39.444672
  0
LINE
  8
0
  6
CONTINUOUS
 10
128.423904
 20
36.257172
 11
126.764603
 21
36.257172
  0
ARC
  8
0
  6
CONTINUOUS
 10
128.423904
 20
38.249352
 40
1.992187
 50
-89.999786
 51
0.000109
  0
LINE
  8
0
  6
CONTINUOUS
 10
130.416107
 20
35.898823
 11
130.416107
 21
35.136562
  0
LINE
  8
0
  6
CONTINUOUS
 10
131.337494
 20
43.665924
 11
131.337494
 21
42.706879
  0
LINE
  8
0
  6
CONTINUOUS
 10
130.416107
 20
39.643894
 11
130.416107
 21
38.249352
  0
LINE
  8
0
  6
CONTINUOUS
 10
128.747696
 20
40.689793
 11
128.747696
 21
39.643894
  0
LINE
  8
0
  6
CONTINUOUS
 10
130.416107
 20
35.136562
 11
131.337494
 21
35.136562
  0
LINE
  8
0
  6
CONTINUOUS
 10
130.416107
 20
35.898823
 11
129.507599
 21
35.136562
  0
LINE
  8
0
  6
CONTINUOUS
 10
138.285294
 20
36.182465
 11
138.683701
 21
36.182465
  0
LINE
  8
0
  6
CONTINUOUS
 10
136.616806
 20
36.182465
 11
136.616806
 21
35.136562
  0
LINE
  8
0
  6
CONTINUOUS
 10
138.683701
 20
36.182465
 11
138.683701
 21
35.136562
  0
LINE
  8
0
  6
CONTINUOUS
 10
140.235001
 20
42.706879
 11
140.899994
 21
42.706879
  0
LINE
  8
0
  6
CONTINUOUS
 10
134.524994
 20
42.706879
 11
135.232605
 21
42.706879
  0
LINE
  8
0
  6
CONTINUOUS
 10
134.524994
 20
44.699066
 11
140.899994
 21
44.699066
  0
LINE
  8
0
  6
CONTINUOUS
 10
136.616806
 20
35.136562
 11
138.683701
 21
35.136562
  0
LINE
  8
0
  6
CONTINUOUS
 10
136.616806
 20
36.182465
 11
137.089905
 21
36.182465
  0
ARC
  8
0
  6
CONTINUOUS
 10
147.910004
 20
42.146576
 40
2.552490
 50
-73.981873
 51
90.003510
  0
ARC
  8
0
  6
CONTINUOUS
 10
147.910004
 20
42.146576
 40
1.557193
 50
-82.585274
 51
62.411850
  0
LINE
  8
0
  6
CONTINUOUS
 10
144.087494
 20
44.699066
 11
147.910004
 21
44.699066
  0
LINE
  8
0
  6
CONTINUOUS
 10
144.087494
 20
44.699066
 11
144.087494
 21
43.528656
  0
LINE
  8
0
  6
CONTINUOUS
 10
145.656296
 20
43.528656
 11
145.656296
 21
40.602402
  0
LINE
  8
0
  6
CONTINUOUS
 10
148.614304
 20
39.693184
 11
150.194199
 21
36.132664
  0
LINE
  8
0
  6
CONTINUOUS
 10
147.696793
 20
39.606533
 11
149.191803
 21
36.132664
  0
LINE
  8
0
  6
CONTINUOUS
 10
144.087494
 20
36.132664
 11
144.560593
 21
36.132664
  0
LINE
  8
0
  6
CONTINUOUS
 10
145.656296
 20
36.132664
 11
146.092102
 21
36.132664
  0
LINE
  8
0
  6
CONTINUOUS
 10
146.092102
 20
35.136562
 11
144.087494
 21
35.136562
  0
LINE
  8
0
  6
CONTINUOUS
 10
148.993301
 20
36.132664
 11
149.191803
 21
36.132664
  0
LINE
  8
0
  6
CONTINUOUS
 10
150.194199
 20
36.132664
 11
150.462494
 21
36.132664
  0
LINE
  8
0
  6
CONTINUOUS
 10
148.993301
 20
35.136562
 11
150.462494
 21
35.136562
  0
LINE
  8
0
  6
CONTINUOUS
 10
150.462494
 20
36.132664
 11
150.462494
 21
35.136562
  0
LINE
  8
0
  6
CONTINUOUS
 10
148.993301
 20
36.132664
 11
148.993301
 21
35.136562
  0
LINE
  8
0
  6
CONTINUOUS
 10
146.092102
 20
36.132664
 11
146.092102
 21
35.136562
  0
LINE
  8
0
  6
CONTINUOUS
 10
144.087494
 20
36.132664
 11
144.087494
 21
35.136562
  0
LINE
  8
0
  6
CONTINUOUS
 10
135.574997
 20
43.528656
 11
135.232605
 21
42.706879
  0
LINE
  8
0
  6
CONTINUOUS
 10
139.946304
 20
43.528656
 11
140.235001
 21
42.706879
  0
LINE
  8
0
  6
CONTINUOUS
 10
138.285294
 20
43.528656
 11
139.946304
 21
43.528656
  0
LINE
  8
0
  6
CONTINUOUS
 10
137.089905
 20
43.528656
 11
135.574997
 21
43.528656
  0
LINE
  8
0
  6
CONTINUOUS
 10
144.087494
 20
43.528656
 11
144.560593
 21
43.528656
  0
LINE
  8
0
  6
CONTINUOUS
 10
145.656296
 20
43.528656
 11
148.631195
 21
43.526711
  0
LINE
  8
0
  6
CONTINUOUS
 10
130.416107
 20
42.857597
 11
130.416107
 21
42.706879
  0
LINE
  8
0
  6
CONTINUOUS
 10
126.192299
 20
35.136562
 11
129.507599
 21
35.136562
  0
LINE
  8
0
  6
CONTINUOUS
 10
145.656296
 20
40.602402
 11
148.110992
 21
40.602402
  0
LINE
  8
0
  6
CONTINUOUS
 10
145.656296
 20
39.606533
 11
147.696793
 21
39.606533
  0
LINE
  8
0
  6
CONTINUOUS
 10
128.747696
 20
40.689793
 11
131.337494
 21
40.689793
  0
LINE
  8
0
  6
CENTER
 10
307.712494
 20
1.149063
 11
307.712494
 21
127.899689
  0
LINE
  8
0
  6
CONTINUOUS
 10
338.712494
 20
17.084494
 11
338.712494
 21
103.171165
  0
LINE
  8
0
  6
CONTINUOUS
 10
342.712494
 20
54.136562
 11
342.712494
 21
92.136566
  0
LINE
  8
0
  6
CENTER
 10
234.978104
 20
73.136566
 11
380.478088
 21
73.136566
  0
LINE
  8
0
  6
CONTINUOUS
 10
341.712494
 20
93.136566
 11
340.712494
 21
93.136566
  0
LINE
  8
0
  6
CONTINUOUS
 10
341.712494
 20
53.136562
 11
340.712494
 21
53.136562
  0
LINE
  8
0
  6
CONTINUOUS
 10
336.747406
 20
105.170860
 11
278.677612
 21
106.184242
  0
LINE
  8
0
  6
CONTINUOUS
 10
336.747406
 20
15.084793
 11
278.677612
 21
14.070973
  0
ARC
  8
0
  6
CONTINUOUS
 10
336.712494
 20
103.171150
 40
2.000000
 50
0.000000
 51
89.000359
  0
ARC
  8
0
  6
CONTINUOUS
 10
336.712494
 20
17.084482
 40
2.000000
 50
-88.999634
 51
0.000000
  0
ARC
  8
0
  6
CONTINUOUS
 10
341.712494
 20
92.136566
 40
1.000000
 50
0.000000
 51
90.000000
  0
ARC
  8
0
  6
CONTINUOUS
 10
341.712494
 20
54.136559
 40
1.000000
 50
-90.000000
 51
0.000000
  0
LINE
  8
0
  6
CONTINUOUS
 10
276.712494
 20
31.436583
 11
276.712494
 21
10.636563
  0
LINE
  8
0
  6
CONTINUOUS
 10
267.712494
 20
111.136566
 11
275.561493
 21
111.136566
  0
LINE
  8
0
  6
CONTINUOUS
 10
275.177795
 20
9.136563
 11
267.712494
 21
9.136563
  0
LINE
  8
0
  6
CONTINUOUS
 10
280.213501
 20
85.836563
 11
336.743805
 21
85.836563
  0
LINE
  8
0
  6
CONTINUOUS
 10
279.712494
 20
34.436562
 11
337.274994
 21
34.436562
  0
ARC
  8
0
  6
CONTINUOUS
 10
275.212494
 20
10.636563
 40
1.500000
 50
-90.000000
 51
0.000000
  0
LINE
  8
0
  6
CONTINUOUS
 10
277.010406
 20
110.024780
 11
277.450195
 21
108.383423
  0
ARC
  8
0
  6
CONTINUOUS
 10
280.345612
 20
109.155602
 40
3.000000
 50
194.932602
 51
269.000610
  0
ARC
  8
0
  6
CONTINUOUS
 10
275.561493
 20
109.636566
 40
1.500000
 50
15.000070
 51
90.000000
  0
ARC
  8
0
  6
CONTINUOUS
 10
279.712494
 20
31.436583
 40
3.000000
 50
90.000000
 51
180.000000
  0
ARC
  8
0
  6
CONTINUOUS
 10
340.712494
 20
95.136566
 40
2.000000
 50
180.000000
 51
270.000000
  0
ARC
  8
0
  6
CONTINUOUS
 10
340.712494
 20
51.136574
 40
2.000000
 50
90.000000
 51
180.000000
  0
LINE
  8
0
  6
CONTINUOUS
 10
344.712494
 20
80.636566
 11
371.712494
 21
80.636566
  0
LINE
  8
0
  6
CONTINUOUS
 10
344.712494
 20
65.636566
 11
371.712494
 21
65.636566
  0
LINE
  8
0
  6
CONTINUOUS
 10
371.712494
 20
65.636566
 11
371.712494
 21
80.636566
  0
LINE
  8
0
  6
CONTINUOUS
 10
350.212494
 20
70.636566
 11
371.712494
 21
70.636566
  0
LINE
  8
0
  6
CONTINUOUS
 10
350.212494
 20
75.636566
 11
371.712494
 21
75.636566
  0
ARC
  8
0
  6
CONTINUOUS
 10
350.212494
 20
73.136574
 40
2.500000
 50
90.000000
 51
180.000000
  0
ARC
  8
0
  6
CONTINUOUS
 10
350.212494
 20
73.136566
 40
2.500000
 50
180.000000
 51
270.000000
  0
LINE
  8
0
  6
CENTER
 10
263.993805
 20
103.136566
 11
280.243805
 21
103.136566
  0
LINE
  8
0
  6
CENTER
 10
264.993805
 20
17.136562
 11
279.993805
 21
17.136562
  0
LINE
  8
0
  6
DASHED
 10
267.712494
 20
20.386562
 11
276.712494
 21
20.386562
  0
LINE
  8
0
  6
DASHED
 10
267.712494
 20
13.886563
 11
276.712494
 21
13.886563
  0
LINE
  8
0
  6
DASHED
 10
267.712494
 20
106.386566
 11
276.712494
 21
106.386566
  0
LINE
  8
0
  6
DASHED
 10
267.712494
 20
99.886566
 11
276.712494
 21
99.886566
  0
LINE
  8
0
  6
CONTINUOUS
 10
286.712494
 20
12.836563
 11
328.712494
 21
12.836563
  0
ARC
  8
0
  6
CONTINUOUS
 10
328.712494
 20
14.836563
 40
2.000000
 50
-90.000000
 51
0.000000
  0
ARC
  8
0
  6
CONTINUOUS
 10
286.712494
 20
14.836563
 40
2.000000
 50
199.216995
 51
270.000000
  0
LINE
  8
0
  6
CONTINUOUS
 10
330.712494
 20
14.836563
 11
330.712494
 21
14.979343
  0
ARC
  8
0
  6
CONTINUOUS
 10
307.712494
 20
50.836563
 40
38.000000
 50
-35.334469
 51
21.294241
  0
LINE
  8
0
  6
CONTINUOUS
 10
272.712494
 20
54.136562
 11
272.712494
 21
92.136566
  0
LINE
  8
0
  6
CONTINUOUS
 10
273.712494
 20
53.136562
 11
276.712494
 21
53.136562
  0
ARC
  8
0
  6
CONTINUOUS
 10
273.712494
 20
92.136566
 40
1.000000
 50
90.000000
 51
180.000000
  0
ARC
  8
0
  6
CONTINUOUS
 10
273.712494
 20
54.136559
 40
1.000000
 50
180.000000
 51
270.000000
  0
LINE
  8
0
  6
CONTINUOUS
 10
270.712494
 20
80.636566
 11
243.712494
 21
80.636566
  0
LINE
  8
0
  6
CONTINUOUS
 10
270.712494
 20
65.636566
 11
243.712494
 21
65.636566
  0
LINE
  8
0
  6
CONTINUOUS
 10
243.712494
 20
65.636566
 11
243.712494
 21
80.636566
  0
LINE
  8
0
  6
CONTINUOUS
 10
270.712494
 20
81.636566
 11
270.712494
 21
64.636566
  0
LINE
  8
0
  6
CONTINUOUS
 10
265.212494
 20
70.636566
 11
243.712494
 21
70.636566
  0
LINE
  8
0
  6
CONTINUOUS
 10
265.212494
 20
75.636566
 11
243.712494
 21
75.636566
  0
ARC
  8
0
  6
CONTINUOUS
 10
265.212494
 20
73.136574
 40
2.500000
 50
0.000000
 51
90.000000
  0
ARC
  8
0
  6
CONTINUOUS
 10
265.212494
 20
73.136566
 40
2.500000
 50
-90.000000
 51
0.000000
  0
LINE
  8
0
  6
CONTINUOUS
 10
267.712494
 20
9.136563
 11
267.712494
 21
65.636566
  0
LINE
  8
0
  6
CONTINUOUS
 10
267.712494
 20
111.136566
 11
267.712494
 21
80.636566
  0
LINE
  8
0
  6
CONTINUOUS
 10
273.712494
 20
93.136566
 11
276.712494
 21
93.136566
  0
LINE
  8
0
  6
CONTINUOUS
 10
267.712494
 20
96.346214
 11
273.603088
 21
95.133446
  0
LINE
  8
0
  6
CONTINUOUS
 10
273.603088
 20
95.133446
 11
278.853088
 21
91.883446
  0
LINE
  8
0
  6
CONTINUOUS
 10
278.853088
 20
91.883446
 11
279.353088
 21
86.758446
  0
LINE
  8
0
  6
CONTINUOUS
 10
279.353088
 20
86.758446
 11
281.103088
 21
84.883446
  0
LINE
  8
0
  6
CONTINUOUS
 10
281.103088
 20
84.883446
 11
281.478088
 21
81.258446
  0
LINE
  8
0
  6
CONTINUOUS
 10
281.478088
 20
81.258446
 11
281.853088
 21
75.633446
  0
LINE
  8
0
  6
CONTINUOUS
 10
281.853088
 20
75.633446
 11
282.603088
 21
70.383446
  0
LINE
  8
0
  6
CONTINUOUS
 10
282.603088
 20
70.383446
 11
280.603088
 21
64.008446
  0
LINE
  8
0
  6
CONTINUOUS
 10
280.603088
 20
64.008446
 11
281.228088
 21
57.508438
  0
LINE
  8
0
  6
CONTINUOUS
 10
281.228088
 20
57.508438
 11
279.728088
 21
51.758438
  0
LINE
  8
0
  6
CONTINUOUS
 10
279.728088
 20
51.758438
 11
275.603088
 21
48.633438
  0
LINE
  8
0
  6
CONTINUOUS
 10
275.603088
 20
48.633438
 11
270.728088
 21
48.008438
  0
LINE
  8
0
  6
CONTINUOUS
 10
270.728088
 20
48.008438
 11
267.712494
 21
46.779850
  0
LINE
  8
0
  6
CONTINUOUS
 10
344.712494
 20
81.636566
 11
344.712494
 21
64.636566
  0
LINE
  8
0
  6
CENTER
 10
263.708740
 20
50.836563
 11
349.450012
 21
50.836563
  0
LINE
  8
0
  6
CONTINUOUS
 10
276.712494
 20
110.598442
 11
276.712494
 21
49.473885
  0
LINE
  8
0
  6
CONTINUOUS
 10
342.712494
 20
81.636566
 11
344.712494
 21
81.636566
  0
LINE
  8
0
  6
CONTINUOUS
 10
342.712494
 20
64.636566
 11
344.712494
 21
64.636566
  0
LINE
  8
0
  6
CONTINUOUS
 10
270.712494
 20
81.636566
 11
272.712494
 21
81.636566
  0
LINE
  8
0
  6
CONTINUOUS
 10
270.712494
 20
64.636566
 11
272.712494
 21
64.636566
  0
ARC
  8
0
  6
CONTINUOUS
 10
278.712494
 20
108.183945
 40
2.000000
 50
180.000000
 51
269.000610
  0
ARC
  8
0
  6
CONTINUOUS
 10
278.712494
 20
12.071293
 40
2.000000
 50
91.000641
 51
180.000000
  0
LINE
  8
0
  6
CONTINUOUS
 10
277.109711
 20
10.618923
 11
277.446503
 21
11.876053
  0
ARC
  8
0
  6
CONTINUOUS
 10
275.177795
 20
11.136563
 40
2.000000
 50
270.000000
 51
345.000092
  0
ARC
  8
0
  6
CONTINUOUS
 10
280.344299
 20
11.099633
 40
3.000000
 50
91.000488
 51
165.000397
  0
LINE
  8
0
  6
CONTINUOUS
 10
15.212510
 20
90.336563
 11
61.712521
 21
90.336563
  0
LINE
  8
0
  6
CONTINUOUS
 10
63.712502
 20
120.336563
 11
63.712521
 21
92.336563
  0
LINE
  8
0
  6
CONTINUOUS
 10
13.712510
 20
120.336563
 11
13.712510
 21
92.336563
  0
LINE
  8
0
  6
CONTINUOUS
 10
11.712510
 20
102.336563
 11
63.712521
 21
102.336563
  0
LINE
  8
0
  6
CONTINUOUS
 10
61.712521
 20
90.336563
 11
63.712521
 21
92.336563
  0
LINE
  8
0
  6
CONTINUOUS
 10
13.712510
 20
92.336563
 11
15.712510
 21
90.336563
  0
LINE
  8
0
  6
CONTINUOUS
 10
13.712510
 20
92.336563
 11
63.712521
 21
92.336563
  0
LINE
  8
0
  6
CONTINUOUS
 10
14.712510
 20
121.336563
 11
62.712502
 21
121.336563
  0
LINE
  8
0
  6
CONTINUOUS
 10
62.712502
 20
121.336563
 11
63.712502
 21
120.336563
  0
LINE
  8
0
  6
CONTINUOUS
 10
14.712510
 20
121.336563
 11
13.712510
 21
120.336563
  0
LINE
  8
0
  6
CONTINUOUS
 10
13.712510
 20
120.336563
 11
63.712502
 21
120.336563
  0
LINE
  8
0
  6
CENTER
 10
5.768774
 20
111.836563
 11
17.843760
 21
111.836563
  0
LINE
  8
0
  6
CONTINUOUS
 10
11.712520
 20
118.336563
 11
11.712510
 21
102.336563
  0
LINE
  8
0
  6
CONTINUOUS
 10
12.712510
 20
119.336563
 11
13.712510
 21
119.336563
  0
ARC
  8
0
  6
CONTINUOUS
 10
12.712520
 20
118.336563
 40
1.000000
 50
90.000000
 51
180.000000
  0
LINE
  8
0
  6
CONTINUOUS
 10
8.212530
 20
115.836563
 11
8.212530
 21
107.836563
  0
LINE
  8
0
  6
CONTINUOUS
 10
8.212530
 20
115.836563
 11
11.712520
 21
117.336563
  0
LINE
  8
0
  6
CONTINUOUS
 10
8.212500
 20
107.836563
 11
11.712510
 21
106.336563
  0
LINE
  8
0
  6
CENTER
 10
38.712509
 20
85.642815
 11
38.712509
 21
126.724060
  0
LINE
  8
0
  6
CONTINUOUS
 10
15.212510
 20
90.336563
 11
15.212510
 21
88.836563
  0
LINE
  8
0
  6
CONTINUOUS
 10
61.212509
 20
90.336563
 11
61.212509
 21
88.836563
  0
LINE
  8
0
  6
CONTINUOUS
 10
332.712494
 20
120.336571
 11
332.712494
 21
105.241272
  0
LINE
  8
0
  6
CONTINUOUS
 10
282.712494
 20
120.336571
 11
282.712494
 21
106.113823
  0
LINE
  8
0
  6
CONTINUOUS
 10
283.712494
 20
121.336571
 11
331.712494
 21
121.336571
  0
LINE
  8
0
  6
CONTINUOUS
 10
331.712494
 20
121.336571
 11
332.712494
 21
120.336571
  0
LINE
  8
0
  6
CONTINUOUS
 10
283.712494
 20
121.336571
 11
282.712494
 21
120.336571
  0
LINE
  8
0
  6
CONTINUOUS
 10
282.712494
 20
120.336571
 11
332.712494
 21
120.336571
  0
TEXT
  8
0
 10
-7.000000
 20
0.000000
 40
4.000000
 41
1.000000
  1
HFM-15T-10~240-S25T
 50
0.000000
  0
ENDSEC
  0
EOF
