  0
SECTION
  2
HEADER
  9
$CLAYER
  8
1
  9
$LTSCALE
 40
3.0
  0
ENDSEC
  0
SECTION
  2
TABLES
  0
TABLE
  2
LTYPE
 70
     4
  0
LTYPE
  2
CONTINUOUS
  3
solid line
 70
    64
 72
    65
 73
     0
 40
0.0
  0
LTYPE
  2
DASHED
  3
__ __ __ __ __ __ __ __ __ __ __ __ __ __ __
 70
    64
 72
    65
 73
     2
 40
0.75
 49
0.5
 49
-0.25
  0
LTYPE
  2
CENTER
  3
____ _ ____ _ ____ _ ____ _ ____ _ ____ _ ____
 70
    64
 72
    65
 73
     4
 40
2.0
 49
1.25
 49
-0.25
 49
0.25
 49
-0.25
  0
LTYPE
  2
PHANTOM
  3
_____ _ _ _____ _ _ _____ _ _ _____ _ _ ____
 70
    64
 72
    65
 73
     6
 40
2.5
 49
1.25
 49
-0.25
 49
0.25
 49
-0.25
 49
0.25
 49
-0.25
  0
ENDTAB
  0
TABLE
  2
LAYER
 70
     1
  0
LAYER
  2
0
 70
    64
 62
     7
  6
CONTINUOUS
  0
ENDTAB
  0
TABLE
  2
STYLE
 70
     1
  0
STYLE
  2
STANDARD
 70
     0
 40
0.000000
 41
1.000000
 50
0.000000
 71
     0
 42
3.000000
  3
txt
  4
BIGFONT
  0
ENDTAB
  0
ENDSEC
  0
SECTION
  2
BLOCKS
  0
ENDSEC
  0
SECTION
  2
ENTITIES
  0
LINE
  8
0
  6
CONTINUOUS
 10
4.238750
 20
17.081564
 11
4.238750
 21
81.081566
  0
LINE
  8
0
  6
CONTINUOUS
 10
8.202847
 20
87.081566
 11
24.738750
 21
87.081566
  0
LINE
  8
0
  6
CONTINUOUS
 10
8.202853
 20
11.081563
 11
24.738750
 21
11.081563
  0
LINE
  8
0
  6
CONTINUOUS
 10
4.738750
 20
14.081563
 11
4.738750
 21
84.081566
  0
LINE
  8
0
  6
CONTINUOUS
 10
4.238750
 20
81.081566
 11
4.738750
 21
81.581566
  0
LINE
  8
0
  6
CONTINUOUS
 10
4.238750
 20
17.081564
 11
4.738750
 21
16.581564
  0
LINE
  8
0
  6
CONTINUOUS
 10
5.604768
 20
85.581551
 11
4.738750
 21
84.081566
  0
ARC
  8
0
  6
CONTINUOUS
 10
8.202858
 20
84.081573
 40
3.000000
 50
90.000000
 51
150.000397
  0
LINE
  8
0
  6
CONTINUOUS
 10
5.604768
 20
12.581573
 11
4.738750
 21
14.081563
  0
ARC
  8
0
  6
CONTINUOUS
 10
8.202858
 20
14.081553
 40
3.000000
 50
-150.000397
 51
-90.000000
  0
LINE
  8
0
  6
CONTINUOUS
 10
6.320386
 20
79.330566
 11
24.738750
 21
79.330566
  0
LINE
  8
0
  6
CONTINUOUS
 10
24.738750
 20
18.832563
 11
6.320386
 21
18.832563
  0
LINE
  8
0
  6
CONTINUOUS
 10
25.238750
 20
88.581566
 11
25.238750
 21
87.081566
  0
LINE
  8
0
  6
CONTINUOUS
 10
18.238750
 20
88.581566
 11
18.238750
 21
87.081566
  0
LINE
  8
0
  6
CONTINUOUS
 10
18.238750
 20
88.581566
 11
25.238750
 21
88.581566
  0
LINE
  8
0
  6
CONTINUOUS
 10
22.638750
 20
101.581566
 11
22.638750
 21
88.581566
  0
LINE
  8
0
  6
CONTINUOUS
 10
20.838751
 20
102.206566
 11
20.838751
 21
88.581566
  0
LINE
  8
0
  6
CONTINUOUS
 10
19.038750
 20
100.144066
 11
19.038750
 21
88.581566
  0
LINE
  8
0
  6
CONTINUOUS
 10
24.438749
 20
100.956566
 11
24.438749
 21
88.581566
  0
LINE
  8
0
  6
CONTINUOUS
 10
20.838751
 20
102.206566
 11
22.638750
 21
101.581566
  0
LINE
  8
0
  6
CONTINUOUS
 10
19.038750
 20
100.144066
 11
20.838751
 21
100.769066
  0
LINE
  8
0
  6
CONTINUOUS
 10
24.438749
 20
100.956566
 11
22.639759
 21
100.508850
  0
LINE
  8
0
  6
CONTINUOUS
 10
24.738750
 20
11.081563
 11
24.738750
 21
87.081566
  0
LINE
  8
0
  6
CENTER
 10
-4.742500
 20
49.081562
 11
115.038750
 21
49.081562
  0
LINE
  8
0
  6
CONTINUOUS
 10
24.738750
 20
87.081566
 11
97.658752
 21
87.081566
  0
LINE
  8
0
  6
CONTINUOUS
 10
95.238747
 20
11.081563
 11
24.738750
 21
11.081563
  0
LINE
  8
0
  6
CONTINUOUS
 10
107.738747
 20
7.381563
 11
171.738754
 21
7.381563
  0
LINE
  8
0
  6
CONTINUOUS
 10
107.738747
 20
109.381561
 11
171.738754
 21
109.381561
  0
LINE
  8
0
  6
CONTINUOUS
 10
97.238747
 20
84.081566
 11
97.238747
 21
32.681564
  0
LINE
  8
0
  6
CENTER
 10
139.738754
 20
121.769066
 11
139.738754
 21
-1.855937
  0
LINE
  8
0
  6
CENTER
 10
171.738754
 20
21.519064
 11
171.738754
 21
10.019063
  0
LINE
  8
0
  6
CENTER
 10
165.895050
 20
15.381563
 11
178.145050
 21
15.381563
  0
CIRCLE
  8
0
  6
CONTINUOUS
 10
171.738754
 20
15.381563
 40
3.250000
  0
LINE
  8
0
  6
CENTER
 10
171.738754
 20
95.244064
 11
171.738754
 21
108.004532
  0
LINE
  8
0
  6
CENTER
 10
165.895050
 20
101.381561
 11
178.145050
 21
101.381561
  0
CIRCLE
  8
0
  6
CONTINUOUS
 10
171.738754
 20
101.381561
 40
3.250000
  0
LINE
  8
0
  6
CENTER
 10
107.738747
 20
95.244064
 11
107.738747
 21
106.744064
  0
LINE
  8
0
  6
CENTER
 10
113.582550
 20
101.381561
 11
101.332550
 21
101.381561
  0
CIRCLE
  8
0
  6
CONTINUOUS
 10
107.738747
 20
101.381561
 40
3.250000
  0
LINE
  8
0
  6
CENTER
 10
107.738747
 20
21.519064
 11
107.738747
 21
10.019063
  0
LINE
  8
0
  6
CENTER
 10
113.582550
 20
15.381563
 11
101.332550
 21
15.381563
  0
CIRCLE
  8
0
  6
CONTINUOUS
 10
107.738747
 20
15.381563
 40
3.250000
  0
LINE
  8
0
  6
CONTINUOUS
 10
179.738754
 20
72.742966
 11
179.738754
 21
44.020424
  0
LINE
  8
0
  6
CONTINUOUS
 10
99.738747
 20
72.742836
 11
99.738747
 21
44.020023
  0
ARC
  8
0
  6
CONTINUOUS
 10
139.738754
 20
58.381561
 40
42.500000
 50
19.749901
 51
160.250107
  0
ARC
  8
0
  6
CONTINUOUS
 10
139.738754
 20
58.381561
 40
42.500000
 50
199.749893
 51
340.250092
  0
LINE
  8
0
  6
CONTINUOUS
 10
182.238754
 20
84.081566
 11
182.238754
 21
32.681572
  0
LINE
  8
0
  6
CONTINUOUS
 10
179.661453
 20
102.490723
 11
182.238754
 21
84.081566
  0
LINE
  8
0
  6
CONTINUOUS
 10
179.661453
 20
14.272443
 11
182.238754
 21
32.681572
  0
LINE
  8
0
  6
CONTINUOUS
 10
99.816048
 20
14.272363
 11
97.238747
 21
32.681564
  0
LINE
  8
0
  6
CONTINUOUS
 10
99.816048
 20
102.490715
 11
97.238747
 21
84.081566
  0
LINE
  8
0
  6
CENTER
 10
109.001251
 20
71.381561
 11
168.792816
 21
71.381561
  0
LINE
  8
0
  6
CONTINUOUS
 10
149.238754
 20
73.881561
 11
149.238754
 21
68.881561
  0
LINE
  8
0
  6
CONTINUOUS
 10
144.238754
 20
68.881561
 11
144.238754
 21
73.881561
  0
LINE
  8
0
  6
CONTINUOUS
 10
144.238754
 20
73.881561
 11
149.238754
 21
73.881561
  0
LINE
  8
0
  6
CONTINUOUS
 10
144.238754
 20
68.881561
 11
149.238754
 21
68.881561
  0
ARC
  8
0
  6
CONTINUOUS
 10
139.738754
 20
71.381561
 40
7.500000
 50
19.471201
 51
340.528809
  0
LINE
  8
0
  6
CONTINUOUS
 10
119.738747
 20
105.381561
 11
159.738754
 21
105.381561
  0
LINE
  8
0
  6
CONTINUOUS
 10
119.738747
 20
11.381563
 11
159.738754
 21
11.381563
  0
LINE
  8
0
  6
CONTINUOUS
 10
177.363846
 20
90.052063
 11
179.763046
 21
72.914993
  0
LINE
  8
0
  6
CONTINUOUS
 10
179.741150
 20
43.691299
 11
177.363846
 21
26.711063
  0
LINE
  8
0
  6
CONTINUOUS
 10
99.789253
 20
43.313641
 11
102.113647
 21
26.711073
  0
LINE
  8
0
  6
CONTINUOUS
 10
102.113647
 20
90.052055
 11
99.655411
 21
72.493240
  0
ARC
  8
0
  6
CONTINUOUS
 10
159.738754
 20
101.381561
 40
4.000000
 50
0.000000
 51
90.000000
  0
ARC
  8
0
  6
CONTINUOUS
 10
119.738747
 20
101.381561
 40
4.000000
 50
90.000000
 51
180.000000
  0
ARC
  8
0
  6
CONTINUOUS
 10
159.738754
 20
15.381563
 40
4.000000
 50
-90.000000
 51
0.000000
  0
ARC
  8
0
  6
CONTINUOUS
 10
119.738747
 20
15.381563
 40
4.000000
 50
-180.000000
 51
-90.000000
  0
ARC
  8
0
  6
CONTINUOUS
 10
173.402557
 20
89.497459
 40
4.000000
 50
7.969701
 51
97.969757
  0
ARC
  8
0
  6
CONTINUOUS
 10
171.738754
 20
101.381561
 40
8.000000
 50
180.000000
 51
277.969513
  0
ARC
  8
0
  6
CONTINUOUS
 10
171.738754
 20
101.381561
 40
8.000000
 50
7.969647
 51
90.000000
  0
ARC
  8
0
  6
CONTINUOUS
 10
106.074951
 20
89.497459
 40
4.000000
 50
82.030243
 51
172.030304
  0
ARC
  8
0
  6
CONTINUOUS
 10
173.402557
 20
27.265663
 40
4.000000
 50
-97.969757
 51
-7.969701
  0
ARC
  8
0
  6
CONTINUOUS
 10
106.074951
 20
27.265663
 40
4.000000
 50
-172.030304
 51
-82.030243
  0
ARC
  8
0
  6
CONTINUOUS
 10
107.738747
 20
101.381561
 40
8.000000
 50
90.000000
 51
172.030502
  0
ARC
  8
0
  6
CONTINUOUS
 10
107.738747
 20
101.381561
 40
8.000000
 50
-97.969597
 51
0.000000
  0
ARC
  8
0
  6
CONTINUOUS
 10
107.738747
 20
15.381563
 40
8.000000
 50
0.000000
 51
97.969818
  0
ARC
  8
0
  6
CONTINUOUS
 10
107.738747
 20
15.381563
 40
8.000000
 50
187.969604
 51
270.000000
  0
ARC
  8
0
  6
CONTINUOUS
 10
171.738754
 20
15.381563
 40
8.000000
 50
270.000000
 51
352.030304
  0
ARC
  8
0
  6
CONTINUOUS
 10
171.738754
 20
15.381563
 40
8.000000
 50
82.030350
 51
180.000000
  0
LINE
  8
0
  6
CONTINUOUS
 10
97.238747
 20
13.081563
 11
97.238747
 21
19.081573
  0
ARC
  8
0
  6
CONTINUOUS
 10
95.238747
 20
13.081563
 40
2.000000
 50
-90.000000
 51
0.000000
  0
ARC
  8
0
  6
CONTINUOUS
 10
102.238747
 20
19.081583
 40
5.000000
 50
135.792801
 51
180.000000
  0
LINE
  8
0
  6
CONTINUOUS
 10
24.738750
 20
79.330536
 11
96.488747
 21
79.330536
  0
LINE
  8
0
  6
CONTINUOUS
 10
24.738750
 20
18.832603
 11
96.738747
 21
18.832603
  0
CIRCLE
  8
0
  6
CONTINUOUS
 10
139.738754
 20
71.381561
 40
20.000000
  0
LINE
  8
0
  6
CONTINUOUS
 10
133.363754
 20
38.934792
 11
133.363754
 21
33.381561
  0
LINE
  8
0
  6
CONTINUOUS
 10
136.551254
 20
40.951878
 11
136.551254
 21
42.944065
  0
LINE
  8
0
  6
CONTINUOUS
 10
142.926254
 20
40.951878
 11
142.926254
 21
42.944065
  0
LINE
  8
0
  6
CONTINUOUS
 10
139.116150
 20
41.773655
 11
139.116150
 21
34.427464
  0
LINE
  8
0
  6
CONTINUOUS
 10
140.311554
 20
41.773655
 11
140.311554
 21
34.427464
  0
LINE
  8
0
  6
CONTINUOUS
 10
146.586853
 20
41.773655
 11
146.586853
 21
34.377663
  0
LINE
  8
0
  6
CONTINUOUS
 10
147.682556
 20
37.851532
 11
147.682556
 21
34.377663
  0
LINE
  8
0
  6
CONTINUOUS
 10
131.851257
 20
41.674046
 11
128.779343
 21
41.674046
  0
LINE
  8
0
  6
CONTINUOUS
 10
128.779343
 20
41.674046
 11
128.059555
 21
40.781536
  0
LINE
  8
0
  6
CONTINUOUS
 10
128.146149
 20
42.944065
 11
126.988747
 21
41.462063
  0
LINE
  8
0
  6
CONTINUOUS
 10
128.059555
 20
35.272484
 11
128.790848
 21
34.502174
  0
LINE
  8
0
  6
CONTINUOUS
 10
126.988747
 20
34.622421
 11
128.218552
 21
33.381561
  0
LINE
  8
0
  6
CONTINUOUS
 10
126.988747
 20
41.462063
 11
126.988747
 21
34.622421
  0
LINE
  8
0
  6
CONTINUOUS
 10
128.059555
 20
40.781536
 11
128.059555
 21
35.272484
  0
LINE
  8
0
  6
CONTINUOUS
 10
132.442352
 20
41.102596
 11
131.839157
 21
41.674046
  0
LINE
  8
0
  6
CONTINUOUS
 10
132.432755
 20
42.944065
 11
133.363754
 21
41.910923
  0
LINE
  8
0
  6
CONTINUOUS
 10
132.442352
 20
40.951878
 11
133.363754
 21
40.951878
  0
LINE
  8
0
  6
CONTINUOUS
 10
128.146149
 20
42.944065
 11
132.432755
 21
42.944065
  0
LINE
  8
0
  6
CONTINUOUS
 10
132.442352
 20
37.888893
 11
130.773956
 21
37.888893
  0
LINE
  8
0
  6
CONTINUOUS
 10
132.442352
 20
36.892792
 11
132.442352
 21
37.689674
  0
LINE
  8
0
  6
CONTINUOUS
 10
130.450150
 20
34.502174
 11
128.790848
 21
34.502174
  0
ARC
  8
0
  6
CONTINUOUS
 10
130.450150
 20
36.494354
 40
1.992187
 50
-89.999786
 51
0.000109
  0
LINE
  8
0
  6
CONTINUOUS
 10
132.442352
 20
34.143822
 11
132.442352
 21
33.381561
  0
LINE
  8
0
  6
CONTINUOUS
 10
133.363754
 20
41.910923
 11
133.363754
 21
40.951878
  0
LINE
  8
0
  6
CONTINUOUS
 10
132.442352
 20
37.888893
 11
132.442352
 21
36.494354
  0
LINE
  8
0
  6
CONTINUOUS
 10
130.773956
 20
38.934792
 11
130.773956
 21
37.888893
  0
LINE
  8
0
  6
CONTINUOUS
 10
132.442352
 20
33.381561
 11
133.363754
 21
33.381561
  0
LINE
  8
0
  6
CONTINUOUS
 10
132.442352
 20
34.143822
 11
131.533844
 21
33.381561
  0
LINE
  8
0
  6
CONTINUOUS
 10
140.311554
 20
34.427464
 11
140.709946
 21
34.427464
  0
LINE
  8
0
  6
CONTINUOUS
 10
138.643051
 20
34.427464
 11
138.643051
 21
33.381561
  0
LINE
  8
0
  6
CONTINUOUS
 10
140.709946
 20
34.427464
 11
140.709946
 21
33.381561
  0
LINE
  8
0
  6
CONTINUOUS
 10
142.261246
 20
40.951878
 11
142.926254
 21
40.951878
  0
LINE
  8
0
  6
CONTINUOUS
 10
136.551254
 20
40.951878
 11
137.258850
 21
40.951878
  0
LINE
  8
0
  6
CONTINUOUS
 10
136.551254
 20
42.944065
 11
142.926254
 21
42.944065
  0
LINE
  8
0
  6
CONTINUOUS
 10
138.643051
 20
33.381561
 11
140.709946
 21
33.381561
  0
LINE
  8
0
  6
CONTINUOUS
 10
138.643051
 20
34.427464
 11
139.116150
 21
34.427464
  0
ARC
  8
0
  6
CONTINUOUS
 10
149.936249
 20
40.391575
 40
2.552490
 50
-73.981873
 51
90.003510
  0
ARC
  8
0
  6
CONTINUOUS
 10
149.936249
 20
40.391575
 40
1.557193
 50
-82.585274
 51
62.411850
  0
LINE
  8
0
  6
CONTINUOUS
 10
146.113754
 20
42.944065
 11
149.936249
 21
42.944065
  0
LINE
  8
0
  6
CONTINUOUS
 10
146.113754
 20
42.944065
 11
146.113754
 21
41.773655
  0
LINE
  8
0
  6
CONTINUOUS
 10
147.682556
 20
41.773655
 11
147.682556
 21
38.847404
  0
LINE
  8
0
  6
CONTINUOUS
 10
150.640549
 20
37.938183
 11
152.220444
 21
34.377663
  0
LINE
  8
0
  6
CONTINUOUS
 10
149.723053
 20
37.851532
 11
151.218048
 21
34.377663
  0
LINE
  8
0
  6
CONTINUOUS
 10
146.113754
 20
34.377663
 11
146.586853
 21
34.377663
  0
LINE
  8
0
  6
CONTINUOUS
 10
147.682556
 20
34.377663
 11
148.118347
 21
34.377663
  0
LINE
  8
0
  6
CONTINUOUS
 10
148.118347
 20
33.381561
 11
146.113754
 21
33.381561
  0
LINE
  8
0
  6
CONTINUOUS
 10
151.019547
 20
34.377663
 11
151.218048
 21
34.377663
  0
LINE
  8
0
  6
CONTINUOUS
 10
152.220444
 20
34.377663
 11
152.488754
 21
34.377663
  0
LINE
  8
0
  6
CONTINUOUS
 10
151.019547
 20
33.381561
 11
152.488754
 21
33.381561
  0
LINE
  8
0
  6
CONTINUOUS
 10
152.488754
 20
34.377663
 11
152.488754
 21
33.381561
  0
LINE
  8
0
  6
CONTINUOUS
 10
151.019547
 20
34.377663
 11
151.019547
 21
33.381561
  0
LINE
  8
0
  6
CONTINUOUS
 10
148.118347
 20
34.377663
 11
148.118347
 21
33.381561
  0
LINE
  8
0
  6
CONTINUOUS
 10
146.113754
 20
34.377663
 11
146.113754
 21
33.381561
  0
LINE
  8
0
  6
CONTINUOUS
 10
137.601257
 20
41.773655
 11
137.258850
 21
40.951878
  0
LINE
  8
0
  6
CONTINUOUS
 10
141.972549
 20
41.773655
 11
142.261246
 21
40.951878
  0
LINE
  8
0
  6
CONTINUOUS
 10
140.311554
 20
41.773655
 11
141.972549
 21
41.773655
  0
LINE
  8
0
  6
CONTINUOUS
 10
139.116150
 20
41.773655
 11
137.601257
 21
41.773655
  0
LINE
  8
0
  6
CONTINUOUS
 10
146.113754
 20
41.773655
 11
146.586853
 21
41.773655
  0
LINE
  8
0
  6
CONTINUOUS
 10
147.682556
 20
41.773655
 11
150.657455
 21
41.771709
  0
LINE
  8
0
  6
CONTINUOUS
 10
132.442352
 20
41.102596
 11
132.442352
 21
40.951878
  0
LINE
  8
0
  6
CONTINUOUS
 10
128.218552
 20
33.381561
 11
131.533844
 21
33.381561
  0
LINE
  8
0
  6
CONTINUOUS
 10
147.682556
 20
38.847404
 11
150.137253
 21
38.847404
  0
LINE
  8
0
  6
CONTINUOUS
 10
147.682556
 20
37.851532
 11
149.723053
 21
37.851532
  0
LINE
  8
0
  6
CONTINUOUS
 10
130.773956
 20
38.934792
 11
133.363754
 21
38.934792
  0
LINE
  8
0
  6
CENTER
 10
314.738739
 20
-0.605937
 11
314.738739
 21
113.894066
  0
LINE
  8
0
  6
CONTINUOUS
 10
345.738739
 20
15.329493
 11
345.738739
 21
101.416161
  0
LINE
  8
0
  6
CONTINUOUS
 10
349.738739
 20
52.381561
 11
349.738739
 21
90.381561
  0
LINE
  8
0
  6
CENTER
 10
242.004349
 20
71.381561
 11
387.504364
 21
71.381561
  0
LINE
  8
0
  6
CONTINUOUS
 10
348.738739
 20
91.381561
 11
347.738739
 21
91.381561
  0
LINE
  8
0
  6
CONTINUOUS
 10
348.738739
 20
51.381561
 11
347.738739
 21
51.381561
  0
LINE
  8
0
  6
CONTINUOUS
 10
343.773651
 20
103.415863
 11
285.703857
 21
104.429245
  0
LINE
  8
0
  6
CONTINUOUS
 10
343.773651
 20
13.329793
 11
285.703857
 21
12.315973
  0
ARC
  8
0
  6
CONTINUOUS
 10
343.738739
 20
101.416153
 40
2.000000
 50
0.000000
 51
89.000359
  0
ARC
  8
0
  6
CONTINUOUS
 10
343.738739
 20
15.329483
 40
2.000000
 50
-88.999634
 51
0.000000
  0
ARC
  8
0
  6
CONTINUOUS
 10
348.738739
 20
90.381561
 40
1.000000
 50
0.000000
 51
90.000000
  0
ARC
  8
0
  6
CONTINUOUS
 10
348.738739
 20
52.381561
 40
1.000000
 50
-90.000000
 51
0.000000
  0
LINE
  8
0
  6
CONTINUOUS
 10
283.738739
 20
29.681583
 11
283.738739
 21
8.881563
  0
LINE
  8
0
  6
CONTINUOUS
 10
274.738739
 20
109.381561
 11
282.587738
 21
109.381561
  0
LINE
  8
0
  6
CONTINUOUS
 10
282.204041
 20
7.381563
 11
274.738739
 21
7.381563
  0
LINE
  8
0
  6
CONTINUOUS
 10
287.239746
 20
84.081566
 11
343.770050
 21
84.081566
  0
LINE
  8
0
  6
CONTINUOUS
 10
286.738739
 20
32.681564
 11
344.301239
 21
32.681564
  0
ARC
  8
0
  6
CONTINUOUS
 10
282.238739
 20
8.881563
 40
1.500000
 50
-90.000000
 51
0.000000
  0
LINE
  8
0
  6
CONTINUOUS
 10
284.036652
 20
108.269783
 11
284.514343
 21
106.487038
  0
ARC
  8
0
  6
CONTINUOUS
 10
287.371857
 20
107.400604
 40
3.000000
 50
194.932602
 51
269.000610
  0
ARC
  8
0
  6
CONTINUOUS
 10
282.587738
 20
107.881561
 40
1.500000
 50
15.000070
 51
90.000000
  0
ARC
  8
0
  6
CONTINUOUS
 10
286.738739
 20
29.681583
 40
3.000000
 50
90.000000
 51
180.000000
  0
ARC
  8
0
  6
CONTINUOUS
 10
347.738739
 20
93.381561
 40
2.000000
 50
180.000000
 51
270.000000
  0
ARC
  8
0
  6
CONTINUOUS
 10
347.738739
 20
49.381573
 40
2.000000
 50
90.000000
 51
180.000000
  0
LINE
  8
0
  6
CONTINUOUS
 10
351.738739
 20
78.881561
 11
378.738739
 21
78.881561
  0
LINE
  8
0
  6
CONTINUOUS
 10
351.738739
 20
63.881561
 11
378.738739
 21
63.881561
  0
LINE
  8
0
  6
CONTINUOUS
 10
378.738739
 20
63.881561
 11
378.738739
 21
78.881561
  0
LINE
  8
0
  6
CONTINUOUS
 10
357.238739
 20
68.881561
 11
378.738739
 21
68.881561
  0
LINE
  8
0
  6
CONTINUOUS
 10
357.238739
 20
73.881561
 11
378.738739
 21
73.881561
  0
ARC
  8
0
  6
CONTINUOUS
 10
357.238739
 20
71.381577
 40
2.500000
 50
90.000000
 51
180.000000
  0
ARC
  8
0
  6
CONTINUOUS
 10
357.238739
 20
71.381561
 40
2.500000
 50
180.000000
 51
270.000000
  0
LINE
  8
0
  6
CENTER
 10
271.020050
 20
101.381561
 11
287.270050
 21
101.381561
  0
LINE
  8
0
  6
CENTER
 10
272.020050
 20
15.381563
 11
287.020050
 21
15.381563
  0
LINE
  8
0
  6
DASHED
 10
274.738739
 20
18.631563
 11
283.738739
 21
18.631563
  0
LINE
  8
0
  6
DASHED
 10
274.738739
 20
12.131563
 11
283.738739
 21
12.131563
  0
LINE
  8
0
  6
DASHED
 10
274.738739
 20
104.631561
 11
283.738739
 21
104.631561
  0
LINE
  8
0
  6
DASHED
 10
274.738739
 20
98.131561
 11
283.738739
 21
98.131561
  0
LINE
  8
0
  6
CONTINUOUS
 10
293.738739
 20
11.081563
 11
335.738739
 21
11.081563
  0
ARC
  8
0
  6
CONTINUOUS
 10
335.738739
 20
13.081563
 40
2.000000
 50
-90.000000
 51
0.000000
  0
ARC
  8
0
  6
CONTINUOUS
 10
293.738739
 20
13.081563
 40
2.000000
 50
199.216995
 51
270.000000
  0
LINE
  8
0
  6
CONTINUOUS
 10
337.738739
 20
13.081563
 11
337.738739
 21
13.224343
  0
ARC
  8
0
  6
CONTINUOUS
 10
314.738739
 20
49.081562
 40
38.000000
 50
-35.334469
 51
21.294241
  0
LINE
  8
0
  6
CONTINUOUS
 10
279.738739
 20
52.381561
 11
279.738739
 21
90.381561
  0
LINE
  8
0
  6
CONTINUOUS
 10
280.738739
 20
51.381561
 11
283.738739
 21
51.381561
  0
ARC
  8
0
  6
CONTINUOUS
 10
280.738739
 20
90.381561
 40
1.000000
 50
90.000000
 51
180.000000
  0
ARC
  8
0
  6
CONTINUOUS
 10
280.738739
 20
52.381561
 40
1.000000
 50
180.000000
 51
270.000000
  0
LINE
  8
0
  6
CONTINUOUS
 10
277.738739
 20
78.881561
 11
250.738754
 21
78.881561
  0
LINE
  8
0
  6
CONTINUOUS
 10
277.738739
 20
63.881561
 11
250.738754
 21
63.881561
  0
LINE
  8
0
  6
CONTINUOUS
 10
250.738754
 20
63.881561
 11
250.738754
 21
78.881561
  0
LINE
  8
0
  6
CONTINUOUS
 10
277.738739
 20
79.881561
 11
277.738739
 21
62.881561
  0
LINE
  8
0
  6
CONTINUOUS
 10
272.238739
 20
68.881561
 11
250.738754
 21
68.881561
  0
LINE
  8
0
  6
CONTINUOUS
 10
272.238739
 20
73.881561
 11
250.738754
 21
73.881561
  0
ARC
  8
0
  6
CONTINUOUS
 10
272.238739
 20
71.381577
 40
2.500000
 50
0.000000
 51
90.000000
  0
ARC
  8
0
  6
CONTINUOUS
 10
272.238739
 20
71.381561
 40
2.500000
 50
-90.000000
 51
0.000000
  0
LINE
  8
0
  6
CONTINUOUS
 10
274.738739
 20
7.381563
 11
274.738739
 21
63.881561
  0
LINE
  8
0
  6
CONTINUOUS
 10
274.738739
 20
109.381561
 11
274.738739
 21
78.881561
  0
LINE
  8
0
  6
CONTINUOUS
 10
280.738739
 20
91.381561
 11
283.738739
 21
91.381561
  0
LINE
  8
0
  6
CONTINUOUS
 10
274.738739
 20
94.591209
 11
280.629364
 21
93.378441
  0
LINE
  8
0
  6
CONTINUOUS
 10
280.629364
 20
93.378441
 11
285.879364
 21
90.128441
  0
LINE
  8
0
  6
CONTINUOUS
 10
285.879364
 20
90.128441
 11
286.379364
 21
85.003441
  0
LINE
  8
0
  6
CONTINUOUS
 10
286.379364
 20
85.003441
 11
288.129364
 21
83.128441
  0
LINE
  8
0
  6
CONTINUOUS
 10
288.129364
 20
83.128441
 11
288.504364
 21
79.503441
  0
LINE
  8
0
  6
CONTINUOUS
 10
288.504364
 20
79.503441
 11
288.879364
 21
73.878441
  0
LINE
  8
0
  6
CONTINUOUS
 10
288.879364
 20
73.878441
 11
289.629364
 21
68.628441
  0
LINE
  8
0
  6
CONTINUOUS
 10
289.629364
 20
68.628441
 11
287.629364
 21
62.253445
  0
LINE
  8
0
  6
CONTINUOUS
 10
287.629364
 20
62.253445
 11
288.254364
 21
55.753437
  0
LINE
  8
0
  6
CONTINUOUS
 10
288.254364
 20
55.753437
 11
286.754364
 21
50.003437
  0
LINE
  8
0
  6
CONTINUOUS
 10
286.754364
 20
50.003437
 11
282.629364
 21
46.878437
  0
LINE
  8
0
  6
CONTINUOUS
 10
282.629364
 20
46.878437
 11
277.754364
 21
46.253437
  0
LINE
  8
0
  6
CONTINUOUS
 10
277.754364
 20
46.253437
 11
274.738739
 21
45.024849
  0
LINE
  8
0
  6
CONTINUOUS
 10
351.738739
 20
79.881561
 11
351.738739
 21
62.881561
  0
LINE
  8
0
  6
CENTER
 10
268.353058
 20
49.081562
 11
356.476257
 21
49.081562
  0
LINE
  8
0
  6
CONTINUOUS
 10
283.738739
 20
108.843445
 11
283.738739
 21
47.718884
  0
LINE
  8
0
  6
CONTINUOUS
 10
349.738739
 20
79.881561
 11
351.738739
 21
79.881561
  0
LINE
  8
0
  6
CONTINUOUS
 10
349.738739
 20
62.881561
 11
351.738739
 21
62.881561
  0
LINE
  8
0
  6
CONTINUOUS
 10
277.738739
 20
79.881561
 11
279.738739
 21
79.881561
  0
LINE
  8
0
  6
CONTINUOUS
 10
277.738739
 20
62.881561
 11
279.738739
 21
62.881561
  0
ARC
  8
0
  6
CONTINUOUS
 10
285.738739
 20
106.428940
 40
2.000000
 50
180.000000
 51
269.000610
  0
ARC
  8
0
  6
CONTINUOUS
 10
285.738739
 20
10.316293
 40
2.000000
 50
91.000641
 51
180.000000
  0
LINE
  8
0
  6
CONTINUOUS
 10
284.135956
 20
8.863923
 11
284.472748
 21
10.121053
  0
ARC
  8
0
  6
CONTINUOUS
 10
282.204041
 20
9.381563
 40
2.000000
 50
270.000000
 51
345.000092
  0
ARC
  8
0
  6
CONTINUOUS
 10
287.370544
 20
9.344633
 40
3.000000
 50
91.000488
 51
165.000397
  0
LINE
  8
0
  6
CENTER
 10
139.738754
 20
313.862488
 11
139.738754
 21
177.362503
  0
LINE
  8
0
  6
CENTER
 10
-5.761250
 20
245.362503
 11
188.238754
 21
245.362503
  0
LINE
  8
0
  6
CONTINUOUS
 10
178.431229
 20
276.362488
 11
99.187065
 21
276.362488
  0
LINE
  8
0
  6
CONTINUOUS
 10
4.238750
 20
213.362503
 11
4.238750
 21
277.362488
  0
LINE
  8
0
  6
CONTINUOUS
 10
8.202847
 20
283.362488
 11
24.738750
 21
283.362488
  0
LINE
  8
0
  6
CONTINUOUS
 10
8.202853
 20
207.362503
 11
24.738750
 21
207.362503
  0
LINE
  8
0
  6
CONTINUOUS
 10
4.738750
 20
210.362503
 11
4.738750
 21
280.362488
  0
LINE
  8
0
  6
CONTINUOUS
 10
4.238750
 20
277.362488
 11
4.738750
 21
277.862488
  0
LINE
  8
0
  6
CONTINUOUS
 10
4.238750
 20
213.362503
 11
4.738750
 21
212.862503
  0
LINE
  8
0
  6
CONTINUOUS
 10
5.604768
 20
281.862488
 11
4.738750
 21
280.362488
  0
ARC
  8
0
  6
CONTINUOUS
 10
8.202858
 20
280.362518
 40
3.000000
 50
90.000000
 51
150.000397
  0
LINE
  8
0
  6
CONTINUOUS
 10
5.604768
 20
208.862503
 11
4.738750
 21
210.362503
  0
ARC
  8
0
  6
CONTINUOUS
 10
8.202858
 20
210.362488
 40
3.000000
 50
-150.000397
 51
-90.000000
  0
LINE
  8
0
  6
CONTINUOUS
 10
6.320386
 20
268.362488
 11
24.738750
 21
268.362488
  0
LINE
  8
0
  6
CONTINUOUS
 10
24.738750
 20
207.362503
 11
24.738750
 21
238.496475
  0
LINE
  8
0
  6
CONTINUOUS
 10
6.320386
 20
222.362503
 11
24.738750
 21
222.362503
  0
LINE
  8
0
  6
CONTINUOUS
 10
95.107132
 20
283.362488
 11
24.738750
 21
283.362488
  0
LINE
  8
0
  6
CONTINUOUS
 10
24.738750
 20
268.362488
 11
100.658432
 21
268.362488
  0
LINE
  8
0
  6
CONTINUOUS
 10
98.029610
 20
214.362503
 11
181.028915
 21
214.362503
  0
LINE
  8
0
  6
CONTINUOUS
 10
95.725143
 20
207.362503
 11
24.738750
 21
207.362503
  0
LINE
  8
0
  6
CONTINUOUS
 10
24.738750
 20
222.362503
 11
96.793587
 21
222.362503
  0
LINE
  8
0
  6
CONTINUOUS
 10
132.238754
 20
181.362503
 11
132.238754
 21
205.362503
  0
LINE
  8
0
  6
CONTINUOUS
 10
132.238754
 20
181.362503
 11
149.238754
 21
181.362503
  0
LINE
  8
0
  6
CONTINUOUS
 10
119.738747
 20
279.362488
 11
119.738747
 21
276.362488
  0
LINE
  8
0
  6
CONTINUOUS
 10
159.738754
 20
279.362488
 11
159.738754
 21
276.362488
  0
LINE
  8
0
  6
CONTINUOUS
 10
158.738754
 20
280.362488
 11
120.738747
 21
280.362488
  0
ARC
  8
0
  6
CONTINUOUS
 10
120.738747
 20
279.362488
 40
1.000000
 50
90.000000
 51
180.000000
  0
ARC
  8
0
  6
CONTINUOUS
 10
158.738754
 20
279.362488
 40
1.000000
 50
0.000000
 51
90.000000
  0
LINE
  8
0
  6
CONTINUOUS
 10
149.238754
 20
205.362503
 11
149.238754
 21
181.362503
  0
LINE
  8
0
  6
CONTINUOUS
 10
146.809753
 20
205.362503
 11
146.809753
 21
181.362503
  0
LINE
  8
0
  6
CONTINUOUS
 10
132.238754
 20
309.362488
 11
132.238754
 21
282.362488
  0
LINE
  8
0
  6
CONTINUOUS
 10
132.238754
 20
309.362488
 11
149.238754
 21
309.362488
  0
LINE
  8
0
  6
CONTINUOUS
 10
131.238754
 20
282.362488
 11
148.238754
 21
282.362488
  0
LINE
  8
0
  6
CONTINUOUS
 10
131.238754
 20
282.362488
 11
131.238754
 21
280.362488
  0
LINE
  8
0
  6
CONTINUOUS
 10
148.238754
 20
282.362488
 11
148.238754
 21
280.362488
  0
LINE
  8
0
  6
CONTINUOUS
 10
149.238754
 20
285.362488
 11
149.238754
 21
309.362488
  0
LINE
  8
0
  6
CONTINUOUS
 10
146.809753
 20
285.362488
 11
146.809753
 21
309.362488
  0
LINE
  8
0
  6
CONTINUOUS
 10
146.809753
 20
285.362488
 11
149.238754
 21
285.362488
  0
LINE
  8
0
  6
CONTINUOUS
 10
147.238754
 20
285.362488
 11
147.238754
 21
282.362488
  0
LINE
  8
0
  6
CONTINUOUS
 10
154.738754
 20
215.362503
 11
154.738754
 21
274.397400
  0
LINE
  8
0
  6
CONTINUOUS
 10
124.738747
 20
215.362503
 11
124.738747
 21
274.397400
  0
LINE
  8
0
  6
CONTINUOUS
 10
97.029335
 20
268.365234
 11
97.187752
 21
274.414856
  0
LINE
  8
0
  6
CONTINUOUS
 10
101.513359
 20
215.543747
 11
101.513359
 21
266.362762
  0
LINE
  8
0
  6
CONTINUOUS
 10
18.238750
 20
239.362503
 11
18.238750
 21
251.362503
  0
LINE
  8
0
  6
CONTINUOUS
 10
25.238750
 20
239.362503
 11
25.238750
 21
251.362503
  0
LINE
  8
0
  6
CONTINUOUS
 10
19.238750
 20
252.362503
 11
24.238750
 21
252.362503
  0
LINE
  8
0
  6
CONTINUOUS
 10
24.238750
 20
238.362503
 11
19.238750
 21
238.362503
  0
ARC
  8
0
  6
CONTINUOUS
 10
24.238750
 20
251.362503
 40
1.000000
 50
0.000000
 51
90.000000
  0
ARC
  8
0
  6
CONTINUOUS
 10
19.238750
 20
251.362503
 40
1.000000
 50
90.000000
 51
180.000000
  0
ARC
  8
0
  6
CONTINUOUS
 10
19.238750
 20
239.362503
 40
1.000000
 50
180.000000
 51
270.000000
  0
ARC
  8
0
  6
CONTINUOUS
 10
24.238750
 20
239.362503
 40
1.000000
 50
-90.000000
 51
0.000000
  0
LINE
  8
0
  6
CONTINUOUS
 10
22.738750
 20
241.862503
 11
22.738750
 21
248.862503
  0
LINE
  8
0
  6
CONTINUOUS
 10
20.738750
 20
241.862503
 11
20.738750
 21
248.862503
  0
ARC
  8
0
  6
CONTINUOUS
 10
21.738750
 20
248.862503
 40
1.000000
 50
90.000000
 51
180.000000
  0
ARC
  8
0
  6
CONTINUOUS
 10
21.738750
 20
248.862503
 40
1.000000
 50
0.000000
 51
90.000000
  0
ARC
  8
0
  6
CONTINUOUS
 10
21.738750
 20
241.862503
 40
1.000000
 50
180.000000
 51
270.000000
  0
ARC
  8
0
  6
CONTINUOUS
 10
21.738750
 20
241.862503
 40
1.000000
 50
-90.000000
 51
0.000000
  0
LINE
  8
0
  6
CONTINUOUS
 10
24.738750
 20
252.228531
 11
24.738750
 21
283.362488
  0
LINE
  8
0
  6
CONTINUOUS
 10
97.238747
 20
205.362503
 11
182.238754
 21
205.362503
  0
LINE
  8
0
  6
CONTINUOUS
 10
180.430557
 20
274.414856
 11
182.238754
 21
205.362503
  0
ARC
  8
0
  6
CONTINUOUS
 10
178.431229
 20
274.362488
 40
2.000000
 50
1.500000
 51
90.000000
  0
LINE
  8
0
  6
CONTINUOUS
 10
96.191315
 20
245.362503
 11
97.238747
 21
205.362503
  0
LINE
  8
0
  6
CONTINUOUS
 10
179.661453
 20
205.362503
 11
179.661453
 21
213.052185
  0
LINE
  8
0
  6
CONTINUOUS
 10
99.816048
 20
205.362503
 11
99.816048
 21
213.052185
  0
ARC
  8
0
  6
CONTINUOUS
 10
123.738747
 20
215.362503
 40
1.000000
 50
-90.000000
 51
0.000000
  0
ARC
  8
0
  6
CONTINUOUS
 10
155.738754
 20
215.362503
 40
1.000000
 50
180.000000
 51
270.000000
  0
LINE
  8
0
  6
CONTINUOUS
 10
124.738747
 20
215.682495
 11
154.738754
 21
215.682495
  0
ARC
  8
0
  6
CONTINUOUS
 10
181.028915
 20
213.362503
 40
1.000000
 50
1.499998
 51
90.000000
  0
LINE
  8
0
  6
CONTINUOUS
 10
97.106445
 20
281.414856
 11
97.187752
 21
278.310150
  0
ARC
  8
0
  6
CONTINUOUS
 10
98.029610
 20
213.362503
 40
1.000000
 50
90.000000
 51
181.500000
  0
ARC
  8
0
  6
CONTINUOUS
 10
95.725143
 20
205.862503
 40
1.500000
 50
1.499999
 51
90.000000
  0
ARC
  8
0
  6
CONTINUOUS
 10
95.107132
 20
281.362488
 40
2.000000
 50
1.500000
 51
90.000000
  0
ARC
  8
0
  6
CONTINUOUS
 10
99.187065
 20
278.362488
 40
2.000000
 50
181.500000
 51
270.000000
  0
ARC
  8
0
  6
CONTINUOUS
 10
99.187065
 20
274.362488
 40
2.000000
 50
90.000000
 51
178.500000
  0
LINE
  8
0
  6
CENTER
 10
171.738754
 20
201.472351
 11
171.738754
 21
218.613129
  0
LINE
  8
0
  6
DASHED
 10
174.988754
 20
214.362503
 11
174.988754
 21
205.362503
  0
LINE
  8
0
  6
DASHED
 10
168.488754
 20
214.362503
 11
168.488754
 21
205.362503
  0
LINE
  8
0
  6
CENTER
 10
107.738747
 20
201.472351
 11
107.738747
 21
218.613129
  0
LINE
  8
0
  6
DASHED
 10
104.488747
 20
214.362503
 11
104.488747
 21
205.362503
  0
LINE
  8
0
  6
DASHED
 10
110.988747
 20
214.362503
 11
110.988747
 21
205.362503
  0
TEXT
  8
0
 10
-5.000000
 20
-1.000000
 40
4.000000
 41
1.000000
  1
HFM-15T-10~240-S25W
 50
0.000000
  0
ENDSEC
  0
EOF
