  0
SECTION
  2
HEADER
  9
$CLAYER
  8
1
  9
$LTSCALE
 40
3.0
  0
ENDSEC
  0
SECTION
  2
TABLES
  0
TABLE
  2
LTYPE
 70
     4
  0
LTYPE
  2
CONTINUOUS
  3
solid line
 70
    64
 72
    65
 73
     0
 40
0.0
  0
LTYPE
  2
DASHED
  3
__ __ __ __ __ __ __ __ __ __ __ __ __ __ __
 70
    64
 72
    65
 73
     2
 40
0.75
 49
0.5
 49
-0.25
  0
LTYPE
  2
CENTER
  3
____ _ ____ _ ____ _ ____ _ ____ _ ____ _ ____
 70
    64
 72
    65
 73
     4
 40
2.0
 49
1.25
 49
-0.25
 49
0.25
 49
-0.25
  0
LTYPE
  2
PHANTOM
  3
_____ _ _ _____ _ _ _____ _ _ _____ _ _ ____
 70
    64
 72
    65
 73
     6
 40
2.5
 49
1.25
 49
-0.25
 49
0.25
 49
-0.25
 49
0.25
 49
-0.25
  0
ENDTAB
  0
TABLE
  2
LAYER
 70
     1
  0
LAYER
  2
0
 70
    64
 62
     7
  6
CONTINUOUS
  0
ENDTAB
  0
TABLE
  2
STYLE
 70
     1
  0
STYLE
  2
STANDARD
 70
     0
 40
0.000000
 41
1.000000
 50
0.000000
 71
     0
 42
3.000000
  3
txt
  4
BIGFONT
  0
ENDTAB
  0
ENDSEC
  0
SECTION
  2
BLOCKS
  0
ENDSEC
  0
SECTION
  2
ENTITIES
  0
LINE
  8
0
  6
CENTER
 10
176.827499
 20
318.994995
 11
176.827499
 21
182.494995
  0
LINE
  8
0
  6
CENTER
 10
-6.523125
 20
250.494995
 11
225.327499
 21
250.494995
  0
LINE
  8
0
  6
CONTINUOUS
 10
215.519989
 20
281.494995
 11
136.275818
 21
281.494995
  0
LINE
  8
0
  6
CONTINUOUS
 10
52.327499
 20
288.494995
 11
61.827499
 21
288.494995
  0
LINE
  8
0
  6
CONTINUOUS
 10
52.327499
 20
212.494995
 11
61.827499
 21
212.494995
  0
LINE
  8
0
  6
CONTINUOUS
 10
52.327499
 20
273.494995
 11
52.827499
 21
273.494995
  0
LINE
  8
0
  6
CONTINUOUS
 10
61.827499
 20
212.494995
 11
61.827499
 21
225.494995
  0
LINE
  8
0
  6
CONTINUOUS
 10
52.327499
 20
227.494995
 11
52.827499
 21
227.494995
  0
LINE
  8
0
  6
CONTINUOUS
 10
132.195892
 20
288.494995
 11
61.827499
 21
288.494995
  0
LINE
  8
0
  6
CONTINUOUS
 10
102.827492
 20
273.494995
 11
137.747177
 21
273.494995
  0
LINE
  8
0
  6
CONTINUOUS
 10
135.118362
 20
219.494995
 11
218.117676
 21
219.494995
  0
LINE
  8
0
  6
CONTINUOUS
 10
132.813889
 20
212.494995
 11
61.827499
 21
212.494995
  0
LINE
  8
0
  6
CONTINUOUS
 10
102.827492
 20
227.494995
 11
133.882339
 21
227.494995
  0
LINE
  8
0
  6
CONTINUOUS
 10
169.327499
 20
186.494995
 11
169.327499
 21
210.494995
  0
LINE
  8
0
  6
CONTINUOUS
 10
169.327499
 20
186.494995
 11
186.327499
 21
186.494995
  0
LINE
  8
0
  6
CONTINUOUS
 10
156.827499
 20
284.494995
 11
156.827499
 21
281.494995
  0
LINE
  8
0
  6
CONTINUOUS
 10
196.827499
 20
284.494995
 11
196.827499
 21
281.494995
  0
LINE
  8
0
  6
CONTINUOUS
 10
195.827499
 20
285.494995
 11
157.827499
 21
285.494995
  0
ARC
  8
0
  6
CONTINUOUS
 10
157.827499
 20
284.494995
 40
1.000000
 50
90.000000
 51
180.000000
  0
ARC
  8
0
  6
CONTINUOUS
 10
195.827499
 20
284.494995
 40
1.000000
 50
0.000000
 51
90.000000
  0
LINE
  8
0
  6
CONTINUOUS
 10
186.327499
 20
210.494995
 11
186.327499
 21
186.494995
  0
LINE
  8
0
  6
CONTINUOUS
 10
183.898499
 20
210.494995
 11
183.898499
 21
186.494995
  0
LINE
  8
0
  6
CONTINUOUS
 10
169.327499
 20
314.494995
 11
169.327499
 21
287.494995
  0
LINE
  8
0
  6
CONTINUOUS
 10
169.327499
 20
314.494995
 11
186.327499
 21
314.494995
  0
LINE
  8
0
  6
CONTINUOUS
 10
168.327499
 20
287.494995
 11
185.327499
 21
287.494995
  0
LINE
  8
0
  6
CONTINUOUS
 10
168.327499
 20
287.494995
 11
168.327499
 21
285.494995
  0
LINE
  8
0
  6
CONTINUOUS
 10
185.327499
 20
287.494995
 11
185.327499
 21
285.494995
  0
LINE
  8
0
  6
CONTINUOUS
 10
186.327499
 20
290.494995
 11
186.327499
 21
314.494995
  0
LINE
  8
0
  6
CONTINUOUS
 10
183.898499
 20
290.494995
 11
183.898499
 21
314.494995
  0
LINE
  8
0
  6
CONTINUOUS
 10
183.898499
 20
290.494995
 11
186.327499
 21
290.494995
  0
LINE
  8
0
  6
CONTINUOUS
 10
184.327499
 20
290.494995
 11
184.327499
 21
287.494995
  0
LINE
  8
0
  6
CONTINUOUS
 10
191.827499
 20
220.494995
 11
191.827499
 21
279.529907
  0
LINE
  8
0
  6
CONTINUOUS
 10
161.827499
 20
220.494995
 11
161.827499
 21
279.529907
  0
LINE
  8
0
  6
CONTINUOUS
 10
134.118088
 20
273.497742
 11
134.276505
 21
279.547363
  0
LINE
  8
0
  6
CONTINUOUS
 10
138.602112
 20
220.676254
 11
138.602112
 21
271.495270
  0
LINE
  8
0
  6
CONTINUOUS
 10
61.827499
 20
275.494995
 11
61.827499
 21
288.494995
  0
LINE
  8
0
  6
CONTINUOUS
 10
134.327499
 20
210.494995
 11
219.327499
 21
210.494995
  0
LINE
  8
0
  6
CONTINUOUS
 10
217.519302
 20
279.547363
 11
219.327499
 21
210.494995
  0
ARC
  8
0
  6
CONTINUOUS
 10
215.519989
 20
279.494995
 40
2.000000
 50
1.500000
 51
90.000000
  0
LINE
  8
0
  6
CONTINUOUS
 10
133.280060
 20
250.494995
 11
134.327499
 21
210.494995
  0
LINE
  8
0
  6
CONTINUOUS
 10
216.750198
 20
210.494995
 11
216.750198
 21
218.184692
  0
LINE
  8
0
  6
CONTINUOUS
 10
136.904800
 20
210.494995
 11
136.904800
 21
218.184692
  0
ARC
  8
0
  6
CONTINUOUS
 10
160.827499
 20
220.494995
 40
1.000000
 50
-90.000000
 51
0.000000
  0
ARC
  8
0
  6
CONTINUOUS
 10
192.827499
 20
220.494995
 40
1.000000
 50
180.000000
 51
270.000000
  0
LINE
  8
0
  6
CONTINUOUS
 10
161.827499
 20
220.815002
 11
191.827499
 21
220.815002
  0
ARC
  8
0
  6
CONTINUOUS
 10
218.117676
 20
218.494995
 40
1.000000
 50
1.499998
 51
90.000000
  0
LINE
  8
0
  6
CONTINUOUS
 10
134.195206
 20
286.547363
 11
134.276505
 21
283.442657
  0
ARC
  8
0
  6
CONTINUOUS
 10
135.118362
 20
218.494995
 40
1.000000
 50
90.000000
 51
181.500000
  0
ARC
  8
0
  6
CONTINUOUS
 10
132.813889
 20
210.994995
 40
1.500000
 50
1.499999
 51
90.000000
  0
ARC
  8
0
  6
CONTINUOUS
 10
132.195892
 20
286.494995
 40
2.000000
 50
1.500000
 51
90.000000
  0
ARC
  8
0
  6
CONTINUOUS
 10
136.275818
 20
283.494995
 40
2.000000
 50
181.500000
 51
270.000000
  0
ARC
  8
0
  6
CONTINUOUS
 10
136.275818
 20
279.494995
 40
2.000000
 50
90.000000
 51
178.500000
  0
LINE
  8
0
  6
CENTER
 10
208.827499
 20
206.604843
 11
208.827499
 21
223.745621
  0
LINE
  8
0
  6
DASHED
 10
212.077499
 20
219.494995
 11
212.077499
 21
210.494995
  0
LINE
  8
0
  6
DASHED
 10
205.577499
 20
219.494995
 11
205.577499
 21
210.494995
  0
LINE
  8
0
  6
CENTER
 10
144.827499
 20
206.604843
 11
144.827499
 21
223.745621
  0
LINE
  8
0
  6
DASHED
 10
141.577499
 20
219.494995
 11
141.577499
 21
210.494995
  0
LINE
  8
0
  6
DASHED
 10
148.077499
 20
219.494995
 11
148.077499
 21
210.494995
  0
LINE
  8
0
  6
CONTINUOUS
 10
52.327499
 20
210.494995
 11
52.327499
 21
250.494995
  0
LINE
  8
0
  6
CONTINUOUS
 10
8.327500
 20
290.494995
 11
52.327499
 21
290.494995
  0
LINE
  8
0
  6
CONTINUOUS
 10
8.327500
 20
210.494995
 11
52.327499
 21
210.494995
  0
LINE
  8
0
  6
CONTINUOUS
 10
3.327500
 20
215.494995
 11
3.327500
 21
285.494995
  0
ARC
  8
0
  6
CONTINUOUS
 10
8.327520
 20
285.495026
 40
5.000000
 50
90.000000
 51
180.000000
  0
ARC
  8
0
  6
CONTINUOUS
 10
8.327500
 20
215.494995
 40
5.000000
 50
180.000000
 51
270.000000
  0
LINE
  8
0
  6
CONTINUOUS
 10
5.827500
 20
224.494995
 11
52.327499
 21
224.494995
  0
LINE
  8
0
  6
CONTINUOUS
 10
5.827500
 20
274.494995
 11
52.327499
 21
274.494995
  0
LINE
  8
0
  6
CONTINUOUS
 10
52.327499
 20
250.494995
 11
52.327499
 21
290.494995
  0
LINE
  8
0
  6
CONTINUOUS
 10
52.327499
 20
83.300003
 11
61.827499
 21
83.300003
  0
LINE
  8
0
  6
CONTINUOUS
 10
52.327499
 20
7.300000
 11
61.827499
 21
7.300000
  0
LINE
  8
0
  6
CONTINUOUS
 10
52.327499
 20
5.300000
 11
52.327499
 21
85.300003
  0
LINE
  8
0
  6
CONTINUOUS
 10
52.327499
 20
75.549004
 11
61.827499
 21
75.549004
  0
LINE
  8
0
  6
CONTINUOUS
 10
52.327499
 20
15.051000
 11
61.827499
 21
15.051000
  0
LINE
  8
0
  6
CONTINUOUS
 10
8.327500
 20
85.300003
 11
52.327499
 21
85.300003
  0
LINE
  8
0
  6
CONTINUOUS
 10
8.327500
 20
5.300000
 11
52.327499
 21
5.300000
  0
LINE
  8
0
  6
CONTINUOUS
 10
3.327500
 20
10.300000
 11
3.327500
 21
80.300003
  0
ARC
  8
0
  6
CONTINUOUS
 10
8.327520
 20
80.300018
 40
5.000000
 50
90.000000
 51
180.000000
  0
ARC
  8
0
  6
CONTINUOUS
 10
8.327500
 20
10.300000
 40
5.000000
 50
180.000000
 51
270.000000
  0
LINE
  8
0
  6
CONTINUOUS
 10
5.827500
 20
71.300003
 11
52.327499
 21
71.300003
  0
LINE
  8
0
  6
CONTINUOUS
 10
5.827500
 20
21.299999
 11
52.327499
 21
21.299999
  0
LINE
  8
0
  6
CONTINUOUS
 10
61.827499
 20
7.300000
 11
61.827499
 21
83.300003
  0
LINE
  8
0
  6
CENTER
 10
-8.947500
 20
45.299999
 11
152.127502
 21
45.299999
  0
LINE
  8
0
  6
CONTINUOUS
 10
61.827499
 20
83.300003
 11
134.747498
 21
83.300003
  0
LINE
  8
0
  6
CONTINUOUS
 10
132.327499
 20
7.300000
 11
61.827499
 21
7.300000
  0
LINE
  8
0
  6
CONTINUOUS
 10
144.827499
 20
3.600000
 11
208.827499
 21
3.600000
  0
LINE
  8
0
  6
CONTINUOUS
 10
144.827499
 20
105.599998
 11
208.827499
 21
105.599998
  0
LINE
  8
0
  6
CONTINUOUS
 10
134.327499
 20
80.300003
 11
134.327499
 21
28.900000
  0
LINE
  8
0
  6
CENTER
 10
176.827499
 20
117.987503
 11
176.827499
 21
-5.637500
  0
LINE
  8
0
  6
CENTER
 10
208.827499
 20
17.737499
 11
208.827499
 21
6.237500
  0
LINE
  8
0
  6
CENTER
 10
202.983795
 20
11.600000
 11
215.233795
 21
11.600000
  0
CIRCLE
  8
0
  6
CONTINUOUS
 10
208.827499
 20
11.600000
 40
3.250000
  0
LINE
  8
0
  6
CENTER
 10
208.827499
 20
91.462502
 11
208.827499
 21
102.962502
  0
LINE
  8
0
  6
CENTER
 10
202.983795
 20
97.599998
 11
215.233795
 21
97.599998
  0
CIRCLE
  8
0
  6
CONTINUOUS
 10
208.827499
 20
97.599998
 40
3.250000
  0
LINE
  8
0
  6
CENTER
 10
144.827499
 20
91.462502
 11
144.827499
 21
102.962502
  0
LINE
  8
0
  6
CENTER
 10
150.671295
 20
97.599998
 11
138.421295
 21
97.599998
  0
CIRCLE
  8
0
  6
CONTINUOUS
 10
144.827499
 20
97.599998
 40
3.250000
  0
LINE
  8
0
  6
CENTER
 10
144.827499
 20
17.737499
 11
144.827499
 21
6.237500
  0
LINE
  8
0
  6
CENTER
 10
150.671295
 20
11.600000
 11
138.421295
 21
11.600000
  0
CIRCLE
  8
0
  6
CONTINUOUS
 10
144.827499
 20
11.600000
 40
3.250000
  0
LINE
  8
0
  6
CONTINUOUS
 10
216.827499
 20
68.961403
 11
216.827499
 21
40.238861
  0
LINE
  8
0
  6
CONTINUOUS
 10
136.827499
 20
68.961273
 11
136.827499
 21
40.238461
  0
ARC
  8
0
  6
CONTINUOUS
 10
176.827499
 20
54.599998
 40
42.500000
 50
19.749901
 51
160.250107
  0
ARC
  8
0
  6
CONTINUOUS
 10
176.827499
 20
54.599998
 40
42.500000
 50
199.749893
 51
340.250092
  0
LINE
  8
0
  6
CONTINUOUS
 10
219.327499
 20
80.300003
 11
219.327499
 21
28.900009
  0
LINE
  8
0
  6
CONTINUOUS
 10
216.750198
 20
98.709160
 11
219.327499
 21
80.300003
  0
LINE
  8
0
  6
CONTINUOUS
 10
216.750198
 20
10.490880
 11
219.327499
 21
28.900009
  0
LINE
  8
0
  6
CONTINUOUS
 10
136.904800
 20
10.490800
 11
134.327499
 21
28.900000
  0
LINE
  8
0
  6
CONTINUOUS
 10
136.904800
 20
98.709152
 11
134.327499
 21
80.300003
  0
LINE
  8
0
  6
CENTER
 10
146.089996
 20
67.599998
 11
207.858749
 21
67.599998
  0
LINE
  8
0
  6
CONTINUOUS
 10
186.327499
 20
70.099998
 11
186.327499
 21
65.099998
  0
LINE
  8
0
  6
CONTINUOUS
 10
181.327499
 20
65.099998
 11
181.327499
 21
70.099998
  0
LINE
  8
0
  6
CONTINUOUS
 10
181.327499
 20
70.099998
 11
186.327499
 21
70.099998
  0
LINE
  8
0
  6
CONTINUOUS
 10
181.327499
 20
65.099998
 11
186.327499
 21
65.099998
  0
ARC
  8
0
  6
CONTINUOUS
 10
176.827499
 20
67.599998
 40
7.500000
 50
19.471201
 51
340.528809
  0
LINE
  8
0
  6
CONTINUOUS
 10
156.827499
 20
101.599998
 11
196.827499
 21
101.599998
  0
LINE
  8
0
  6
CONTINUOUS
 10
156.827499
 20
7.600000
 11
196.827499
 21
7.600000
  0
LINE
  8
0
  6
CONTINUOUS
 10
214.452606
 20
86.270500
 11
216.851807
 21
69.133430
  0
LINE
  8
0
  6
CONTINUOUS
 10
216.829895
 20
39.909737
 11
214.452606
 21
22.929501
  0
LINE
  8
0
  6
CONTINUOUS
 10
136.878006
 20
39.532078
 11
139.202393
 21
22.929510
  0
LINE
  8
0
  6
CONTINUOUS
 10
139.202393
 20
86.270493
 11
136.744202
 21
68.711678
  0
ARC
  8
0
  6
CONTINUOUS
 10
196.827499
 20
97.599998
 40
4.000000
 50
0.000000
 51
90.000000
  0
ARC
  8
0
  6
CONTINUOUS
 10
156.827499
 20
97.599998
 40
4.000000
 50
90.000000
 51
180.000000
  0
ARC
  8
0
  6
CONTINUOUS
 10
196.827499
 20
11.600000
 40
4.000000
 50
-90.000000
 51
0.000000
  0
ARC
  8
0
  6
CONTINUOUS
 10
156.827499
 20
11.600000
 40
4.000000
 50
-180.000000
 51
-90.000000
  0
ARC
  8
0
  6
CONTINUOUS
 10
210.491302
 20
85.715897
 40
4.000000
 50
7.969701
 51
97.969757
  0
ARC
  8
0
  6
CONTINUOUS
 10
208.827499
 20
97.599998
 40
8.000000
 50
180.000000
 51
277.969513
  0
ARC
  8
0
  6
CONTINUOUS
 10
208.827499
 20
97.599998
 40
8.000000
 50
7.969647
 51
90.000000
  0
ARC
  8
0
  6
CONTINUOUS
 10
143.163696
 20
85.715897
 40
4.000000
 50
82.030243
 51
172.030304
  0
ARC
  8
0
  6
CONTINUOUS
 10
210.491302
 20
23.484100
 40
4.000000
 50
-97.969757
 51
-7.969701
  0
ARC
  8
0
  6
CONTINUOUS
 10
143.163696
 20
23.484100
 40
4.000000
 50
-172.030304
 51
-82.030243
  0
ARC
  8
0
  6
CONTINUOUS
 10
144.827499
 20
97.599998
 40
8.000000
 50
90.000000
 51
172.030502
  0
ARC
  8
0
  6
CONTINUOUS
 10
144.827499
 20
97.599998
 40
8.000000
 50
-97.969597
 51
0.000000
  0
ARC
  8
0
  6
CONTINUOUS
 10
144.827499
 20
11.600000
 40
8.000000
 50
0.000000
 51
97.969818
  0
ARC
  8
0
  6
CONTINUOUS
 10
144.827499
 20
11.600000
 40
8.000000
 50
187.969604
 51
270.000000
  0
ARC
  8
0
  6
CONTINUOUS
 10
208.827499
 20
11.600000
 40
8.000000
 50
270.000000
 51
352.030304
  0
ARC
  8
0
  6
CONTINUOUS
 10
208.827499
 20
11.600000
 40
8.000000
 50
82.030350
 51
180.000000
  0
LINE
  8
0
  6
CONTINUOUS
 10
134.327499
 20
9.300000
 11
134.327499
 21
15.300010
  0
ARC
  8
0
  6
CONTINUOUS
 10
132.327499
 20
9.300000
 40
2.000000
 50
-90.000000
 51
0.000000
  0
ARC
  8
0
  6
CONTINUOUS
 10
139.327499
 20
15.300020
 40
5.000000
 50
135.792801
 51
180.000000
  0
LINE
  8
0
  6
CONTINUOUS
 10
61.827499
 20
75.548973
 11
133.577499
 21
75.548973
  0
LINE
  8
0
  6
CONTINUOUS
 10
61.827499
 20
15.051040
 11
133.827499
 21
15.051040
  0
CIRCLE
  8
0
  6
CONTINUOUS
 10
176.827499
 20
67.599998
 40
20.000000
  0
LINE
  8
0
  6
CONTINUOUS
 10
170.452499
 20
35.153229
 11
170.452499
 21
29.600000
  0
LINE
  8
0
  6
CONTINUOUS
 10
173.639999
 20
37.170315
 11
173.639999
 21
39.162502
  0
LINE
  8
0
  6
CONTINUOUS
 10
180.014999
 20
37.170315
 11
180.014999
 21
39.162502
  0
LINE
  8
0
  6
CONTINUOUS
 10
176.204895
 20
37.992092
 11
176.204895
 21
30.645901
  0
LINE
  8
0
  6
CONTINUOUS
 10
177.400299
 20
37.992092
 11
177.400299
 21
30.645901
  0
LINE
  8
0
  6
CONTINUOUS
 10
183.675598
 20
37.992092
 11
183.675598
 21
30.596100
  0
LINE
  8
0
  6
CONTINUOUS
 10
184.771301
 20
34.069969
 11
184.771301
 21
30.596100
  0
LINE
  8
0
  6
CONTINUOUS
 10
168.940002
 20
37.892483
 11
165.868103
 21
37.892483
  0
LINE
  8
0
  6
CONTINUOUS
 10
165.868103
 20
37.892483
 11
165.148300
 21
36.999973
  0
LINE
  8
0
  6
CONTINUOUS
 10
165.234894
 20
39.162502
 11
164.077499
 21
37.680500
  0
LINE
  8
0
  6
CONTINUOUS
 10
165.148300
 20
31.490919
 11
165.879593
 21
30.720610
  0
LINE
  8
0
  6
CONTINUOUS
 10
164.077499
 20
30.840860
 11
165.307297
 21
29.600000
  0
LINE
  8
0
  6
CONTINUOUS
 10
164.077499
 20
37.680500
 11
164.077499
 21
30.840860
  0
LINE
  8
0
  6
CONTINUOUS
 10
165.148300
 20
36.999973
 11
165.148300
 21
31.490919
  0
LINE
  8
0
  6
CONTINUOUS
 10
169.531097
 20
37.321033
 11
168.927902
 21
37.892483
  0
LINE
  8
0
  6
CONTINUOUS
 10
169.521500
 20
39.162502
 11
170.452499
 21
38.129360
  0
LINE
  8
0
  6
CONTINUOUS
 10
169.531097
 20
37.170315
 11
170.452499
 21
37.170315
  0
LINE
  8
0
  6
CONTINUOUS
 10
165.234894
 20
39.162502
 11
169.521500
 21
39.162502
  0
LINE
  8
0
  6
CONTINUOUS
 10
169.531097
 20
34.107330
 11
167.862701
 21
34.107330
  0
LINE
  8
0
  6
CONTINUOUS
 10
169.531097
 20
33.111229
 11
169.531097
 21
33.908112
  0
LINE
  8
0
  6
CONTINUOUS
 10
167.538895
 20
30.720610
 11
165.879593
 21
30.720610
  0
ARC
  8
0
  6
CONTINUOUS
 10
167.538895
 20
32.712791
 40
1.992187
 50
-89.999786
 51
0.000109
  0
LINE
  8
0
  6
CONTINUOUS
 10
169.531097
 20
30.362261
 11
169.531097
 21
29.600000
  0
LINE
  8
0
  6
CONTINUOUS
 10
170.452499
 20
38.129360
 11
170.452499
 21
37.170315
  0
LINE
  8
0
  6
CONTINUOUS
 10
169.531097
 20
34.107330
 11
169.531097
 21
32.712791
  0
LINE
  8
0
  6
CONTINUOUS
 10
167.862701
 20
35.153229
 11
167.862701
 21
34.107330
  0
LINE
  8
0
  6
CONTINUOUS
 10
169.531097
 20
29.600000
 11
170.452499
 21
29.600000
  0
LINE
  8
0
  6
CONTINUOUS
 10
169.531097
 20
30.362261
 11
168.622604
 21
29.600000
  0
LINE
  8
0
  6
CONTINUOUS
 10
177.400299
 20
30.645901
 11
177.798706
 21
30.645901
  0
LINE
  8
0
  6
CONTINUOUS
 10
175.731796
 20
30.645901
 11
175.731796
 21
29.600000
  0
LINE
  8
0
  6
CONTINUOUS
 10
177.798706
 20
30.645901
 11
177.798706
 21
29.600000
  0
LINE
  8
0
  6
CONTINUOUS
 10
179.350006
 20
37.170315
 11
180.014999
 21
37.170315
  0
LINE
  8
0
  6
CONTINUOUS
 10
173.639999
 20
37.170315
 11
174.347595
 21
37.170315
  0
LINE
  8
0
  6
CONTINUOUS
 10
173.639999
 20
39.162502
 11
180.014999
 21
39.162502
  0
LINE
  8
0
  6
CONTINUOUS
 10
175.731796
 20
29.600000
 11
177.798706
 21
29.600000
  0
LINE
  8
0
  6
CONTINUOUS
 10
175.731796
 20
30.645901
 11
176.204895
 21
30.645901
  0
ARC
  8
0
  6
CONTINUOUS
 10
187.024994
 20
36.610012
 40
2.552490
 50
-73.981873
 51
90.003510
  0
ARC
  8
0
  6
CONTINUOUS
 10
187.024994
 20
36.610012
 40
1.557193
 50
-82.585274
 51
62.411850
  0
LINE
  8
0
  6
CONTINUOUS
 10
183.202499
 20
39.162502
 11
187.024994
 21
39.162502
  0
LINE
  8
0
  6
CONTINUOUS
 10
183.202499
 20
39.162502
 11
183.202499
 21
37.992092
  0
LINE
  8
0
  6
CONTINUOUS
 10
184.771301
 20
37.992092
 11
184.771301
 21
35.065842
  0
LINE
  8
0
  6
CONTINUOUS
 10
187.729294
 20
34.156620
 11
189.309204
 21
30.596100
  0
LINE
  8
0
  6
CONTINUOUS
 10
186.811798
 20
34.069969
 11
188.306793
 21
30.596100
  0
LINE
  8
0
  6
CONTINUOUS
 10
183.202499
 20
30.596100
 11
183.675598
 21
30.596100
  0
LINE
  8
0
  6
CONTINUOUS
 10
184.771301
 20
30.596100
 11
185.207108
 21
30.596100
  0
LINE
  8
0
  6
CONTINUOUS
 10
185.207108
 20
29.600000
 11
183.202499
 21
29.600000
  0
LINE
  8
0
  6
CONTINUOUS
 10
188.108307
 20
30.596100
 11
188.306793
 21
30.596100
  0
LINE
  8
0
  6
CONTINUOUS
 10
189.309204
 20
30.596100
 11
189.577499
 21
30.596100
  0
LINE
  8
0
  6
CONTINUOUS
 10
188.108307
 20
29.600000
 11
189.577499
 21
29.600000
  0
LINE
  8
0
  6
CONTINUOUS
 10
189.577499
 20
30.596100
 11
189.577499
 21
29.600000
  0
LINE
  8
0
  6
CONTINUOUS
 10
188.108307
 20
30.596100
 11
188.108307
 21
29.600000
  0
LINE
  8
0
  6
CONTINUOUS
 10
185.207108
 20
30.596100
 11
185.207108
 21
29.600000
  0
LINE
  8
0
  6
CONTINUOUS
 10
183.202499
 20
30.596100
 11
183.202499
 21
29.600000
  0
LINE
  8
0
  6
CONTINUOUS
 10
174.690002
 20
37.992092
 11
174.347595
 21
37.170315
  0
LINE
  8
0
  6
CONTINUOUS
 10
179.061295
 20
37.992092
 11
179.350006
 21
37.170315
  0
LINE
  8
0
  6
CONTINUOUS
 10
177.400299
 20
37.992092
 11
179.061295
 21
37.992092
  0
LINE
  8
0
  6
CONTINUOUS
 10
176.204895
 20
37.992092
 11
174.690002
 21
37.992092
  0
LINE
  8
0
  6
CONTINUOUS
 10
183.202499
 20
37.992092
 11
183.675598
 21
37.992092
  0
LINE
  8
0
  6
CONTINUOUS
 10
184.771301
 20
37.992092
 11
187.746201
 21
37.990147
  0
LINE
  8
0
  6
CONTINUOUS
 10
169.531097
 20
37.321033
 11
169.531097
 21
37.170315
  0
LINE
  8
0
  6
CONTINUOUS
 10
165.307297
 20
29.600000
 11
168.622604
 21
29.600000
  0
LINE
  8
0
  6
CONTINUOUS
 10
184.771301
 20
35.065842
 11
187.225998
 21
35.065842
  0
LINE
  8
0
  6
CONTINUOUS
 10
184.771301
 20
34.069969
 11
186.811798
 21
34.069969
  0
LINE
  8
0
  6
CONTINUOUS
 10
167.862701
 20
35.153229
 11
170.452499
 21
35.153229
  0
LINE
  8
0
  6
CENTER
 10
356.827515
 20
-4.387500
 11
356.827515
 21
135.980621
  0
LINE
  8
0
  6
CONTINUOUS
 10
387.827515
 20
11.547930
 11
387.827515
 21
97.634598
  0
LINE
  8
0
  6
CONTINUOUS
 10
391.827515
 20
48.599998
 11
391.827515
 21
86.599998
  0
LINE
  8
0
  6
CENTER
 10
284.093109
 20
67.599998
 11
429.593109
 21
67.599998
  0
LINE
  8
0
  6
CONTINUOUS
 10
390.827515
 20
87.599998
 11
389.827515
 21
87.599998
  0
LINE
  8
0
  6
CONTINUOUS
 10
390.827515
 20
47.599998
 11
389.827515
 21
47.599998
  0
LINE
  8
0
  6
CONTINUOUS
 10
385.862396
 20
99.634300
 11
327.792603
 21
100.647682
  0
LINE
  8
0
  6
CONTINUOUS
 10
385.862396
 20
9.548230
 11
327.792603
 21
8.534420
  0
ARC
  8
0
  6
CONTINUOUS
 10
385.827515
 20
97.634590
 40
2.000000
 50
0.000000
 51
89.000359
  0
ARC
  8
0
  6
CONTINUOUS
 10
385.827515
 20
11.547920
 40
2.000000
 50
-88.999634
 51
0.000000
  0
ARC
  8
0
  6
CONTINUOUS
 10
390.827515
 20
86.599998
 40
1.000000
 50
0.000000
 51
90.000000
  0
ARC
  8
0
  6
CONTINUOUS
 10
390.827515
 20
48.599998
 40
1.000000
 50
-90.000000
 51
0.000000
  0
LINE
  8
0
  6
CONTINUOUS
 10
325.827515
 20
25.900021
 11
325.827515
 21
5.100000
  0
LINE
  8
0
  6
CONTINUOUS
 10
316.827515
 20
105.599998
 11
324.676514
 21
105.599998
  0
LINE
  8
0
  6
CONTINUOUS
 10
324.292908
 20
3.600000
 11
316.827515
 21
3.600000
  0
LINE
  8
0
  6
CONTINUOUS
 10
329.328491
 20
80.300003
 11
385.858795
 21
80.300003
  0
LINE
  8
0
  6
CONTINUOUS
 10
328.827515
 20
28.900000
 11
386.390015
 21
28.900000
  0
ARC
  8
0
  6
CONTINUOUS
 10
324.327515
 20
5.100000
 40
1.500000
 50
-90.000000
 51
0.000000
  0
LINE
  8
0
  6
CONTINUOUS
 10
326.125397
 20
104.488220
 11
326.565186
 21
102.846863
  0
ARC
  8
0
  6
CONTINUOUS
 10
329.460602
 20
103.619041
 40
3.000000
 50
194.932602
 51
269.000610
  0
ARC
  8
0
  6
CONTINUOUS
 10
324.676514
 20
104.099998
 40
1.500000
 50
15.000070
 51
90.000000
  0
ARC
  8
0
  6
CONTINUOUS
 10
328.827515
 20
25.900021
 40
3.000000
 50
90.000000
 51
180.000000
  0
ARC
  8
0
  6
CONTINUOUS
 10
389.827515
 20
89.599998
 40
2.000000
 50
180.000000
 51
270.000000
  0
ARC
  8
0
  6
CONTINUOUS
 10
389.827515
 20
45.600010
 40
2.000000
 50
90.000000
 51
180.000000
  0
LINE
  8
0
  6
CONTINUOUS
 10
393.827515
 20
75.099998
 11
420.827515
 21
75.099998
  0
LINE
  8
0
  6
CONTINUOUS
 10
393.827515
 20
60.099998
 11
420.827515
 21
60.099998
  0
LINE
  8
0
  6
CONTINUOUS
 10
420.827515
 20
60.099998
 11
420.827515
 21
75.099998
  0
LINE
  8
0
  6
CONTINUOUS
 10
399.327515
 20
65.099998
 11
420.827515
 21
65.099998
  0
LINE
  8
0
  6
CONTINUOUS
 10
399.327515
 20
70.099998
 11
420.827515
 21
70.099998
  0
ARC
  8
0
  6
CONTINUOUS
 10
399.327515
 20
67.600014
 40
2.500000
 50
90.000000
 51
180.000000
  0
ARC
  8
0
  6
CONTINUOUS
 10
399.327515
 20
67.599998
 40
2.500000
 50
180.000000
 51
270.000000
  0
LINE
  8
0
  6
CENTER
 10
313.108795
 20
97.599998
 11
329.358795
 21
97.599998
  0
LINE
  8
0
  6
CENTER
 10
314.108795
 20
11.600000
 11
329.108795
 21
11.600000
  0
LINE
  8
0
  6
DASHED
 10
316.827515
 20
14.850000
 11
325.827515
 21
14.850000
  0
LINE
  8
0
  6
DASHED
 10
316.827515
 20
8.350000
 11
325.827515
 21
8.350000
  0
LINE
  8
0
  6
DASHED
 10
316.827515
 20
100.849998
 11
325.827515
 21
100.849998
  0
LINE
  8
0
  6
DASHED
 10
316.827515
 20
94.349998
 11
325.827515
 21
94.349998
  0
LINE
  8
0
  6
CONTINUOUS
 10
335.827515
 20
7.300000
 11
377.827515
 21
7.300000
  0
ARC
  8
0
  6
CONTINUOUS
 10
377.827515
 20
9.300000
 40
2.000000
 50
-90.000000
 51
0.000000
  0
ARC
  8
0
  6
CONTINUOUS
 10
335.827515
 20
9.300000
 40
2.000000
 50
199.216995
 51
270.000000
  0
LINE
  8
0
  6
CONTINUOUS
 10
379.827515
 20
9.300000
 11
379.827515
 21
9.442780
  0
ARC
  8
0
  6
CONTINUOUS
 10
356.827515
 20
45.299999
 40
38.000000
 50
-35.334469
 51
21.294241
  0
LINE
  8
0
  6
CONTINUOUS
 10
321.827515
 20
48.599998
 11
321.827515
 21
86.599998
  0
LINE
  8
0
  6
CONTINUOUS
 10
322.827515
 20
47.599998
 11
325.827515
 21
47.599998
  0
ARC
  8
0
  6
CONTINUOUS
 10
322.827515
 20
86.599998
 40
1.000000
 50
90.000000
 51
180.000000
  0
ARC
  8
0
  6
CONTINUOUS
 10
322.827515
 20
48.599998
 40
1.000000
 50
180.000000
 51
270.000000
  0
LINE
  8
0
  6
CONTINUOUS
 10
319.827515
 20
75.099998
 11
292.827515
 21
75.099998
  0
LINE
  8
0
  6
CONTINUOUS
 10
319.827515
 20
60.099998
 11
292.827515
 21
60.099998
  0
LINE
  8
0
  6
CONTINUOUS
 10
292.827515
 20
60.099998
 11
292.827515
 21
75.099998
  0
LINE
  8
0
  6
CONTINUOUS
 10
319.827515
 20
76.099998
 11
319.827515
 21
59.099998
  0
LINE
  8
0
  6
CONTINUOUS
 10
314.327515
 20
65.099998
 11
292.827515
 21
65.099998
  0
LINE
  8
0
  6
CONTINUOUS
 10
314.327515
 20
70.099998
 11
292.827515
 21
70.099998
  0
ARC
  8
0
  6
CONTINUOUS
 10
314.327515
 20
67.600014
 40
2.500000
 50
0.000000
 51
90.000000
  0
ARC
  8
0
  6
CONTINUOUS
 10
314.327515
 20
67.599998
 40
2.500000
 50
-90.000000
 51
0.000000
  0
LINE
  8
0
  6
CONTINUOUS
 10
316.827515
 20
3.600000
 11
316.827515
 21
60.099998
  0
LINE
  8
0
  6
CONTINUOUS
 10
316.827515
 20
105.599998
 11
316.827515
 21
75.099998
  0
LINE
  8
0
  6
CONTINUOUS
 10
322.827515
 20
87.599998
 11
325.827515
 21
87.599998
  0
LINE
  8
0
  6
CONTINUOUS
 10
316.827515
 20
90.809647
 11
322.718109
 21
89.596878
  0
LINE
  8
0
  6
CONTINUOUS
 10
322.718109
 20
89.596878
 11
327.968109
 21
86.346878
  0
LINE
  8
0
  6
CONTINUOUS
 10
327.968109
 20
86.346878
 11
328.468109
 21
81.221878
  0
LINE
  8
0
  6
CONTINUOUS
 10
328.468109
 20
81.221878
 11
330.218109
 21
79.346878
  0
LINE
  8
0
  6
CONTINUOUS
 10
330.218109
 20
79.346878
 11
330.593109
 21
75.721878
  0
LINE
  8
0
  6
CONTINUOUS
 10
330.593109
 20
75.721878
 11
330.968109
 21
70.096878
  0
LINE
  8
0
  6
CONTINUOUS
 10
330.968109
 20
70.096878
 11
331.718109
 21
64.846878
  0
LINE
  8
0
  6
CONTINUOUS
 10
331.718109
 20
64.846878
 11
329.718109
 21
58.471882
  0
LINE
  8
0
  6
CONTINUOUS
 10
329.718109
 20
58.471882
 11
330.343109
 21
51.971874
  0
LINE
  8
0
  6
CONTINUOUS
 10
330.343109
 20
51.971874
 11
328.843109
 21
46.221874
  0
LINE
  8
0
  6
CONTINUOUS
 10
328.843109
 20
46.221874
 11
324.718109
 21
43.096874
  0
LINE
  8
0
  6
CONTINUOUS
 10
324.718109
 20
43.096874
 11
319.843109
 21
42.471874
  0
LINE
  8
0
  6
CONTINUOUS
 10
319.843109
 20
42.471874
 11
316.827515
 21
41.243286
  0
LINE
  8
0
  6
CONTINUOUS
 10
393.827515
 20
76.099998
 11
393.827515
 21
59.099998
  0
LINE
  8
0
  6
CENTER
 10
310.684387
 20
45.299999
 11
405.387512
 21
45.299999
  0
LINE
  8
0
  6
CONTINUOUS
 10
325.827515
 20
105.061882
 11
325.827515
 21
43.937321
  0
LINE
  8
0
  6
CONTINUOUS
 10
391.827515
 20
76.099998
 11
393.827515
 21
76.099998
  0
LINE
  8
0
  6
CONTINUOUS
 10
391.827515
 20
59.099998
 11
393.827515
 21
59.099998
  0
LINE
  8
0
  6
CONTINUOUS
 10
319.827515
 20
76.099998
 11
321.827515
 21
76.099998
  0
LINE
  8
0
  6
CONTINUOUS
 10
319.827515
 20
59.099998
 11
321.827515
 21
59.099998
  0
ARC
  8
0
  6
CONTINUOUS
 10
327.827515
 20
102.647392
 40
2.000000
 50
180.000000
 51
269.000610
  0
ARC
  8
0
  6
CONTINUOUS
 10
327.827515
 20
6.534730
 40
2.000000
 50
91.000633
 51
180.000000
  0
LINE
  8
0
  6
CONTINUOUS
 10
326.224701
 20
5.082360
 11
326.561493
 21
6.339510
  0
ARC
  8
0
  6
CONTINUOUS
 10
324.292786
 20
5.600000
 40
2.000000
 50
270.000000
 51
345.000092
  0
ARC
  8
0
  6
CONTINUOUS
 10
329.459290
 20
5.563070
 40
3.000000
 50
91.000450
 51
165.000305
  0
LINE
  8
0
  6
CONTINUOUS
 10
396.827515
 20
22.299999
 11
396.827515
 21
60.099998
  0
LINE
  8
0
  6
CONTINUOUS
 10
379.827515
 20
5.300000
 11
334.898499
 21
5.300000
  0
LINE
  8
0
  6
CONTINUOUS
 10
387.827515
 20
16.903030
 11
390.224487
 21
19.299999
  0
LINE
  8
0
  6
CONTINUOUS
 10
393.827515
 20
19.299999
 11
390.224487
 21
19.299999
  0
LINE
  8
0
  6
CONTINUOUS
 10
382.827515
 20
8.300000
 11
382.827515
 21
9.495250
  0
LINE
  8
0
  6
CONTINUOUS
 10
331.363098
 20
6.764460
 11
329.562195
 21
8.565320
  0
ARC
  8
0
  6
CONTINUOUS
 10
334.898499
 20
10.300000
 40
5.000000
 50
225.000107
 51
270.000000
  0
ARC
  8
0
  6
CONTINUOUS
 10
379.827515
 20
8.299990
 40
3.000000
 50
-90.000000
 51
0.000000
  0
ARC
  8
0
  6
CONTINUOUS
 10
393.827515
 20
22.299990
 40
3.000000
 50
-90.000000
 51
0.000000
  0
LINE
  8
0
  6
CONTINUOUS
 10
52.827499
 20
227.494995
 11
52.827499
 21
273.494995
  0
LINE
  8
0
  6
CONTINUOUS
 10
54.827499
 20
275.494995
 11
52.827499
 21
273.494995
  0
LINE
  8
0
  6
CONTINUOUS
 10
54.827499
 20
275.494995
 11
100.827492
 21
275.494995
  0
LINE
  8
0
  6
CONTINUOUS
 10
95.327499
 20
270.994995
 11
95.327499
 21
275.494995
  0
ARC
  8
0
  6
CONTINUOUS
 10
98.327499
 20
270.994995
 40
3.000000
 50
180.000000
 51
270.000000
  0
LINE
  8
0
  6
CONTINUOUS
 10
98.327499
 20
267.994995
 11
102.827492
 21
267.994995
  0
CIRCLE
  8
0
  6
CONTINUOUS
 10
99.327499
 20
271.994995
 40
2.250000
  0
LINE
  8
0
  6
CONTINUOUS
 10
102.827492
 20
227.494995
 11
102.827492
 21
273.494995
  0
LINE
  8
0
  6
CONTINUOUS
 10
100.827492
 20
275.494995
 11
102.827492
 21
273.494995
  0
LINE
  8
0
  6
CONTINUOUS
 10
100.827492
 20
225.494995
 11
102.827492
 21
227.494995
  0
LINE
  8
0
  6
CONTINUOUS
 10
100.827492
 20
225.494995
 11
54.827499
 21
225.494995
  0
LINE
  8
0
  6
CONTINUOUS
 10
52.827499
 20
227.494995
 11
54.827499
 21
225.494995
  0
LINE
  8
0
  6
CONTINUOUS
 10
57.327499
 20
232.994995
 11
52.827511
 21
232.994995
  0
CIRCLE
  8
0
  6
CONTINUOUS
 10
56.327499
 20
228.994995
 40
2.250000
  0
ARC
  8
0
  6
CONTINUOUS
 10
57.327499
 20
229.994995
 40
3.000000
 50
0.000000
 51
90.000000
  0
LINE
  8
0
  6
CONTINUOUS
 10
60.327499
 20
229.994995
 11
60.327499
 21
225.494995
  0
LINE
  8
0
  6
CENTER
 10
77.827499
 20
218.029221
 11
77.827499
 21
282.161255
  0
LINE
  8
0
  6
CONTINUOUS
 10
53.827507
 20
232.994995
 11
53.827507
 21
267.994995
  0
LINE
  8
0
  6
CONTINUOUS
 10
95.327499
 20
274.494995
 11
60.327499
 21
274.494995
  0
LINE
  8
0
  6
CONTINUOUS
 10
101.827492
 20
267.994995
 11
101.827492
 21
232.994995
  0
LINE
  8
0
  6
CONTINUOUS
 10
60.327499
 20
226.494995
 11
95.327499
 21
226.494995
  0
LINE
  8
0
  6
CONTINUOUS
 10
57.327499
 20
267.994995
 11
52.827499
 21
267.994995
  0
ARC
  8
0
  6
CONTINUOUS
 10
57.327499
 20
270.994995
 40
3.000000
 50
-90.000000
 51
0.000000
  0
LINE
  8
0
  6
CONTINUOUS
 10
60.327499
 20
270.994995
 11
60.327499
 21
275.494995
  0
CIRCLE
  8
0
  6
CONTINUOUS
 10
56.327499
 20
271.994995
 40
2.250000
  0
ARC
  8
0
  6
CONTINUOUS
 10
98.327499
 20
229.994995
 40
3.000000
 50
90.000000
 51
180.000000
  0
LINE
  8
0
  6
CONTINUOUS
 10
95.327499
 20
229.994995
 11
95.327499
 21
225.495010
  0
LINE
  8
0
  6
CONTINUOUS
 10
98.327499
 20
232.994995
 11
102.827499
 21
232.994995
  0
CIRCLE
  8
0
  6
CONTINUOUS
 10
99.327499
 20
228.994995
 40
2.250000
  0
LINE
  8
0
  6
CONTINUOUS
 10
381.827484
 20
128.800003
 11
381.827484
 21
99.704712
  0
LINE
  8
0
  6
CONTINUOUS
 10
331.827515
 20
128.800003
 11
331.827515
 21
100.577271
  0
LINE
  8
0
  6
CONTINUOUS
 10
332.827515
 20
129.800003
 11
380.827484
 21
129.800003
  0
LINE
  8
0
  6
CONTINUOUS
 10
380.827484
 20
129.800003
 11
381.827484
 21
128.800003
  0
LINE
  8
0
  6
CONTINUOUS
 10
332.827515
 20
129.800003
 11
331.827515
 21
128.800003
  0
LINE
  8
0
  6
CONTINUOUS
 10
331.827515
 20
128.800003
 11
381.827484
 21
128.800003
  0
LINE
  8
0
  6
CONTINUOUS
 10
54.327499
 20
84.800003
 11
100.827499
 21
84.800003
  0
LINE
  8
0
  6
CONTINUOUS
 10
102.827477
 20
128.800003
 11
102.827499
 21
86.800003
  0
LINE
  8
0
  6
CONTINUOUS
 10
52.827499
 20
128.800003
 11
52.827499
 21
86.800003
  0
LINE
  8
0
  6
CONTINUOUS
 10
52.827499
 20
96.800003
 11
102.827499
 21
96.800003
  0
LINE
  8
0
  6
CONTINUOUS
 10
100.827499
 20
84.800003
 11
102.827499
 21
86.800003
  0
LINE
  8
0
  6
CONTINUOUS
 10
52.827499
 20
86.800003
 11
54.827499
 21
84.800003
  0
LINE
  8
0
  6
CONTINUOUS
 10
52.827499
 20
86.800003
 11
102.827499
 21
86.800003
  0
LINE
  8
0
  6
CONTINUOUS
 10
52.827499
 20
97.800003
 11
102.827477
 21
97.800003
  0
LINE
  8
0
  6
CONTINUOUS
 10
53.827499
 20
129.800003
 11
101.827477
 21
129.800003
  0
LINE
  8
0
  6
CONTINUOUS
 10
101.827477
 20
129.800003
 11
102.827477
 21
128.800003
  0
LINE
  8
0
  6
CONTINUOUS
 10
53.827499
 20
129.800003
 11
52.827499
 21
128.800003
  0
LINE
  8
0
  6
CONTINUOUS
 10
52.827499
 20
128.800003
 11
102.827477
 21
128.800003
  0
LINE
  8
0
  6
CENTER
 10
77.827499
 20
78.410492
 11
77.827499
 21
136.102493
  0
LINE
  8
0
  6
CENTER
 10
50.452499
 20
112.800003
 11
55.077499
 21
112.800003
  0
LINE
  8
0
  6
CONTINUOUS
 10
54.327499
 20
84.800003
 11
54.327499
 21
83.300003
  0
LINE
  8
0
  6
CONTINUOUS
 10
100.327499
 20
84.800003
 11
100.327499
 21
83.300003
  0
LINE
  8
0
  6
CONTINUOUS
 10
51.952499
 20
123.300003
 11
53.952499
 21
123.300003
  0
LINE
  8
0
  6
CONTINUOUS
 10
51.952499
 20
102.300003
 11
53.952499
 21
102.300003
  0
TEXT
  8
0
 10
-8.000000
 20
-5.000000
 40
4.000000
 41
1.000000
  1
HFM-15T-10~120-S40K
 50
0.000000
  0
ENDSEC
  0
EOF
