  0
SECTION
  2
HEADER
  9
$CLAYER
  8
1
  9
$LTSCALE
 40
3.0
  0
ENDSEC
  0
SECTION
  2
TABLES
  0
TABLE
  2
LTYPE
 70
     4
  0
LTYPE
  2
CONTINUOUS
  3
solid line
 70
    64
 72
    65
 73
     0
 40
0.0
  0
LTYPE
  2
DASHED
  3
__ __ __ __ __ __ __ __ __ __ __ __ __ __ __
 70
    64
 72
    65
 73
     2
 40
0.75
 49
0.5
 49
-0.25
  0
LTYPE
  2
CENTER
  3
____ _ ____ _ ____ _ ____ _ ____ _ ____ _ ____
 70
    64
 72
    65
 73
     4
 40
2.0
 49
1.25
 49
-0.25
 49
0.25
 49
-0.25
  0
LTYPE
  2
PHANTOM
  3
_____ _ _ _____ _ _ _____ _ _ _____ _ _ ____
 70
    64
 72
    65
 73
     6
 40
2.5
 49
1.25
 49
-0.25
 49
0.25
 49
-0.25
 49
0.25
 49
-0.25
  0
ENDTAB
  0
TABLE
  2
LAYER
 70
     1
  0
LAYER
  2
0
 70
    64
 62
     7
  6
CONTINUOUS
  0
ENDTAB
  0
TABLE
  2
STYLE
 70
     1
  0
STYLE
  2
STANDARD
 70
     0
 40
0.000000
 41
1.000000
 50
0.000000
 71
     0
 42
3.000000
  3
txt
  4
BIGFONT
  0
ENDTAB
  0
ENDSEC
  0
SECTION
  2
BLOCKS
  0
ENDSEC
  0
SECTION
  2
ENTITIES
  0
LINE
  8
0
  6
CENTER
 10
178.467499
 20
323.174988
 11
178.467499
 21
186.675003
  0
LINE
  8
0
  6
CENTER
 10
-4.883125
 20
254.675003
 11
226.967499
 21
254.675003
  0
LINE
  8
0
  6
CONTINUOUS
 10
217.159988
 20
285.674988
 11
137.915817
 21
285.674988
  0
LINE
  8
0
  6
CONTINUOUS
 10
53.967499
 20
292.674988
 11
63.467499
 21
292.674988
  0
LINE
  8
0
  6
CONTINUOUS
 10
53.967499
 20
216.675003
 11
63.467499
 21
216.675003
  0
LINE
  8
0
  6
CONTINUOUS
 10
53.967499
 20
277.674988
 11
54.467499
 21
277.674988
  0
LINE
  8
0
  6
CONTINUOUS
 10
63.467499
 20
216.675003
 11
63.467499
 21
229.675003
  0
LINE
  8
0
  6
CONTINUOUS
 10
53.967499
 20
231.675003
 11
54.467499
 21
231.675003
  0
LINE
  8
0
  6
CONTINUOUS
 10
133.835892
 20
292.674988
 11
63.467499
 21
292.674988
  0
LINE
  8
0
  6
CONTINUOUS
 10
104.467491
 20
277.674988
 11
139.387177
 21
277.674988
  0
LINE
  8
0
  6
CONTINUOUS
 10
136.758362
 20
223.675003
 11
219.757675
 21
223.675003
  0
LINE
  8
0
  6
CONTINUOUS
 10
134.453888
 20
216.675003
 11
63.467499
 21
216.675003
  0
LINE
  8
0
  6
CONTINUOUS
 10
104.467491
 20
231.675003
 11
135.522339
 21
231.675003
  0
LINE
  8
0
  6
CONTINUOUS
 10
170.967499
 20
190.675003
 11
170.967499
 21
214.675003
  0
LINE
  8
0
  6
CONTINUOUS
 10
170.967499
 20
190.675003
 11
187.967499
 21
190.675003
  0
LINE
  8
0
  6
CONTINUOUS
 10
158.467499
 20
288.674988
 11
158.467499
 21
285.674988
  0
LINE
  8
0
  6
CONTINUOUS
 10
198.467499
 20
288.674988
 11
198.467499
 21
285.674988
  0
LINE
  8
0
  6
CONTINUOUS
 10
197.467499
 20
289.674988
 11
159.467499
 21
289.674988
  0
ARC
  8
0
  6
CONTINUOUS
 10
159.467499
 20
288.674988
 40
1.000000
 50
90.000000
 51
180.000000
  0
ARC
  8
0
  6
CONTINUOUS
 10
197.467499
 20
288.674988
 40
1.000000
 50
0.000000
 51
90.000000
  0
LINE
  8
0
  6
CONTINUOUS
 10
187.967499
 20
214.675003
 11
187.967499
 21
190.675003
  0
LINE
  8
0
  6
CONTINUOUS
 10
185.538498
 20
214.675003
 11
185.538498
 21
190.675003
  0
LINE
  8
0
  6
CONTINUOUS
 10
170.967499
 20
318.674988
 11
170.967499
 21
291.674988
  0
LINE
  8
0
  6
CONTINUOUS
 10
170.967499
 20
318.674988
 11
187.967499
 21
318.674988
  0
LINE
  8
0
  6
CONTINUOUS
 10
169.967499
 20
291.674988
 11
186.967499
 21
291.674988
  0
LINE
  8
0
  6
CONTINUOUS
 10
169.967499
 20
291.674988
 11
169.967499
 21
289.674988
  0
LINE
  8
0
  6
CONTINUOUS
 10
186.967499
 20
291.674988
 11
186.967499
 21
289.674988
  0
LINE
  8
0
  6
CONTINUOUS
 10
187.967499
 20
294.674988
 11
187.967499
 21
318.674988
  0
LINE
  8
0
  6
CONTINUOUS
 10
185.538498
 20
294.674988
 11
185.538498
 21
318.674988
  0
LINE
  8
0
  6
CONTINUOUS
 10
185.538498
 20
294.674988
 11
187.967499
 21
294.674988
  0
LINE
  8
0
  6
CONTINUOUS
 10
185.967499
 20
294.674988
 11
185.967499
 21
291.674988
  0
LINE
  8
0
  6
CONTINUOUS
 10
193.467499
 20
224.675003
 11
193.467499
 21
283.709900
  0
LINE
  8
0
  6
CONTINUOUS
 10
163.467499
 20
224.675003
 11
163.467499
 21
283.709900
  0
LINE
  8
0
  6
CONTINUOUS
 10
135.758087
 20
277.677734
 11
135.916504
 21
283.727356
  0
LINE
  8
0
  6
CONTINUOUS
 10
140.242111
 20
224.856247
 11
140.242111
 21
275.675262
  0
LINE
  8
0
  6
CONTINUOUS
 10
63.467499
 20
279.674988
 11
63.467499
 21
292.674988
  0
LINE
  8
0
  6
CONTINUOUS
 10
135.967499
 20
214.675003
 11
220.967499
 21
214.675003
  0
LINE
  8
0
  6
CONTINUOUS
 10
219.159302
 20
283.727356
 11
220.967499
 21
214.675003
  0
ARC
  8
0
  6
CONTINUOUS
 10
217.159988
 20
283.674988
 40
2.000000
 50
1.500000
 51
90.000000
  0
LINE
  8
0
  6
CONTINUOUS
 10
134.920059
 20
254.675003
 11
135.967499
 21
214.675003
  0
LINE
  8
0
  6
CONTINUOUS
 10
218.390198
 20
214.675003
 11
218.390198
 21
222.364685
  0
LINE
  8
0
  6
CONTINUOUS
 10
138.544800
 20
214.675003
 11
138.544800
 21
222.364685
  0
ARC
  8
0
  6
CONTINUOUS
 10
162.467499
 20
224.675003
 40
1.000000
 50
-90.000000
 51
0.000000
  0
ARC
  8
0
  6
CONTINUOUS
 10
194.467499
 20
224.675003
 40
1.000000
 50
180.000000
 51
270.000000
  0
LINE
  8
0
  6
CONTINUOUS
 10
163.467499
 20
224.994995
 11
193.467499
 21
224.994995
  0
ARC
  8
0
  6
CONTINUOUS
 10
219.757675
 20
222.675003
 40
1.000000
 50
1.499998
 51
90.000000
  0
LINE
  8
0
  6
CONTINUOUS
 10
135.835205
 20
290.727356
 11
135.916504
 21
287.622650
  0
ARC
  8
0
  6
CONTINUOUS
 10
136.758362
 20
222.675003
 40
1.000000
 50
90.000000
 51
181.500000
  0
ARC
  8
0
  6
CONTINUOUS
 10
134.453888
 20
215.175003
 40
1.500000
 50
1.499999
 51
90.000000
  0
ARC
  8
0
  6
CONTINUOUS
 10
133.835892
 20
290.674988
 40
2.000000
 50
1.500000
 51
90.000000
  0
ARC
  8
0
  6
CONTINUOUS
 10
137.915817
 20
287.674988
 40
2.000000
 50
181.500000
 51
270.000000
  0
ARC
  8
0
  6
CONTINUOUS
 10
137.915817
 20
283.674988
 40
2.000000
 50
90.000000
 51
178.500000
  0
LINE
  8
0
  6
CENTER
 10
210.467499
 20
210.784851
 11
210.467499
 21
227.925629
  0
LINE
  8
0
  6
DASHED
 10
213.717499
 20
223.675003
 11
213.717499
 21
214.675003
  0
LINE
  8
0
  6
DASHED
 10
207.217499
 20
223.675003
 11
207.217499
 21
214.675003
  0
LINE
  8
0
  6
CENTER
 10
146.467499
 20
210.784851
 11
146.467499
 21
227.925629
  0
LINE
  8
0
  6
DASHED
 10
143.217499
 20
223.675003
 11
143.217499
 21
214.675003
  0
LINE
  8
0
  6
DASHED
 10
149.717499
 20
223.675003
 11
149.717499
 21
214.675003
  0
LINE
  8
0
  6
CONTINUOUS
 10
53.967499
 20
214.675003
 11
53.967499
 21
247.175003
  0
LINE
  8
0
  6
CONTINUOUS
 10
9.967500
 20
294.674988
 11
53.967499
 21
294.674988
  0
LINE
  8
0
  6
CONTINUOUS
 10
9.967500
 20
214.675003
 11
53.967499
 21
214.675003
  0
LINE
  8
0
  6
CONTINUOUS
 10
4.967500
 20
219.675003
 11
4.967500
 21
289.674988
  0
ARC
  8
0
  6
CONTINUOUS
 10
9.967520
 20
289.675018
 40
5.000000
 50
90.000000
 51
180.000000
  0
ARC
  8
0
  6
CONTINUOUS
 10
9.967500
 20
219.675003
 40
5.000000
 50
180.000000
 51
270.000000
  0
LINE
  8
0
  6
CONTINUOUS
 10
7.467500
 20
228.675003
 11
53.967499
 21
228.675003
  0
LINE
  8
0
  6
CONTINUOUS
 10
7.467500
 20
278.674988
 11
53.967499
 21
278.674988
  0
LINE
  8
0
  6
CONTINUOUS
 10
53.467499
 20
262.174988
 11
54.467499
 21
262.174988
  0
ARC
  8
0
  6
CONTINUOUS
 10
53.467522
 20
261.174988
 40
1.000000
 50
90.000000
 51
180.000000
  0
LINE
  8
0
  6
CONTINUOUS
 10
48.967514
 20
258.674988
 11
48.967514
 21
250.675003
  0
LINE
  8
0
  6
CONTINUOUS
 10
48.967514
 20
258.674988
 11
52.467514
 21
260.174988
  0
LINE
  8
0
  6
CONTINUOUS
 10
48.967499
 20
250.675003
 11
52.467499
 21
249.175003
  0
LINE
  8
0
  6
CONTINUOUS
 10
52.467514
 20
261.174988
 11
52.467514
 21
248.175003
  0
LINE
  8
0
  6
CONTINUOUS
 10
53.467499
 20
247.175003
 11
54.467499
 21
247.175003
  0
ARC
  8
0
  6
CONTINUOUS
 10
53.467522
 20
248.175003
 40
1.000000
 50
-180.000000
 51
-90.000000
  0
LINE
  8
0
  6
CONTINUOUS
 10
54.467499
 20
231.675003
 11
54.467499
 21
277.674988
  0
LINE
  8
0
  6
CONTINUOUS
 10
56.467499
 20
279.674988
 11
54.467499
 21
277.674988
  0
LINE
  8
0
  6
CONTINUOUS
 10
56.467499
 20
279.674988
 11
102.467491
 21
279.674988
  0
LINE
  8
0
  6
CONTINUOUS
 10
96.967499
 20
275.174988
 11
96.967499
 21
279.674988
  0
ARC
  8
0
  6
CONTINUOUS
 10
99.967499
 20
275.174988
 40
3.000000
 50
180.000000
 51
270.000000
  0
LINE
  8
0
  6
CONTINUOUS
 10
99.967499
 20
272.174988
 11
104.467491
 21
272.174988
  0
CIRCLE
  8
0
  6
CONTINUOUS
 10
100.967499
 20
276.174988
 40
2.250000
  0
LINE
  8
0
  6
CONTINUOUS
 10
104.467491
 20
231.675003
 11
104.467491
 21
277.674988
  0
LINE
  8
0
  6
CONTINUOUS
 10
102.467491
 20
279.674988
 11
104.467491
 21
277.674988
  0
LINE
  8
0
  6
CONTINUOUS
 10
102.467491
 20
229.675003
 11
104.467491
 21
231.675003
  0
LINE
  8
0
  6
CONTINUOUS
 10
102.467491
 20
229.675003
 11
56.467499
 21
229.675003
  0
LINE
  8
0
  6
CONTINUOUS
 10
54.467499
 20
231.675003
 11
56.467499
 21
229.675003
  0
LINE
  8
0
  6
CONTINUOUS
 10
58.967499
 20
237.175003
 11
54.467510
 21
237.175003
  0
CIRCLE
  8
0
  6
CONTINUOUS
 10
57.967499
 20
233.175003
 40
2.250000
  0
ARC
  8
0
  6
CONTINUOUS
 10
58.967499
 20
234.175003
 40
3.000000
 50
0.000000
 51
90.000000
  0
LINE
  8
0
  6
CONTINUOUS
 10
61.967499
 20
234.175003
 11
61.967499
 21
229.675003
  0
LINE
  8
0
  6
CENTER
 10
79.467499
 20
222.209213
 11
79.467499
 21
286.341248
  0
LINE
  8
0
  6
CONTINUOUS
 10
56.881718
 20
278.674988
 11
55.467506
 21
277.260773
  0
LINE
  8
0
  6
CONTINUOUS
 10
55.467506
 20
237.175003
 11
55.467506
 21
277.260773
  0
LINE
  8
0
  6
CONTINUOUS
 10
96.967499
 20
278.674988
 11
56.881718
 21
278.674988
  0
LINE
  8
0
  6
CONTINUOUS
 10
103.467491
 20
272.174988
 11
103.467491
 21
232.089218
  0
LINE
  8
0
  6
CONTINUOUS
 10
61.967499
 20
230.675003
 11
102.053284
 21
230.675003
  0
LINE
  8
0
  6
CONTINUOUS
 10
102.053284
 20
230.675003
 11
103.467491
 21
232.089218
  0
LINE
  8
0
  6
CONTINUOUS
 10
53.967499
 20
262.174988
 11
53.967499
 21
294.674988
  0
LINE
  8
0
  6
CONTINUOUS
 10
53.967499
 20
87.480003
 11
63.467499
 21
87.480003
  0
LINE
  8
0
  6
CONTINUOUS
 10
53.967499
 20
11.480000
 11
63.467499
 21
11.480000
  0
LINE
  8
0
  6
CONTINUOUS
 10
53.967499
 20
9.480000
 11
53.967499
 21
89.480003
  0
LINE
  8
0
  6
CONTINUOUS
 10
53.967499
 20
79.728996
 11
63.467499
 21
79.728996
  0
LINE
  8
0
  6
CONTINUOUS
 10
53.967499
 20
19.231001
 11
63.467499
 21
19.231001
  0
LINE
  8
0
  6
CONTINUOUS
 10
9.967500
 20
89.480003
 11
53.967499
 21
89.480003
  0
LINE
  8
0
  6
CONTINUOUS
 10
9.967500
 20
9.480000
 11
53.967499
 21
9.480000
  0
LINE
  8
0
  6
CONTINUOUS
 10
4.967500
 20
14.480000
 11
4.967500
 21
84.480003
  0
ARC
  8
0
  6
CONTINUOUS
 10
9.967520
 20
84.480019
 40
5.000000
 50
90.000000
 51
180.000000
  0
ARC
  8
0
  6
CONTINUOUS
 10
9.967500
 20
14.480000
 40
5.000000
 50
180.000000
 51
270.000000
  0
LINE
  8
0
  6
CONTINUOUS
 10
7.467500
 20
75.480003
 11
53.967499
 21
75.480003
  0
LINE
  8
0
  6
CONTINUOUS
 10
7.467500
 20
25.480000
 11
53.967499
 21
25.480000
  0
LINE
  8
0
  6
CONTINUOUS
 10
63.467499
 20
11.480000
 11
63.467499
 21
87.480003
  0
LINE
  8
0
  6
CENTER
 10
-7.307500
 20
49.480000
 11
153.767502
 21
49.480000
  0
LINE
  8
0
  6
CONTINUOUS
 10
63.467499
 20
87.480003
 11
136.387497
 21
87.480003
  0
LINE
  8
0
  6
CONTINUOUS
 10
133.967499
 20
11.480000
 11
63.467499
 21
11.480000
  0
LINE
  8
0
  6
CONTINUOUS
 10
146.467499
 20
7.780000
 11
210.467499
 21
7.780000
  0
LINE
  8
0
  6
CONTINUOUS
 10
146.467499
 20
109.779999
 11
210.467499
 21
109.779999
  0
LINE
  8
0
  6
CONTINUOUS
 10
135.967499
 20
84.480003
 11
135.967499
 21
33.080002
  0
LINE
  8
0
  6
CENTER
 10
178.467499
 20
122.167503
 11
178.467499
 21
-1.457500
  0
LINE
  8
0
  6
CENTER
 10
210.467499
 20
21.917500
 11
210.467499
 21
10.417500
  0
LINE
  8
0
  6
CENTER
 10
204.623795
 20
15.780000
 11
216.873795
 21
15.780000
  0
CIRCLE
  8
0
  6
CONTINUOUS
 10
210.467499
 20
15.780000
 40
3.250000
  0
LINE
  8
0
  6
CENTER
 10
210.467499
 20
95.642502
 11
210.467499
 21
107.142502
  0
LINE
  8
0
  6
CENTER
 10
204.623795
 20
101.779999
 11
216.873795
 21
101.779999
  0
CIRCLE
  8
0
  6
CONTINUOUS
 10
210.467499
 20
101.779999
 40
3.250000
  0
LINE
  8
0
  6
CENTER
 10
146.467499
 20
95.642502
 11
146.467499
 21
107.142502
  0
LINE
  8
0
  6
CENTER
 10
152.311295
 20
101.779999
 11
140.061295
 21
101.779999
  0
CIRCLE
  8
0
  6
CONTINUOUS
 10
146.467499
 20
101.779999
 40
3.250000
  0
LINE
  8
0
  6
CENTER
 10
146.467499
 20
21.917500
 11
146.467499
 21
10.417500
  0
LINE
  8
0
  6
CENTER
 10
152.311295
 20
15.780000
 11
140.061295
 21
15.780000
  0
CIRCLE
  8
0
  6
CONTINUOUS
 10
146.467499
 20
15.780000
 40
3.250000
  0
LINE
  8
0
  6
CONTINUOUS
 10
218.467499
 20
73.141403
 11
218.467499
 21
44.418861
  0
LINE
  8
0
  6
CONTINUOUS
 10
138.467499
 20
73.141273
 11
138.467499
 21
44.418461
  0
ARC
  8
0
  6
CONTINUOUS
 10
178.467499
 20
58.779999
 40
42.500000
 50
19.749901
 51
160.250107
  0
ARC
  8
0
  6
CONTINUOUS
 10
178.467499
 20
58.779999
 40
42.500000
 50
199.749893
 51
340.250092
  0
LINE
  8
0
  6
CONTINUOUS
 10
220.967499
 20
84.480003
 11
220.967499
 21
33.080009
  0
LINE
  8
0
  6
CONTINUOUS
 10
218.390198
 20
102.889160
 11
220.967499
 21
84.480003
  0
LINE
  8
0
  6
CONTINUOUS
 10
218.390198
 20
14.670880
 11
220.967499
 21
33.080009
  0
LINE
  8
0
  6
CONTINUOUS
 10
138.544800
 20
14.670800
 11
135.967499
 21
33.080002
  0
LINE
  8
0
  6
CONTINUOUS
 10
138.544800
 20
102.889153
 11
135.967499
 21
84.480003
  0
LINE
  8
0
  6
CENTER
 10
147.729996
 20
71.779999
 11
209.498749
 21
71.779999
  0
LINE
  8
0
  6
CONTINUOUS
 10
187.967499
 20
74.279999
 11
187.967499
 21
69.279999
  0
LINE
  8
0
  6
CONTINUOUS
 10
182.967499
 20
69.279999
 11
182.967499
 21
74.279999
  0
LINE
  8
0
  6
CONTINUOUS
 10
182.967499
 20
74.279999
 11
187.967499
 21
74.279999
  0
LINE
  8
0
  6
CONTINUOUS
 10
182.967499
 20
69.279999
 11
187.967499
 21
69.279999
  0
ARC
  8
0
  6
CONTINUOUS
 10
178.467499
 20
71.779999
 40
7.500000
 50
19.471201
 51
340.528809
  0
LINE
  8
0
  6
CONTINUOUS
 10
158.467499
 20
105.779999
 11
198.467499
 21
105.779999
  0
LINE
  8
0
  6
CONTINUOUS
 10
158.467499
 20
11.780000
 11
198.467499
 21
11.780000
  0
LINE
  8
0
  6
CONTINUOUS
 10
216.092606
 20
90.450500
 11
218.491806
 21
73.313431
  0
LINE
  8
0
  6
CONTINUOUS
 10
218.469894
 20
44.089733
 11
216.092606
 21
27.109501
  0
LINE
  8
0
  6
CONTINUOUS
 10
138.518005
 20
43.712078
 11
140.842407
 21
27.109510
  0
LINE
  8
0
  6
CONTINUOUS
 10
140.842407
 20
90.450493
 11
138.384201
 21
72.891678
  0
ARC
  8
0
  6
CONTINUOUS
 10
198.467499
 20
101.779999
 40
4.000000
 50
0.000000
 51
90.000000
  0
ARC
  8
0
  6
CONTINUOUS
 10
158.467499
 20
101.779999
 40
4.000000
 50
90.000000
 51
180.000000
  0
ARC
  8
0
  6
CONTINUOUS
 10
198.467499
 20
15.780000
 40
4.000000
 50
-90.000000
 51
0.000000
  0
ARC
  8
0
  6
CONTINUOUS
 10
158.467499
 20
15.780000
 40
4.000000
 50
-180.000000
 51
-90.000000
  0
ARC
  8
0
  6
CONTINUOUS
 10
212.131302
 20
89.895897
 40
4.000000
 50
7.969701
 51
97.969757
  0
ARC
  8
0
  6
CONTINUOUS
 10
210.467499
 20
101.779999
 40
8.000000
 50
180.000000
 51
277.969513
  0
ARC
  8
0
  6
CONTINUOUS
 10
210.467499
 20
101.779999
 40
8.000000
 50
7.969647
 51
90.000000
  0
ARC
  8
0
  6
CONTINUOUS
 10
144.803696
 20
89.895897
 40
4.000000
 50
82.030243
 51
172.030304
  0
ARC
  8
0
  6
CONTINUOUS
 10
212.131302
 20
27.664101
 40
4.000000
 50
-97.969757
 51
-7.969701
  0
ARC
  8
0
  6
CONTINUOUS
 10
144.803696
 20
27.664101
 40
4.000000
 50
-172.030304
 51
-82.030243
  0
ARC
  8
0
  6
CONTINUOUS
 10
146.467499
 20
101.779999
 40
8.000000
 50
90.000000
 51
172.030502
  0
ARC
  8
0
  6
CONTINUOUS
 10
146.467499
 20
101.779999
 40
8.000000
 50
-97.969597
 51
0.000000
  0
ARC
  8
0
  6
CONTINUOUS
 10
146.467499
 20
15.780000
 40
8.000000
 50
0.000000
 51
97.969818
  0
ARC
  8
0
  6
CONTINUOUS
 10
146.467499
 20
15.780000
 40
8.000000
 50
187.969604
 51
270.000000
  0
ARC
  8
0
  6
CONTINUOUS
 10
210.467499
 20
15.780000
 40
8.000000
 50
270.000000
 51
352.030304
  0
ARC
  8
0
  6
CONTINUOUS
 10
210.467499
 20
15.780000
 40
8.000000
 50
82.030350
 51
180.000000
  0
LINE
  8
0
  6
CONTINUOUS
 10
135.967499
 20
13.480000
 11
135.967499
 21
19.480009
  0
ARC
  8
0
  6
CONTINUOUS
 10
133.967499
 20
13.480000
 40
2.000000
 50
-90.000000
 51
0.000000
  0
ARC
  8
0
  6
CONTINUOUS
 10
140.967499
 20
19.480021
 40
5.000000
 50
135.792801
 51
180.000000
  0
LINE
  8
0
  6
CONTINUOUS
 10
63.467499
 20
79.728973
 11
135.217499
 21
79.728973
  0
LINE
  8
0
  6
CONTINUOUS
 10
63.467499
 20
19.231039
 11
135.467499
 21
19.231039
  0
CIRCLE
  8
0
  6
CONTINUOUS
 10
178.467499
 20
71.779999
 40
20.000000
  0
LINE
  8
0
  6
CONTINUOUS
 10
172.092499
 20
39.333229
 11
172.092499
 21
33.779999
  0
LINE
  8
0
  6
CONTINUOUS
 10
175.279999
 20
41.350315
 11
175.279999
 21
43.342503
  0
LINE
  8
0
  6
CONTINUOUS
 10
181.654999
 20
41.350315
 11
181.654999
 21
43.342503
  0
LINE
  8
0
  6
CONTINUOUS
 10
177.844894
 20
42.172092
 11
177.844894
 21
34.825901
  0
LINE
  8
0
  6
CONTINUOUS
 10
179.040298
 20
42.172092
 11
179.040298
 21
34.825901
  0
LINE
  8
0
  6
CONTINUOUS
 10
185.315598
 20
42.172092
 11
185.315598
 21
34.776100
  0
LINE
  8
0
  6
CONTINUOUS
 10
186.411301
 20
38.249969
 11
186.411301
 21
34.776100
  0
LINE
  8
0
  6
CONTINUOUS
 10
170.580002
 20
42.072483
 11
167.508102
 21
42.072483
  0
LINE
  8
0
  6
CONTINUOUS
 10
167.508102
 20
42.072483
 11
166.788300
 21
41.179974
  0
LINE
  8
0
  6
CONTINUOUS
 10
166.874893
 20
43.342503
 11
165.717499
 21
41.860500
  0
LINE
  8
0
  6
CONTINUOUS
 10
166.788300
 20
35.670921
 11
167.519608
 21
34.900612
  0
LINE
  8
0
  6
CONTINUOUS
 10
165.717499
 20
35.020859
 11
166.947296
 21
33.779999
  0
LINE
  8
0
  6
CONTINUOUS
 10
165.717499
 20
41.860500
 11
165.717499
 21
35.020859
  0
LINE
  8
0
  6
CONTINUOUS
 10
166.788300
 20
41.179974
 11
166.788300
 21
35.670921
  0
LINE
  8
0
  6
CONTINUOUS
 10
171.171097
 20
41.501034
 11
170.567902
 21
42.072483
  0
LINE
  8
0
  6
CONTINUOUS
 10
171.161499
 20
43.342503
 11
172.092499
 21
42.309361
  0
LINE
  8
0
  6
CONTINUOUS
 10
171.171097
 20
41.350315
 11
172.092499
 21
41.350315
  0
LINE
  8
0
  6
CONTINUOUS
 10
166.874893
 20
43.342503
 11
171.161499
 21
43.342503
  0
LINE
  8
0
  6
CONTINUOUS
 10
171.171097
 20
38.287331
 11
169.502701
 21
38.287331
  0
LINE
  8
0
  6
CONTINUOUS
 10
171.171097
 20
37.291229
 11
171.171097
 21
38.088112
  0
LINE
  8
0
  6
CONTINUOUS
 10
169.178894
 20
34.900612
 11
167.519608
 21
34.900612
  0
ARC
  8
0
  6
CONTINUOUS
 10
169.178894
 20
36.892792
 40
1.992187
 50
-89.999786
 51
0.000109
  0
LINE
  8
0
  6
CONTINUOUS
 10
171.171097
 20
34.542259
 11
171.171097
 21
33.779999
  0
LINE
  8
0
  6
CONTINUOUS
 10
172.092499
 20
42.309361
 11
172.092499
 21
41.350315
  0
LINE
  8
0
  6
CONTINUOUS
 10
171.171097
 20
38.287331
 11
171.171097
 21
36.892792
  0
LINE
  8
0
  6
CONTINUOUS
 10
169.502701
 20
39.333229
 11
169.502701
 21
38.287331
  0
LINE
  8
0
  6
CONTINUOUS
 10
171.171097
 20
33.779999
 11
172.092499
 21
33.779999
  0
LINE
  8
0
  6
CONTINUOUS
 10
171.171097
 20
34.542259
 11
170.262604
 21
33.779999
  0
LINE
  8
0
  6
CONTINUOUS
 10
179.040298
 20
34.825901
 11
179.438705
 21
34.825901
  0
LINE
  8
0
  6
CONTINUOUS
 10
177.371796
 20
34.825901
 11
177.371796
 21
33.779999
  0
LINE
  8
0
  6
CONTINUOUS
 10
179.438705
 20
34.825901
 11
179.438705
 21
33.779999
  0
LINE
  8
0
  6
CONTINUOUS
 10
180.990005
 20
41.350315
 11
181.654999
 21
41.350315
  0
LINE
  8
0
  6
CONTINUOUS
 10
175.279999
 20
41.350315
 11
175.987595
 21
41.350315
  0
LINE
  8
0
  6
CONTINUOUS
 10
175.279999
 20
43.342503
 11
181.654999
 21
43.342503
  0
LINE
  8
0
  6
CONTINUOUS
 10
177.371796
 20
33.779999
 11
179.438705
 21
33.779999
  0
LINE
  8
0
  6
CONTINUOUS
 10
177.371796
 20
34.825901
 11
177.844894
 21
34.825901
  0
ARC
  8
0
  6
CONTINUOUS
 10
188.664993
 20
40.790012
 40
2.552490
 50
-73.981873
 51
90.003510
  0
ARC
  8
0
  6
CONTINUOUS
 10
188.664993
 20
40.790012
 40
1.557193
 50
-82.585274
 51
62.411850
  0
LINE
  8
0
  6
CONTINUOUS
 10
184.842499
 20
43.342503
 11
188.664993
 21
43.342503
  0
LINE
  8
0
  6
CONTINUOUS
 10
184.842499
 20
43.342503
 11
184.842499
 21
42.172092
  0
LINE
  8
0
  6
CONTINUOUS
 10
186.411301
 20
42.172092
 11
186.411301
 21
39.245838
  0
LINE
  8
0
  6
CONTINUOUS
 10
189.369293
 20
38.336620
 11
190.949203
 21
34.776100
  0
LINE
  8
0
  6
CONTINUOUS
 10
188.451797
 20
38.249969
 11
189.946793
 21
34.776100
  0
LINE
  8
0
  6
CONTINUOUS
 10
184.842499
 20
34.776100
 11
185.315598
 21
34.776100
  0
LINE
  8
0
  6
CONTINUOUS
 10
186.411301
 20
34.776100
 11
186.847107
 21
34.776100
  0
LINE
  8
0
  6
CONTINUOUS
 10
186.847107
 20
33.779999
 11
184.842499
 21
33.779999
  0
LINE
  8
0
  6
CONTINUOUS
 10
189.748306
 20
34.776100
 11
189.946793
 21
34.776100
  0
LINE
  8
0
  6
CONTINUOUS
 10
190.949203
 20
34.776100
 11
191.217499
 21
34.776100
  0
LINE
  8
0
  6
CONTINUOUS
 10
189.748306
 20
33.779999
 11
191.217499
 21
33.779999
  0
LINE
  8
0
  6
CONTINUOUS
 10
191.217499
 20
34.776100
 11
191.217499
 21
33.779999
  0
LINE
  8
0
  6
CONTINUOUS
 10
189.748306
 20
34.776100
 11
189.748306
 21
33.779999
  0
LINE
  8
0
  6
CONTINUOUS
 10
186.847107
 20
34.776100
 11
186.847107
 21
33.779999
  0
LINE
  8
0
  6
CONTINUOUS
 10
184.842499
 20
34.776100
 11
184.842499
 21
33.779999
  0
LINE
  8
0
  6
CONTINUOUS
 10
176.330002
 20
42.172092
 11
175.987595
 21
41.350315
  0
LINE
  8
0
  6
CONTINUOUS
 10
180.701294
 20
42.172092
 11
180.990005
 21
41.350315
  0
LINE
  8
0
  6
CONTINUOUS
 10
179.040298
 20
42.172092
 11
180.701294
 21
42.172092
  0
LINE
  8
0
  6
CONTINUOUS
 10
177.844894
 20
42.172092
 11
176.330002
 21
42.172092
  0
LINE
  8
0
  6
CONTINUOUS
 10
184.842499
 20
42.172092
 11
185.315598
 21
42.172092
  0
LINE
  8
0
  6
CONTINUOUS
 10
186.411301
 20
42.172092
 11
189.386200
 21
42.170147
  0
LINE
  8
0
  6
CONTINUOUS
 10
171.171097
 20
41.501034
 11
171.171097
 21
41.350315
  0
LINE
  8
0
  6
CONTINUOUS
 10
166.947296
 20
33.779999
 11
170.262604
 21
33.779999
  0
LINE
  8
0
  6
CONTINUOUS
 10
186.411301
 20
39.245838
 11
188.865997
 21
39.245838
  0
LINE
  8
0
  6
CONTINUOUS
 10
186.411301
 20
38.249969
 11
188.451797
 21
38.249969
  0
LINE
  8
0
  6
CONTINUOUS
 10
169.502701
 20
39.333229
 11
172.092499
 21
39.333229
  0
LINE
  8
0
  6
CENTER
 10
358.467499
 20
-0.207500
 11
358.467499
 21
128.826874
  0
LINE
  8
0
  6
CONTINUOUS
 10
389.467499
 20
15.727930
 11
389.467499
 21
101.814598
  0
LINE
  8
0
  6
CONTINUOUS
 10
393.467499
 20
52.779999
 11
393.467499
 21
90.779999
  0
LINE
  8
0
  6
CENTER
 10
285.733093
 20
71.779999
 11
431.233093
 21
71.779999
  0
LINE
  8
0
  6
CONTINUOUS
 10
392.467499
 20
91.779999
 11
391.467499
 21
91.779999
  0
LINE
  8
0
  6
CONTINUOUS
 10
392.467499
 20
51.779999
 11
391.467499
 21
51.779999
  0
LINE
  8
0
  6
CONTINUOUS
 10
387.502411
 20
103.814301
 11
329.432587
 21
104.827682
  0
LINE
  8
0
  6
CONTINUOUS
 10
387.502411
 20
13.728230
 11
329.432587
 21
12.714420
  0
ARC
  8
0
  6
CONTINUOUS
 10
387.467499
 20
101.814590
 40
2.000000
 50
0.000000
 51
89.000359
  0
ARC
  8
0
  6
CONTINUOUS
 10
387.467499
 20
15.727920
 40
2.000000
 50
-88.999634
 51
0.000000
  0
ARC
  8
0
  6
CONTINUOUS
 10
392.467499
 20
90.779999
 40
1.000000
 50
0.000000
 51
90.000000
  0
ARC
  8
0
  6
CONTINUOUS
 10
392.467499
 20
52.779999
 40
1.000000
 50
-90.000000
 51
0.000000
  0
LINE
  8
0
  6
CONTINUOUS
 10
327.467499
 20
30.080021
 11
327.467499
 21
9.280000
  0
LINE
  8
0
  6
CONTINUOUS
 10
318.467499
 20
109.779999
 11
326.316498
 21
109.779999
  0
LINE
  8
0
  6
CONTINUOUS
 10
325.932892
 20
7.780000
 11
318.467499
 21
7.780000
  0
LINE
  8
0
  6
CONTINUOUS
 10
330.968506
 20
84.480003
 11
387.498810
 21
84.480003
  0
LINE
  8
0
  6
CONTINUOUS
 10
330.467499
 20
33.080002
 11
388.029999
 21
33.080002
  0
ARC
  8
0
  6
CONTINUOUS
 10
325.967499
 20
9.280000
 40
1.500000
 50
-90.000000
 51
0.000000
  0
LINE
  8
0
  6
CONTINUOUS
 10
327.765411
 20
108.668221
 11
328.205200
 21
107.026863
  0
ARC
  8
0
  6
CONTINUOUS
 10
331.100586
 20
107.799042
 40
3.000000
 50
194.932602
 51
269.000610
  0
ARC
  8
0
  6
CONTINUOUS
 10
326.316498
 20
108.279999
 40
1.500000
 50
15.000070
 51
90.000000
  0
ARC
  8
0
  6
CONTINUOUS
 10
330.467499
 20
30.080021
 40
3.000000
 50
90.000000
 51
180.000000
  0
ARC
  8
0
  6
CONTINUOUS
 10
391.467499
 20
93.779999
 40
2.000000
 50
180.000000
 51
270.000000
  0
ARC
  8
0
  6
CONTINUOUS
 10
391.467499
 20
49.780010
 40
2.000000
 50
90.000000
 51
180.000000
  0
LINE
  8
0
  6
CONTINUOUS
 10
395.467499
 20
79.279999
 11
422.467499
 21
79.279999
  0
LINE
  8
0
  6
CONTINUOUS
 10
395.467499
 20
64.279999
 11
422.467499
 21
64.279999
  0
LINE
  8
0
  6
CONTINUOUS
 10
422.467499
 20
64.279999
 11
422.467499
 21
79.279999
  0
LINE
  8
0
  6
CONTINUOUS
 10
400.967499
 20
69.279999
 11
422.467499
 21
69.279999
  0
LINE
  8
0
  6
CONTINUOUS
 10
400.967499
 20
74.279999
 11
422.467499
 21
74.279999
  0
ARC
  8
0
  6
CONTINUOUS
 10
400.967499
 20
71.780006
 40
2.500000
 50
90.000000
 51
180.000000
  0
ARC
  8
0
  6
CONTINUOUS
 10
400.967499
 20
71.779999
 40
2.500000
 50
180.000000
 51
270.000000
  0
LINE
  8
0
  6
CENTER
 10
314.748810
 20
101.779999
 11
330.998810
 21
101.779999
  0
LINE
  8
0
  6
CENTER
 10
315.748810
 20
15.780000
 11
330.748810
 21
15.780000
  0
LINE
  8
0
  6
DASHED
 10
318.467499
 20
19.030001
 11
327.467499
 21
19.030001
  0
LINE
  8
0
  6
DASHED
 10
318.467499
 20
12.530000
 11
327.467499
 21
12.530000
  0
LINE
  8
0
  6
DASHED
 10
318.467499
 20
105.029999
 11
327.467499
 21
105.029999
  0
LINE
  8
0
  6
DASHED
 10
318.467499
 20
98.529999
 11
327.467499
 21
98.529999
  0
LINE
  8
0
  6
CONTINUOUS
 10
337.467499
 20
11.480000
 11
379.467499
 21
11.480000
  0
ARC
  8
0
  6
CONTINUOUS
 10
379.467499
 20
13.480000
 40
2.000000
 50
-90.000000
 51
0.000000
  0
ARC
  8
0
  6
CONTINUOUS
 10
337.467499
 20
13.480000
 40
2.000000
 50
199.216995
 51
270.000000
  0
LINE
  8
0
  6
CONTINUOUS
 10
381.467499
 20
13.480000
 11
381.467499
 21
13.622780
  0
ARC
  8
0
  6
CONTINUOUS
 10
358.467499
 20
49.480000
 40
38.000000
 50
-35.334469
 51
21.294241
  0
LINE
  8
0
  6
CONTINUOUS
 10
323.467499
 20
52.779999
 11
323.467499
 21
90.779999
  0
LINE
  8
0
  6
CONTINUOUS
 10
324.467499
 20
51.779999
 11
327.467499
 21
51.779999
  0
ARC
  8
0
  6
CONTINUOUS
 10
324.467499
 20
90.779999
 40
1.000000
 50
90.000000
 51
180.000000
  0
ARC
  8
0
  6
CONTINUOUS
 10
324.467499
 20
52.779999
 40
1.000000
 50
180.000000
 51
270.000000
  0
LINE
  8
0
  6
CONTINUOUS
 10
321.467499
 20
79.279999
 11
294.467499
 21
79.279999
  0
LINE
  8
0
  6
CONTINUOUS
 10
321.467499
 20
64.279999
 11
294.467499
 21
64.279999
  0
LINE
  8
0
  6
CONTINUOUS
 10
294.467499
 20
64.279999
 11
294.467499
 21
79.279999
  0
LINE
  8
0
  6
CONTINUOUS
 10
321.467499
 20
80.279999
 11
321.467499
 21
63.279999
  0
LINE
  8
0
  6
CONTINUOUS
 10
315.967499
 20
69.279999
 11
294.467499
 21
69.279999
  0
LINE
  8
0
  6
CONTINUOUS
 10
315.967499
 20
74.279999
 11
294.467499
 21
74.279999
  0
ARC
  8
0
  6
CONTINUOUS
 10
315.967499
 20
71.780006
 40
2.500000
 50
0.000000
 51
90.000000
  0
ARC
  8
0
  6
CONTINUOUS
 10
315.967499
 20
71.779999
 40
2.500000
 50
-90.000000
 51
0.000000
  0
LINE
  8
0
  6
CONTINUOUS
 10
318.467499
 20
7.780000
 11
318.467499
 21
64.279999
  0
LINE
  8
0
  6
CONTINUOUS
 10
318.467499
 20
109.779999
 11
318.467499
 21
79.279999
  0
LINE
  8
0
  6
CONTINUOUS
 10
324.467499
 20
91.779999
 11
327.467499
 21
91.779999
  0
LINE
  8
0
  6
CONTINUOUS
 10
318.467499
 20
94.989647
 11
324.358093
 21
93.776878
  0
LINE
  8
0
  6
CONTINUOUS
 10
324.358093
 20
93.776878
 11
329.608093
 21
90.526878
  0
LINE
  8
0
  6
CONTINUOUS
 10
329.608093
 20
90.526878
 11
330.108093
 21
85.401878
  0
LINE
  8
0
  6
CONTINUOUS
 10
330.108093
 20
85.401878
 11
331.858093
 21
83.526878
  0
LINE
  8
0
  6
CONTINUOUS
 10
331.858093
 20
83.526878
 11
332.233093
 21
79.901878
  0
LINE
  8
0
  6
CONTINUOUS
 10
332.233093
 20
79.901878
 11
332.608093
 21
74.276878
  0
LINE
  8
0
  6
CONTINUOUS
 10
332.608093
 20
74.276878
 11
333.358093
 21
69.026878
  0
LINE
  8
0
  6
CONTINUOUS
 10
333.358093
 20
69.026878
 11
331.358093
 21
62.651878
  0
LINE
  8
0
  6
CONTINUOUS
 10
331.358093
 20
62.651878
 11
331.983093
 21
56.151875
  0
LINE
  8
0
  6
CONTINUOUS
 10
331.983093
 20
56.151875
 11
330.483093
 21
50.401875
  0
LINE
  8
0
  6
CONTINUOUS
 10
330.483093
 20
50.401875
 11
326.358093
 21
47.276875
  0
LINE
  8
0
  6
CONTINUOUS
 10
326.358093
 20
47.276875
 11
321.483093
 21
46.651875
  0
LINE
  8
0
  6
CONTINUOUS
 10
321.483093
 20
46.651875
 11
318.467499
 21
45.423286
  0
LINE
  8
0
  6
CONTINUOUS
 10
395.467499
 20
80.279999
 11
395.467499
 21
63.279999
  0
LINE
  8
0
  6
CENTER
 10
312.454987
 20
49.480000
 11
405.198761
 21
49.480000
  0
LINE
  8
0
  6
CONTINUOUS
 10
327.467499
 20
109.241882
 11
327.467499
 21
48.117321
  0
LINE
  8
0
  6
CONTINUOUS
 10
393.467499
 20
80.279999
 11
395.467499
 21
80.279999
  0
LINE
  8
0
  6
CONTINUOUS
 10
393.467499
 20
63.279999
 11
395.467499
 21
63.279999
  0
LINE
  8
0
  6
CONTINUOUS
 10
321.467499
 20
80.279999
 11
323.467499
 21
80.279999
  0
LINE
  8
0
  6
CONTINUOUS
 10
321.467499
 20
63.279999
 11
323.467499
 21
63.279999
  0
ARC
  8
0
  6
CONTINUOUS
 10
329.467499
 20
106.827393
 40
2.000000
 50
180.000000
 51
269.000610
  0
ARC
  8
0
  6
CONTINUOUS
 10
329.467499
 20
10.714730
 40
2.000000
 50
91.000633
 51
180.000000
  0
LINE
  8
0
  6
CONTINUOUS
 10
327.864685
 20
9.262360
 11
328.201508
 21
10.519510
  0
ARC
  8
0
  6
CONTINUOUS
 10
325.932800
 20
9.780000
 40
2.000000
 50
270.000000
 51
345.000092
  0
ARC
  8
0
  6
CONTINUOUS
 10
331.099304
 20
9.743070
 40
3.000000
 50
91.000450
 51
165.000305
  0
LINE
  8
0
  6
CONTINUOUS
 10
398.467499
 20
26.480000
 11
398.467499
 21
64.279999
  0
LINE
  8
0
  6
CONTINUOUS
 10
381.467499
 20
9.480000
 11
336.538513
 21
9.480000
  0
LINE
  8
0
  6
CONTINUOUS
 10
389.467499
 20
21.083031
 11
391.864502
 21
23.480000
  0
LINE
  8
0
  6
CONTINUOUS
 10
395.467499
 20
23.480000
 11
391.864502
 21
23.480000
  0
LINE
  8
0
  6
CONTINUOUS
 10
384.467499
 20
12.480000
 11
384.467499
 21
13.675250
  0
LINE
  8
0
  6
CONTINUOUS
 10
333.003113
 20
10.944460
 11
331.202209
 21
12.745320
  0
ARC
  8
0
  6
CONTINUOUS
 10
336.538513
 20
14.480000
 40
5.000000
 50
225.000107
 51
270.000000
  0
ARC
  8
0
  6
CONTINUOUS
 10
381.467499
 20
12.479990
 40
3.000000
 50
-90.000000
 51
0.000000
  0
ARC
  8
0
  6
CONTINUOUS
 10
395.467499
 20
26.479990
 40
3.000000
 50
-90.000000
 51
0.000000
  0
LINE
  8
0
  6
CONTINUOUS
 10
55.967499
 20
88.980003
 11
102.467499
 21
88.980003
  0
LINE
  8
0
  6
CONTINUOUS
 10
104.467499
 20
118.980003
 11
104.467499
 21
90.980003
  0
LINE
  8
0
  6
CONTINUOUS
 10
54.467499
 20
118.980003
 11
54.467499
 21
90.980003
  0
LINE
  8
0
  6
CONTINUOUS
 10
52.467499
 20
100.980003
 11
104.467499
 21
100.980003
  0
LINE
  8
0
  6
CONTINUOUS
 10
102.467499
 20
88.980003
 11
104.467499
 21
90.980003
  0
LINE
  8
0
  6
CONTINUOUS
 10
54.467499
 20
90.980003
 11
56.467499
 21
88.980003
  0
LINE
  8
0
  6
CONTINUOUS
 10
54.467499
 20
90.980003
 11
104.467499
 21
90.980003
  0
LINE
  8
0
  6
CONTINUOUS
 10
55.467499
 20
119.980003
 11
103.467499
 21
119.980003
  0
LINE
  8
0
  6
CONTINUOUS
 10
103.467499
 20
119.980003
 11
104.467499
 21
118.980003
  0
LINE
  8
0
  6
CONTINUOUS
 10
55.467499
 20
119.980003
 11
54.467499
 21
118.980003
  0
LINE
  8
0
  6
CONTINUOUS
 10
54.467499
 20
118.980003
 11
104.467499
 21
118.980003
  0
LINE
  8
0
  6
CENTER
 10
46.523750
 20
110.480003
 11
58.598751
 21
110.480003
  0
LINE
  8
0
  6
CONTINUOUS
 10
52.467510
 20
116.980003
 11
52.467499
 21
100.980003
  0
LINE
  8
0
  6
CONTINUOUS
 10
53.467499
 20
117.980003
 11
54.467499
 21
117.980003
  0
ARC
  8
0
  6
CONTINUOUS
 10
53.467510
 20
116.980003
 40
1.000000
 50
90.000000
 51
180.000000
  0
LINE
  8
0
  6
CONTINUOUS
 10
48.967510
 20
114.480003
 11
48.967510
 21
106.480003
  0
LINE
  8
0
  6
CONTINUOUS
 10
48.967510
 20
114.480003
 11
52.467510
 21
115.980003
  0
LINE
  8
0
  6
CONTINUOUS
 10
48.967499
 20
106.480003
 11
52.467499
 21
104.980003
  0
LINE
  8
0
  6
CENTER
 10
79.467499
 20
84.286240
 11
79.467499
 21
125.367500
  0
LINE
  8
0
  6
CONTINUOUS
 10
55.967499
 20
88.980003
 11
55.967499
 21
87.480003
  0
LINE
  8
0
  6
CONTINUOUS
 10
101.967499
 20
88.980003
 11
101.967499
 21
87.480003
  0
LINE
  8
0
  6
CONTINUOUS
 10
383.467499
 20
118.980019
 11
383.467499
 21
103.884720
  0
LINE
  8
0
  6
CONTINUOUS
 10
333.467499
 20
118.980019
 11
333.467499
 21
104.757271
  0
LINE
  8
0
  6
CONTINUOUS
 10
334.467499
 20
119.980019
 11
382.467499
 21
119.980019
  0
LINE
  8
0
  6
CONTINUOUS
 10
382.467499
 20
119.980019
 11
383.467499
 21
118.980019
  0
LINE
  8
0
  6
CONTINUOUS
 10
334.467499
 20
119.980019
 11
333.467499
 21
118.980019
  0
LINE
  8
0
  6
CONTINUOUS
 10
333.467499
 20
118.980019
 11
383.467499
 21
118.980019
  0
TEXT
  8
0
 10
-7.000000
 20
-1.000000
 40
4.000000
 41
1.000000
  1
HFM-15T-10~120-S40WT
 50
0.000000
  0
ENDSEC
  0
EOF
