  0
SECTION
  2
HEADER
  9
$CLAYER
  8
1
  9
$LTSCALE
 40
3.0
  0
ENDSEC
  0
SECTION
  2
TABLES
  0
TABLE
  2
LTYPE
 70
     4
  0
LTYPE
  2
CONTINUOUS
  3
solid line
 70
    64
 72
    65
 73
     0
 40
0.0
  0
LTYPE
  2
DASHED
  3
__ __ __ __ __ __ __ __ __ __ __ __ __ __ __
 70
    64
 72
    65
 73
     2
 40
0.75
 49
0.5
 49
-0.25
  0
LTYPE
  2
CENTER
  3
____ _ ____ _ ____ _ ____ _ ____ _ ____ _ ____
 70
    64
 72
    65
 73
     4
 40
2.0
 49
1.25
 49
-0.25
 49
0.25
 49
-0.25
  0
LTYPE
  2
PHANTOM
  3
_____ _ _ _____ _ _ _____ _ _ _____ _ _ ____
 70
    64
 72
    65
 73
     6
 40
2.5
 49
1.25
 49
-0.25
 49
0.25
 49
-0.25
 49
0.25
 49
-0.25
  0
ENDTAB
  0
TABLE
  2
LAYER
 70
     1
  0
LAYER
  2
0
 70
    64
 62
     7
  6
CONTINUOUS
  0
ENDTAB
  0
TABLE
  2
STYLE
 70
     1
  0
STYLE
  2
STANDARD
 70
     0
 40
0.000000
 41
1.000000
 50
0.000000
 71
     0
 42
3.000000
  3
txt
  4
BIGFONT
  0
ENDTAB
  0
ENDSEC
  0
SECTION
  2
BLOCKS
  0
ENDSEC
  0
SECTION
  2
ENTITIES
  0
LINE
  8
0
  6
CONTINUOUS
 10
50.075001
 20
80.502502
 11
59.575001
 21
80.502502
  0
LINE
  8
0
  6
CONTINUOUS
 10
50.075001
 20
4.502500
 11
59.575001
 21
4.502500
  0
LINE
  8
0
  6
CONTINUOUS
 10
50.075001
 20
2.502500
 11
50.075001
 21
82.502502
  0
LINE
  8
0
  6
CONTINUOUS
 10
60.075001
 20
82.002502
 11
60.075001
 21
80.502502
  0
LINE
  8
0
  6
CONTINUOUS
 10
53.075001
 20
82.002502
 11
53.075001
 21
80.502502
  0
LINE
  8
0
  6
CONTINUOUS
 10
53.075001
 20
82.002502
 11
60.075001
 21
82.002502
  0
LINE
  8
0
  6
CONTINUOUS
 10
57.475010
 20
95.002502
 11
57.475010
 21
82.002502
  0
LINE
  8
0
  6
CONTINUOUS
 10
55.674999
 20
95.627502
 11
55.674999
 21
82.002502
  0
LINE
  8
0
  6
CONTINUOUS
 10
53.875000
 20
93.565002
 11
53.875000
 21
82.002502
  0
LINE
  8
0
  6
CONTINUOUS
 10
59.275002
 20
94.377502
 11
59.275002
 21
82.002502
  0
LINE
  8
0
  6
CONTINUOUS
 10
55.674999
 20
95.627502
 11
57.475010
 21
95.002502
  0
LINE
  8
0
  6
CONTINUOUS
 10
53.875000
 20
93.565002
 11
55.674999
 21
94.190002
  0
LINE
  8
0
  6
CONTINUOUS
 10
59.275002
 20
94.377502
 11
57.476009
 21
93.929787
  0
LINE
  8
0
  6
CONTINUOUS
 10
50.075001
 20
72.751503
 11
59.575001
 21
72.751503
  0
LINE
  8
0
  6
CONTINUOUS
 10
50.075001
 20
12.253500
 11
59.575001
 21
12.253500
  0
LINE
  8
0
  6
CONTINUOUS
 10
6.075000
 20
82.502502
 11
50.075001
 21
82.502502
  0
LINE
  8
0
  6
CONTINUOUS
 10
6.075000
 20
2.502500
 11
50.075001
 21
2.502500
  0
LINE
  8
0
  6
CONTINUOUS
 10
1.075000
 20
7.502500
 11
1.075000
 21
77.502502
  0
ARC
  8
0
  6
CONTINUOUS
 10
6.075020
 20
77.502518
 40
5.000000
 50
90.000000
 51
180.000000
  0
ARC
  8
0
  6
CONTINUOUS
 10
6.075000
 20
7.502500
 40
5.000000
 50
180.000000
 51
270.000000
  0
LINE
  8
0
  6
CONTINUOUS
 10
3.575000
 20
68.502502
 11
50.075001
 21
68.502502
  0
LINE
  8
0
  6
CONTINUOUS
 10
3.575000
 20
18.502501
 11
50.075001
 21
18.502501
  0
LINE
  8
0
  6
CONTINUOUS
 10
59.575001
 20
4.502500
 11
59.575001
 21
80.502502
  0
LINE
  8
0
  6
CENTER
 10
-10.012500
 20
42.502499
 11
149.875000
 21
42.502499
  0
LINE
  8
0
  6
CONTINUOUS
 10
59.575001
 20
80.502502
 11
132.494995
 21
80.502502
  0
LINE
  8
0
  6
CONTINUOUS
 10
130.074997
 20
4.502500
 11
59.575001
 21
4.502500
  0
LINE
  8
0
  6
CONTINUOUS
 10
142.574997
 20
0.802500
 11
206.574997
 21
0.802500
  0
LINE
  8
0
  6
CONTINUOUS
 10
142.574997
 20
102.802498
 11
206.574997
 21
102.802498
  0
LINE
  8
0
  6
CONTINUOUS
 10
132.074997
 20
77.502502
 11
132.074997
 21
26.102501
  0
LINE
  8
0
  6
CENTER
 10
174.574997
 20
115.190002
 11
174.574997
 21
-8.435000
  0
LINE
  8
0
  6
CENTER
 10
206.574997
 20
14.940000
 11
206.574997
 21
3.440000
  0
LINE
  8
0
  6
CENTER
 10
200.731293
 20
8.802500
 11
212.981293
 21
8.802500
  0
CIRCLE
  8
0
  6
CONTINUOUS
 10
206.574997
 20
8.802500
 40
3.250000
  0
LINE
  8
0
  6
CENTER
 10
206.574997
 20
88.665001
 11
206.574997
 21
100.165001
  0
LINE
  8
0
  6
CENTER
 10
200.731293
 20
94.802498
 11
212.981293
 21
94.802498
  0
CIRCLE
  8
0
  6
CONTINUOUS
 10
206.574997
 20
94.802498
 40
3.250000
  0
LINE
  8
0
  6
CENTER
 10
142.574997
 20
88.665001
 11
142.574997
 21
100.165001
  0
LINE
  8
0
  6
CENTER
 10
148.418793
 20
94.802498
 11
136.168793
 21
94.802498
  0
CIRCLE
  8
0
  6
CONTINUOUS
 10
142.574997
 20
94.802498
 40
3.250000
  0
LINE
  8
0
  6
CENTER
 10
142.574997
 20
14.940000
 11
142.574997
 21
3.440000
  0
LINE
  8
0
  6
CENTER
 10
148.418793
 20
8.802500
 11
136.168793
 21
8.802500
  0
CIRCLE
  8
0
  6
CONTINUOUS
 10
142.574997
 20
8.802500
 40
3.250000
  0
LINE
  8
0
  6
CONTINUOUS
 10
214.574997
 20
66.163902
 11
214.574997
 21
37.441360
  0
LINE
  8
0
  6
CONTINUOUS
 10
134.574997
 20
66.163773
 11
134.574997
 21
37.440960
  0
ARC
  8
0
  6
CONTINUOUS
 10
174.574997
 20
51.802498
 40
42.500000
 50
19.749901
 51
160.250107
  0
ARC
  8
0
  6
CONTINUOUS
 10
174.574997
 20
51.802498
 40
42.500000
 50
199.749893
 51
340.250092
  0
LINE
  8
0
  6
CONTINUOUS
 10
217.074997
 20
77.502502
 11
217.074997
 21
26.102510
  0
LINE
  8
0
  6
CONTINUOUS
 10
214.497696
 20
95.911659
 11
217.074997
 21
77.502502
  0
LINE
  8
0
  6
CONTINUOUS
 10
214.497696
 20
7.693380
 11
217.074997
 21
26.102510
  0
LINE
  8
0
  6
CONTINUOUS
 10
134.652298
 20
7.693300
 11
132.074997
 21
26.102501
  0
LINE
  8
0
  6
CONTINUOUS
 10
134.652298
 20
95.911652
 11
132.074997
 21
77.502502
  0
LINE
  8
0
  6
CENTER
 10
143.837494
 20
64.802498
 11
205.793747
 21
64.802498
  0
LINE
  8
0
  6
CONTINUOUS
 10
184.074997
 20
67.302498
 11
184.074997
 21
62.302502
  0
LINE
  8
0
  6
CONTINUOUS
 10
179.074997
 20
62.302502
 11
179.074997
 21
67.302498
  0
LINE
  8
0
  6
CONTINUOUS
 10
179.074997
 20
67.302498
 11
184.074997
 21
67.302498
  0
LINE
  8
0
  6
CONTINUOUS
 10
179.074997
 20
62.302502
 11
184.074997
 21
62.302502
  0
ARC
  8
0
  6
CONTINUOUS
 10
174.574997
 20
64.802498
 40
7.500000
 50
19.471201
 51
340.528809
  0
LINE
  8
0
  6
CONTINUOUS
 10
154.574997
 20
98.802498
 11
194.574997
 21
98.802498
  0
LINE
  8
0
  6
CONTINUOUS
 10
154.574997
 20
4.802500
 11
194.574997
 21
4.802500
  0
LINE
  8
0
  6
CONTINUOUS
 10
212.200104
 20
83.473000
 11
214.599304
 21
66.335930
  0
LINE
  8
0
  6
CONTINUOUS
 10
214.577393
 20
37.112236
 11
212.200104
 21
20.132000
  0
LINE
  8
0
  6
CONTINUOUS
 10
134.625504
 20
36.734577
 11
136.949905
 21
20.132010
  0
LINE
  8
0
  6
CONTINUOUS
 10
136.949905
 20
83.472992
 11
134.491699
 21
65.914177
  0
ARC
  8
0
  6
CONTINUOUS
 10
194.574997
 20
94.802498
 40
4.000000
 50
0.000000
 51
90.000000
  0
ARC
  8
0
  6
CONTINUOUS
 10
154.574997
 20
94.802498
 40
4.000000
 50
90.000000
 51
180.000000
  0
ARC
  8
0
  6
CONTINUOUS
 10
194.574997
 20
8.802500
 40
4.000000
 50
-90.000000
 51
0.000000
  0
ARC
  8
0
  6
CONTINUOUS
 10
154.574997
 20
8.802500
 40
4.000000
 50
-180.000000
 51
-90.000000
  0
ARC
  8
0
  6
CONTINUOUS
 10
208.238800
 20
82.918404
 40
4.000000
 50
7.969701
 51
97.969757
  0
ARC
  8
0
  6
CONTINUOUS
 10
206.574997
 20
94.802498
 40
8.000000
 50
180.000000
 51
277.969513
  0
ARC
  8
0
  6
CONTINUOUS
 10
206.574997
 20
94.802498
 40
8.000000
 50
7.969647
 51
90.000000
  0
ARC
  8
0
  6
CONTINUOUS
 10
140.911194
 20
82.918404
 40
4.000000
 50
82.030243
 51
172.030304
  0
ARC
  8
0
  6
CONTINUOUS
 10
208.238800
 20
20.686600
 40
4.000000
 50
-97.969757
 51
-7.969701
  0
ARC
  8
0
  6
CONTINUOUS
 10
140.911194
 20
20.686600
 40
4.000000
 50
-172.030304
 51
-82.030243
  0
ARC
  8
0
  6
CONTINUOUS
 10
142.574997
 20
94.802498
 40
8.000000
 50
90.000000
 51
172.030502
  0
ARC
  8
0
  6
CONTINUOUS
 10
142.574997
 20
94.802498
 40
8.000000
 50
-97.969597
 51
0.000000
  0
ARC
  8
0
  6
CONTINUOUS
 10
142.574997
 20
8.802500
 40
8.000000
 50
0.000000
 51
97.969818
  0
ARC
  8
0
  6
CONTINUOUS
 10
142.574997
 20
8.802500
 40
8.000000
 50
187.969604
 51
270.000000
  0
ARC
  8
0
  6
CONTINUOUS
 10
206.574997
 20
8.802500
 40
8.000000
 50
270.000000
 51
352.030304
  0
ARC
  8
0
  6
CONTINUOUS
 10
206.574997
 20
8.802500
 40
8.000000
 50
82.030350
 51
180.000000
  0
LINE
  8
0
  6
CONTINUOUS
 10
132.074997
 20
6.502500
 11
132.074997
 21
12.502510
  0
ARC
  8
0
  6
CONTINUOUS
 10
130.074997
 20
6.502500
 40
2.000000
 50
-90.000000
 51
0.000000
  0
ARC
  8
0
  6
CONTINUOUS
 10
137.074997
 20
12.502520
 40
5.000000
 50
135.792801
 51
180.000000
  0
LINE
  8
0
  6
CONTINUOUS
 10
59.575001
 20
72.751472
 11
131.324997
 21
72.751472
  0
LINE
  8
0
  6
CONTINUOUS
 10
59.575001
 20
12.253540
 11
131.574997
 21
12.253540
  0
CIRCLE
  8
0
  6
CONTINUOUS
 10
174.574997
 20
64.802498
 40
20.000000
  0
LINE
  8
0
  6
CONTINUOUS
 10
168.199997
 20
32.355728
 11
168.199997
 21
26.802500
  0
LINE
  8
0
  6
CONTINUOUS
 10
171.387497
 20
34.372814
 11
171.387497
 21
36.365002
  0
LINE
  8
0
  6
CONTINUOUS
 10
177.762497
 20
34.372814
 11
177.762497
 21
36.365002
  0
LINE
  8
0
  6
CONTINUOUS
 10
173.952393
 20
35.194592
 11
173.952393
 21
27.848400
  0
LINE
  8
0
  6
CONTINUOUS
 10
175.147797
 20
35.194592
 11
175.147797
 21
27.848400
  0
LINE
  8
0
  6
CONTINUOUS
 10
181.423096
 20
35.194592
 11
181.423096
 21
27.798599
  0
LINE
  8
0
  6
CONTINUOUS
 10
182.518799
 20
31.272470
 11
182.518799
 21
27.798599
  0
LINE
  8
0
  6
CONTINUOUS
 10
166.687500
 20
35.094982
 11
163.615601
 21
35.094982
  0
LINE
  8
0
  6
CONTINUOUS
 10
163.615601
 20
35.094982
 11
162.895798
 21
34.202473
  0
LINE
  8
0
  6
CONTINUOUS
 10
162.982407
 20
36.365002
 11
161.824997
 21
34.882999
  0
LINE
  8
0
  6
CONTINUOUS
 10
162.895798
 20
28.693420
 11
163.627106
 21
27.923109
  0
LINE
  8
0
  6
CONTINUOUS
 10
161.824997
 20
28.043360
 11
163.054794
 21
26.802500
  0
LINE
  8
0
  6
CONTINUOUS
 10
161.824997
 20
34.882999
 11
161.824997
 21
28.043360
  0
LINE
  8
0
  6
CONTINUOUS
 10
162.895798
 20
34.202473
 11
162.895798
 21
28.693420
  0
LINE
  8
0
  6
CONTINUOUS
 10
167.278595
 20
34.523533
 11
166.675400
 21
35.094982
  0
LINE
  8
0
  6
CONTINUOUS
 10
167.268997
 20
36.365002
 11
168.199997
 21
35.331860
  0
LINE
  8
0
  6
CONTINUOUS
 10
167.278595
 20
34.372814
 11
168.199997
 21
34.372814
  0
LINE
  8
0
  6
CONTINUOUS
 10
162.982407
 20
36.365002
 11
167.268997
 21
36.365002
  0
LINE
  8
0
  6
CONTINUOUS
 10
167.278595
 20
31.309830
 11
165.610199
 21
31.309830
  0
LINE
  8
0
  6
CONTINUOUS
 10
167.278595
 20
30.313730
 11
167.278595
 21
31.110609
  0
LINE
  8
0
  6
CONTINUOUS
 10
165.286407
 20
27.923109
 11
163.627106
 21
27.923109
  0
ARC
  8
0
  6
CONTINUOUS
 10
165.286407
 20
29.915291
 40
1.992187
 50
-89.999786
 51
0.000109
  0
LINE
  8
0
  6
CONTINUOUS
 10
167.278595
 20
27.564760
 11
167.278595
 21
26.802500
  0
LINE
  8
0
  6
CONTINUOUS
 10
168.199997
 20
35.331860
 11
168.199997
 21
34.372814
  0
LINE
  8
0
  6
CONTINUOUS
 10
167.278595
 20
31.309830
 11
167.278595
 21
29.915291
  0
LINE
  8
0
  6
CONTINUOUS
 10
165.610199
 20
32.355728
 11
165.610199
 21
31.309830
  0
LINE
  8
0
  6
CONTINUOUS
 10
167.278595
 20
26.802500
 11
168.199997
 21
26.802500
  0
LINE
  8
0
  6
CONTINUOUS
 10
167.278595
 20
27.564760
 11
166.370102
 21
26.802500
  0
LINE
  8
0
  6
CONTINUOUS
 10
175.147797
 20
27.848400
 11
175.546204
 21
27.848400
  0
LINE
  8
0
  6
CONTINUOUS
 10
173.479294
 20
27.848400
 11
173.479294
 21
26.802500
  0
LINE
  8
0
  6
CONTINUOUS
 10
175.546204
 20
27.848400
 11
175.546204
 21
26.802500
  0
LINE
  8
0
  6
CONTINUOUS
 10
177.097504
 20
34.372814
 11
177.762497
 21
34.372814
  0
LINE
  8
0
  6
CONTINUOUS
 10
171.387497
 20
34.372814
 11
172.095093
 21
34.372814
  0
LINE
  8
0
  6
CONTINUOUS
 10
171.387497
 20
36.365002
 11
177.762497
 21
36.365002
  0
LINE
  8
0
  6
CONTINUOUS
 10
173.479294
 20
26.802500
 11
175.546204
 21
26.802500
  0
LINE
  8
0
  6
CONTINUOUS
 10
173.479294
 20
27.848400
 11
173.952393
 21
27.848400
  0
ARC
  8
0
  6
CONTINUOUS
 10
184.772507
 20
33.812511
 40
2.552490
 50
-73.981873
 51
90.003510
  0
ARC
  8
0
  6
CONTINUOUS
 10
184.772507
 20
33.812511
 40
1.557193
 50
-82.585274
 51
62.411850
  0
LINE
  8
0
  6
CONTINUOUS
 10
180.949997
 20
36.365002
 11
184.772507
 21
36.365002
  0
LINE
  8
0
  6
CONTINUOUS
 10
180.949997
 20
36.365002
 11
180.949997
 21
35.194592
  0
LINE
  8
0
  6
CONTINUOUS
 10
182.518799
 20
35.194592
 11
182.518799
 21
32.268341
  0
LINE
  8
0
  6
CONTINUOUS
 10
185.476807
 20
31.359119
 11
187.056702
 21
27.798599
  0
LINE
  8
0
  6
CONTINUOUS
 10
184.559296
 20
31.272470
 11
186.054306
 21
27.798599
  0
LINE
  8
0
  6
CONTINUOUS
 10
180.949997
 20
27.798599
 11
181.423096
 21
27.798599
  0
LINE
  8
0
  6
CONTINUOUS
 10
182.518799
 20
27.798599
 11
182.954605
 21
27.798599
  0
LINE
  8
0
  6
CONTINUOUS
 10
182.954605
 20
26.802500
 11
180.949997
 21
26.802500
  0
LINE
  8
0
  6
CONTINUOUS
 10
185.855804
 20
27.798599
 11
186.054306
 21
27.798599
  0
LINE
  8
0
  6
CONTINUOUS
 10
187.056702
 20
27.798599
 11
187.324997
 21
27.798599
  0
LINE
  8
0
  6
CONTINUOUS
 10
185.855804
 20
26.802500
 11
187.324997
 21
26.802500
  0
LINE
  8
0
  6
CONTINUOUS
 10
187.324997
 20
27.798599
 11
187.324997
 21
26.802500
  0
LINE
  8
0
  6
CONTINUOUS
 10
185.855804
 20
27.798599
 11
185.855804
 21
26.802500
  0
LINE
  8
0
  6
CONTINUOUS
 10
182.954605
 20
27.798599
 11
182.954605
 21
26.802500
  0
LINE
  8
0
  6
CONTINUOUS
 10
180.949997
 20
27.798599
 11
180.949997
 21
26.802500
  0
LINE
  8
0
  6
CONTINUOUS
 10
172.437500
 20
35.194592
 11
172.095093
 21
34.372814
  0
LINE
  8
0
  6
CONTINUOUS
 10
176.808807
 20
35.194592
 11
177.097504
 21
34.372814
  0
LINE
  8
0
  6
CONTINUOUS
 10
175.147797
 20
35.194592
 11
176.808807
 21
35.194592
  0
LINE
  8
0
  6
CONTINUOUS
 10
173.952393
 20
35.194592
 11
172.437500
 21
35.194592
  0
LINE
  8
0
  6
CONTINUOUS
 10
180.949997
 20
35.194592
 11
181.423096
 21
35.194592
  0
LINE
  8
0
  6
CONTINUOUS
 10
182.518799
 20
35.194592
 11
185.493698
 21
35.192646
  0
LINE
  8
0
  6
CONTINUOUS
 10
167.278595
 20
34.523533
 11
167.278595
 21
34.372814
  0
LINE
  8
0
  6
CONTINUOUS
 10
163.054794
 20
26.802500
 11
166.370102
 21
26.802500
  0
LINE
  8
0
  6
CONTINUOUS
 10
182.518799
 20
32.268341
 11
184.973495
 21
32.268341
  0
LINE
  8
0
  6
CONTINUOUS
 10
182.518799
 20
31.272470
 11
184.559296
 21
31.272470
  0
LINE
  8
0
  6
CONTINUOUS
 10
165.610199
 20
32.355728
 11
168.199997
 21
32.355728
  0
LINE
  8
0
  6
CENTER
 10
349.575012
 20
-7.185000
 11
349.575012
 21
107.315002
  0
LINE
  8
0
  6
CONTINUOUS
 10
380.575012
 20
8.750430
 11
380.575012
 21
94.837097
  0
LINE
  8
0
  6
CONTINUOUS
 10
384.575012
 20
45.802498
 11
384.575012
 21
83.802498
  0
LINE
  8
0
  6
CENTER
 10
276.840607
 20
64.802498
 11
422.340607
 21
64.802498
  0
LINE
  8
0
  6
CONTINUOUS
 10
383.575012
 20
84.802498
 11
382.575012
 21
84.802498
  0
LINE
  8
0
  6
CONTINUOUS
 10
383.575012
 20
44.802498
 11
382.575012
 21
44.802498
  0
LINE
  8
0
  6
CONTINUOUS
 10
378.609894
 20
96.836800
 11
320.540100
 21
97.850182
  0
LINE
  8
0
  6
CONTINUOUS
 10
378.609894
 20
6.750730
 11
320.540100
 21
5.736920
  0
ARC
  8
0
  6
CONTINUOUS
 10
378.575012
 20
94.837090
 40
2.000000
 50
0.000000
 51
89.000359
  0
ARC
  8
0
  6
CONTINUOUS
 10
378.575012
 20
8.750420
 40
2.000000
 50
-88.999634
 51
0.000000
  0
ARC
  8
0
  6
CONTINUOUS
 10
383.575012
 20
83.802498
 40
1.000000
 50
0.000000
 51
90.000000
  0
ARC
  8
0
  6
CONTINUOUS
 10
383.575012
 20
45.802498
 40
1.000000
 50
-90.000000
 51
0.000000
  0
LINE
  8
0
  6
CONTINUOUS
 10
318.575012
 20
23.102520
 11
318.575012
 21
2.302500
  0
LINE
  8
0
  6
CONTINUOUS
 10
309.575012
 20
102.802498
 11
317.424011
 21
102.802498
  0
LINE
  8
0
  6
CONTINUOUS
 10
317.040405
 20
0.802500
 11
309.575012
 21
0.802500
  0
LINE
  8
0
  6
CONTINUOUS
 10
322.075989
 20
77.502502
 11
378.606293
 21
77.502502
  0
LINE
  8
0
  6
CONTINUOUS
 10
321.575012
 20
26.102501
 11
379.137512
 21
26.102501
  0
ARC
  8
0
  6
CONTINUOUS
 10
317.075012
 20
2.302500
 40
1.500000
 50
-90.000000
 51
0.000000
  0
LINE
  8
0
  6
CONTINUOUS
 10
318.872894
 20
101.690720
 11
319.312714
 21
100.049362
  0
ARC
  8
0
  6
CONTINUOUS
 10
322.208099
 20
100.821541
 40
3.000000
 50
194.932602
 51
269.000610
  0
ARC
  8
0
  6
CONTINUOUS
 10
317.424011
 20
101.302498
 40
1.500000
 50
15.000070
 51
90.000000
  0
ARC
  8
0
  6
CONTINUOUS
 10
321.575012
 20
23.102520
 40
3.000000
 50
90.000000
 51
180.000000
  0
ARC
  8
0
  6
CONTINUOUS
 10
382.575012
 20
86.802498
 40
2.000000
 50
180.000000
 51
270.000000
  0
ARC
  8
0
  6
CONTINUOUS
 10
382.575012
 20
42.802509
 40
2.000000
 50
90.000000
 51
180.000000
  0
LINE
  8
0
  6
CONTINUOUS
 10
386.575012
 20
72.302498
 11
413.575012
 21
72.302498
  0
LINE
  8
0
  6
CONTINUOUS
 10
386.575012
 20
57.302502
 11
413.575012
 21
57.302502
  0
LINE
  8
0
  6
CONTINUOUS
 10
413.575012
 20
57.302502
 11
413.575012
 21
72.302498
  0
LINE
  8
0
  6
CONTINUOUS
 10
392.075012
 20
62.302502
 11
413.575012
 21
62.302502
  0
LINE
  8
0
  6
CONTINUOUS
 10
392.075012
 20
67.302498
 11
413.575012
 21
67.302498
  0
ARC
  8
0
  6
CONTINUOUS
 10
392.075012
 20
64.802513
 40
2.500000
 50
90.000000
 51
180.000000
  0
ARC
  8
0
  6
CONTINUOUS
 10
392.075012
 20
64.802498
 40
2.500000
 50
180.000000
 51
270.000000
  0
LINE
  8
0
  6
CENTER
 10
305.856293
 20
94.802498
 11
322.106293
 21
94.802498
  0
LINE
  8
0
  6
CENTER
 10
306.856293
 20
8.802500
 11
321.856293
 21
8.802500
  0
LINE
  8
0
  6
DASHED
 10
309.575012
 20
12.052500
 11
318.575012
 21
12.052500
  0
LINE
  8
0
  6
DASHED
 10
309.575012
 20
5.552500
 11
318.575012
 21
5.552500
  0
LINE
  8
0
  6
DASHED
 10
309.575012
 20
98.052498
 11
318.575012
 21
98.052498
  0
LINE
  8
0
  6
DASHED
 10
309.575012
 20
91.552498
 11
318.575012
 21
91.552498
  0
LINE
  8
0
  6
CONTINUOUS
 10
328.575012
 20
4.502500
 11
370.575012
 21
4.502500
  0
ARC
  8
0
  6
CONTINUOUS
 10
370.575012
 20
6.502500
 40
2.000000
 50
-90.000000
 51
0.000000
  0
ARC
  8
0
  6
CONTINUOUS
 10
328.575012
 20
6.502500
 40
2.000000
 50
199.216995
 51
270.000000
  0
LINE
  8
0
  6
CONTINUOUS
 10
372.575012
 20
6.502500
 11
372.575012
 21
6.645280
  0
ARC
  8
0
  6
CONTINUOUS
 10
349.575012
 20
42.502499
 40
38.000000
 50
-35.334469
 51
21.294241
  0
LINE
  8
0
  6
CONTINUOUS
 10
314.575012
 20
45.802498
 11
314.575012
 21
83.802498
  0
LINE
  8
0
  6
CONTINUOUS
 10
315.575012
 20
44.802498
 11
318.575012
 21
44.802498
  0
ARC
  8
0
  6
CONTINUOUS
 10
315.575012
 20
83.802498
 40
1.000000
 50
90.000000
 51
180.000000
  0
ARC
  8
0
  6
CONTINUOUS
 10
315.575012
 20
45.802498
 40
1.000000
 50
180.000000
 51
270.000000
  0
LINE
  8
0
  6
CONTINUOUS
 10
312.575012
 20
72.302498
 11
285.575012
 21
72.302498
  0
LINE
  8
0
  6
CONTINUOUS
 10
312.575012
 20
57.302502
 11
285.575012
 21
57.302502
  0
LINE
  8
0
  6
CONTINUOUS
 10
285.575012
 20
57.302502
 11
285.575012
 21
72.302498
  0
LINE
  8
0
  6
CONTINUOUS
 10
312.575012
 20
73.302498
 11
312.575012
 21
56.302502
  0
LINE
  8
0
  6
CONTINUOUS
 10
307.075012
 20
62.302502
 11
285.575012
 21
62.302502
  0
LINE
  8
0
  6
CONTINUOUS
 10
307.075012
 20
67.302498
 11
285.575012
 21
67.302498
  0
ARC
  8
0
  6
CONTINUOUS
 10
307.075012
 20
64.802513
 40
2.500000
 50
0.000000
 51
90.000000
  0
ARC
  8
0
  6
CONTINUOUS
 10
307.075012
 20
64.802498
 40
2.500000
 50
-90.000000
 51
0.000000
  0
LINE
  8
0
  6
CONTINUOUS
 10
309.575012
 20
0.802500
 11
309.575012
 21
57.302502
  0
LINE
  8
0
  6
CONTINUOUS
 10
309.575012
 20
102.802498
 11
309.575012
 21
72.302498
  0
LINE
  8
0
  6
CONTINUOUS
 10
315.575012
 20
84.802498
 11
318.575012
 21
84.802498
  0
LINE
  8
0
  6
CONTINUOUS
 10
309.575012
 20
88.012154
 11
315.465607
 21
86.799377
  0
LINE
  8
0
  6
CONTINUOUS
 10
315.465607
 20
86.799377
 11
320.715607
 21
83.549377
  0
LINE
  8
0
  6
CONTINUOUS
 10
320.715607
 20
83.549377
 11
321.215607
 21
78.424377
  0
LINE
  8
0
  6
CONTINUOUS
 10
321.215607
 20
78.424377
 11
322.965607
 21
76.549377
  0
LINE
  8
0
  6
CONTINUOUS
 10
322.965607
 20
76.549377
 11
323.340607
 21
72.924377
  0
LINE
  8
0
  6
CONTINUOUS
 10
323.340607
 20
72.924377
 11
323.715607
 21
67.299377
  0
LINE
  8
0
  6
CONTINUOUS
 10
323.715607
 20
67.299377
 11
324.465607
 21
62.049381
  0
LINE
  8
0
  6
CONTINUOUS
 10
324.465607
 20
62.049381
 11
322.465607
 21
55.674381
  0
LINE
  8
0
  6
CONTINUOUS
 10
322.465607
 20
55.674381
 11
323.090607
 21
49.174374
  0
LINE
  8
0
  6
CONTINUOUS
 10
323.090607
 20
49.174374
 11
321.590607
 21
43.424374
  0
LINE
  8
0
  6
CONTINUOUS
 10
321.590607
 20
43.424374
 11
317.465607
 21
40.299374
  0
LINE
  8
0
  6
CONTINUOUS
 10
317.465607
 20
40.299374
 11
312.590607
 21
39.674374
  0
LINE
  8
0
  6
CONTINUOUS
 10
312.590607
 20
39.674374
 11
309.575012
 21
38.445786
  0
LINE
  8
0
  6
CONTINUOUS
 10
386.575012
 20
73.302498
 11
386.575012
 21
56.302502
  0
LINE
  8
0
  6
CENTER
 10
303.189301
 20
42.502499
 11
397.510010
 21
42.502499
  0
LINE
  8
0
  6
CONTINUOUS
 10
318.575012
 20
102.264381
 11
318.575012
 21
41.139820
  0
LINE
  8
0
  6
CONTINUOUS
 10
384.575012
 20
73.302498
 11
386.575012
 21
73.302498
  0
LINE
  8
0
  6
CONTINUOUS
 10
384.575012
 20
56.302502
 11
386.575012
 21
56.302502
  0
LINE
  8
0
  6
CONTINUOUS
 10
312.575012
 20
73.302498
 11
314.575012
 21
73.302498
  0
LINE
  8
0
  6
CONTINUOUS
 10
312.575012
 20
56.302502
 11
314.575012
 21
56.302502
  0
ARC
  8
0
  6
CONTINUOUS
 10
320.575012
 20
99.849892
 40
2.000000
 50
180.000000
 51
269.000610
  0
ARC
  8
0
  6
CONTINUOUS
 10
320.575012
 20
3.737230
 40
2.000000
 50
91.000633
 51
180.000000
  0
LINE
  8
0
  6
CONTINUOUS
 10
318.972198
 20
2.284860
 11
319.308990
 21
3.542010
  0
ARC
  8
0
  6
CONTINUOUS
 10
317.040314
 20
2.802500
 40
2.000000
 50
270.000000
 51
345.000092
  0
ARC
  8
0
  6
CONTINUOUS
 10
322.206787
 20
2.765570
 40
3.000000
 50
91.000450
 51
165.000305
  0
LINE
  8
0
  6
CONTINUOUS
 10
389.575012
 20
19.502501
 11
389.575012
 21
57.302502
  0
LINE
  8
0
  6
CONTINUOUS
 10
372.575012
 20
2.502500
 11
327.645996
 21
2.502500
  0
LINE
  8
0
  6
CONTINUOUS
 10
380.575012
 20
14.105530
 11
382.971985
 21
16.502501
  0
LINE
  8
0
  6
CONTINUOUS
 10
386.575012
 20
16.502501
 11
382.971985
 21
16.502501
  0
LINE
  8
0
  6
CONTINUOUS
 10
375.575012
 20
5.502500
 11
375.575012
 21
6.697750
  0
LINE
  8
0
  6
CONTINUOUS
 10
324.110596
 20
3.966960
 11
322.309692
 21
5.767820
  0
ARC
  8
0
  6
CONTINUOUS
 10
327.645996
 20
7.502500
 40
5.000000
 50
225.000107
 51
270.000000
  0
ARC
  8
0
  6
CONTINUOUS
 10
372.575012
 20
5.502490
 40
3.000000
 50
-90.000000
 51
0.000000
  0
ARC
  8
0
  6
CONTINUOUS
 10
386.575012
 20
19.502489
 40
3.000000
 50
-90.000000
 51
0.000000
  0
LINE
  8
0
  6
CENTER
 10
174.574997
 20
300.222504
 11
174.574997
 21
163.722504
  0
LINE
  8
0
  6
CENTER
 10
-8.775625
 20
231.722504
 11
223.074997
 21
231.722504
  0
LINE
  8
0
  6
CONTINUOUS
 10
213.267487
 20
262.722504
 11
134.023315
 21
262.722504
  0
LINE
  8
0
  6
CONTINUOUS
 10
50.075001
 20
269.722504
 11
59.575001
 21
269.722504
  0
LINE
  8
0
  6
CONTINUOUS
 10
50.075001
 20
193.722504
 11
59.575001
 21
193.722504
  0
LINE
  8
0
  6
CONTINUOUS
 10
50.075001
 20
254.722504
 11
59.575001
 21
254.722504
  0
LINE
  8
0
  6
CONTINUOUS
 10
59.575001
 20
193.722504
 11
59.575001
 21
224.856476
  0
LINE
  8
0
  6
CONTINUOUS
 10
50.075001
 20
208.722504
 11
59.575001
 21
208.722504
  0
LINE
  8
0
  6
CONTINUOUS
 10
129.943390
 20
269.722504
 11
59.575001
 21
269.722504
  0
LINE
  8
0
  6
CONTINUOUS
 10
59.575001
 20
254.722504
 11
135.494675
 21
254.722504
  0
LINE
  8
0
  6
CONTINUOUS
 10
132.865860
 20
200.722504
 11
215.865173
 21
200.722504
  0
LINE
  8
0
  6
CONTINUOUS
 10
130.561386
 20
193.722504
 11
59.575001
 21
193.722504
  0
LINE
  8
0
  6
CONTINUOUS
 10
59.575001
 20
208.722504
 11
131.629837
 21
208.722504
  0
LINE
  8
0
  6
CONTINUOUS
 10
167.074997
 20
167.722504
 11
167.074997
 21
191.722504
  0
LINE
  8
0
  6
CONTINUOUS
 10
167.074997
 20
167.722504
 11
184.074997
 21
167.722504
  0
LINE
  8
0
  6
CONTINUOUS
 10
154.574997
 20
265.722504
 11
154.574997
 21
262.722504
  0
LINE
  8
0
  6
CONTINUOUS
 10
194.574997
 20
265.722504
 11
194.574997
 21
262.722504
  0
LINE
  8
0
  6
CONTINUOUS
 10
193.574997
 20
266.722504
 11
155.574997
 21
266.722504
  0
ARC
  8
0
  6
CONTINUOUS
 10
155.574997
 20
265.722504
 40
1.000000
 50
90.000000
 51
180.000000
  0
ARC
  8
0
  6
CONTINUOUS
 10
193.574997
 20
265.722504
 40
1.000000
 50
0.000000
 51
90.000000
  0
LINE
  8
0
  6
CONTINUOUS
 10
184.074997
 20
191.722504
 11
184.074997
 21
167.722504
  0
LINE
  8
0
  6
CONTINUOUS
 10
181.645996
 20
191.722504
 11
181.645996
 21
167.722504
  0
LINE
  8
0
  6
CONTINUOUS
 10
167.074997
 20
295.722504
 11
167.074997
 21
268.722504
  0
LINE
  8
0
  6
CONTINUOUS
 10
167.074997
 20
295.722504
 11
184.074997
 21
295.722504
  0
LINE
  8
0
  6
CONTINUOUS
 10
166.074997
 20
268.722504
 11
183.074997
 21
268.722504
  0
LINE
  8
0
  6
CONTINUOUS
 10
166.074997
 20
268.722504
 11
166.074997
 21
266.722504
  0
LINE
  8
0
  6
CONTINUOUS
 10
183.074997
 20
268.722504
 11
183.074997
 21
266.722504
  0
LINE
  8
0
  6
CONTINUOUS
 10
184.074997
 20
271.722504
 11
184.074997
 21
295.722504
  0
LINE
  8
0
  6
CONTINUOUS
 10
181.645996
 20
271.722504
 11
181.645996
 21
295.722504
  0
LINE
  8
0
  6
CONTINUOUS
 10
181.645996
 20
271.722504
 11
184.074997
 21
271.722504
  0
LINE
  8
0
  6
CONTINUOUS
 10
182.074997
 20
271.722504
 11
182.074997
 21
268.722504
  0
LINE
  8
0
  6
CONTINUOUS
 10
189.574997
 20
201.722504
 11
189.574997
 21
260.757416
  0
LINE
  8
0
  6
CONTINUOUS
 10
159.574997
 20
201.722504
 11
159.574997
 21
260.757416
  0
LINE
  8
0
  6
CONTINUOUS
 10
131.865585
 20
254.725235
 11
132.024002
 21
260.774841
  0
LINE
  8
0
  6
CONTINUOUS
 10
136.349609
 20
201.903748
 11
136.349609
 21
252.722778
  0
LINE
  8
0
  6
CONTINUOUS
 10
53.075001
 20
225.722504
 11
53.075001
 21
237.722504
  0
LINE
  8
0
  6
CONTINUOUS
 10
60.075001
 20
225.722504
 11
60.075001
 21
237.722504
  0
LINE
  8
0
  6
CONTINUOUS
 10
54.075001
 20
238.722504
 11
59.075001
 21
238.722504
  0
LINE
  8
0
  6
CONTINUOUS
 10
59.075001
 20
224.722504
 11
54.075001
 21
224.722504
  0
ARC
  8
0
  6
CONTINUOUS
 10
59.075001
 20
237.722504
 40
1.000000
 50
0.000000
 51
90.000000
  0
ARC
  8
0
  6
CONTINUOUS
 10
54.075001
 20
237.722504
 40
1.000000
 50
90.000000
 51
180.000000
  0
ARC
  8
0
  6
CONTINUOUS
 10
54.075001
 20
225.722504
 40
1.000000
 50
180.000000
 51
270.000000
  0
ARC
  8
0
  6
CONTINUOUS
 10
59.075001
 20
225.722504
 40
1.000000
 50
-90.000000
 51
0.000000
  0
LINE
  8
0
  6
CONTINUOUS
 10
57.575001
 20
228.222504
 11
57.575001
 21
235.222504
  0
LINE
  8
0
  6
CONTINUOUS
 10
55.575001
 20
228.222504
 11
55.575001
 21
235.222504
  0
ARC
  8
0
  6
CONTINUOUS
 10
56.575001
 20
235.222504
 40
1.000000
 50
90.000000
 51
180.000000
  0
ARC
  8
0
  6
CONTINUOUS
 10
56.575001
 20
235.222504
 40
1.000000
 50
0.000000
 51
90.000000
  0
ARC
  8
0
  6
CONTINUOUS
 10
56.575001
 20
228.222504
 40
1.000000
 50
180.000000
 51
270.000000
  0
ARC
  8
0
  6
CONTINUOUS
 10
56.575001
 20
228.222504
 40
1.000000
 50
-90.000000
 51
0.000000
  0
LINE
  8
0
  6
CONTINUOUS
 10
59.575001
 20
238.588531
 11
59.575001
 21
269.722504
  0
LINE
  8
0
  6
CONTINUOUS
 10
132.074997
 20
191.722504
 11
217.074997
 21
191.722504
  0
LINE
  8
0
  6
CONTINUOUS
 10
215.266800
 20
260.774841
 11
217.074997
 21
191.722504
  0
ARC
  8
0
  6
CONTINUOUS
 10
213.267487
 20
260.722504
 40
2.000000
 50
1.500000
 51
90.000000
  0
LINE
  8
0
  6
CONTINUOUS
 10
131.027557
 20
231.722504
 11
132.074997
 21
191.722504
  0
LINE
  8
0
  6
CONTINUOUS
 10
214.497696
 20
191.722504
 11
214.497696
 21
199.412186
  0
LINE
  8
0
  6
CONTINUOUS
 10
134.652298
 20
191.722504
 11
134.652298
 21
199.412186
  0
ARC
  8
0
  6
CONTINUOUS
 10
158.574997
 20
201.722504
 40
1.000000
 50
-90.000000
 51
0.000000
  0
ARC
  8
0
  6
CONTINUOUS
 10
190.574997
 20
201.722504
 40
1.000000
 50
180.000000
 51
270.000000
  0
LINE
  8
0
  6
CONTINUOUS
 10
159.574997
 20
202.042496
 11
189.574997
 21
202.042496
  0
ARC
  8
0
  6
CONTINUOUS
 10
215.865173
 20
199.722504
 40
1.000000
 50
1.499998
 51
90.000000
  0
LINE
  8
0
  6
CONTINUOUS
 10
131.942703
 20
267.774841
 11
132.024002
 21
264.670135
  0
ARC
  8
0
  6
CONTINUOUS
 10
132.865860
 20
199.722504
 40
1.000000
 50
90.000000
 51
181.500000
  0
ARC
  8
0
  6
CONTINUOUS
 10
130.561386
 20
192.222504
 40
1.500000
 50
1.499999
 51
90.000000
  0
ARC
  8
0
  6
CONTINUOUS
 10
129.943390
 20
267.722504
 40
2.000000
 50
1.500000
 51
90.000000
  0
ARC
  8
0
  6
CONTINUOUS
 10
134.023315
 20
264.722504
 40
2.000000
 50
181.500000
 51
270.000000
  0
ARC
  8
0
  6
CONTINUOUS
 10
134.023315
 20
260.722504
 40
2.000000
 50
90.000000
 51
178.500000
  0
LINE
  8
0
  6
CENTER
 10
206.574997
 20
187.832336
 11
206.574997
 21
204.973129
  0
LINE
  8
0
  6
DASHED
 10
209.824997
 20
200.722504
 11
209.824997
 21
191.722504
  0
LINE
  8
0
  6
DASHED
 10
203.324997
 20
200.722504
 11
203.324997
 21
191.722504
  0
LINE
  8
0
  6
CENTER
 10
142.574997
 20
187.832336
 11
142.574997
 21
204.973129
  0
LINE
  8
0
  6
DASHED
 10
139.324997
 20
200.722504
 11
139.324997
 21
191.722504
  0
LINE
  8
0
  6
DASHED
 10
145.824997
 20
200.722504
 11
145.824997
 21
191.722504
  0
LINE
  8
0
  6
CONTINUOUS
 10
50.075001
 20
191.722504
 11
50.075001
 21
271.722504
  0
LINE
  8
0
  6
CONTINUOUS
 10
6.075000
 20
271.722504
 11
50.075001
 21
271.722504
  0
LINE
  8
0
  6
CONTINUOUS
 10
6.075000
 20
191.722504
 11
50.075001
 21
191.722504
  0
LINE
  8
0
  6
CONTINUOUS
 10
1.075000
 20
196.722504
 11
1.075000
 21
266.722504
  0
ARC
  8
0
  6
CONTINUOUS
 10
6.075020
 20
266.722534
 40
5.000000
 50
90.000000
 51
180.000000
  0
ARC
  8
0
  6
CONTINUOUS
 10
6.075000
 20
196.722504
 40
5.000000
 50
180.000000
 51
270.000000
  0
LINE
  8
0
  6
CONTINUOUS
 10
3.575000
 20
205.722504
 11
50.075001
 21
205.722504
  0
LINE
  8
0
  6
CONTINUOUS
 10
3.575000
 20
255.722504
 11
50.075001
 21
255.722504
  0
TEXT
  8
0
 10
-10.000000
 20
-8.000000
 40
4.000000
 41
1.000000
  1
HFM-15T-10~120-T40W
 50
0.000000
  0
ENDSEC
  0
EOF
