  0
SECTION
  2
HEADER
  9
$CLAYER
  8
1
  9
$LTSCALE
 40
3.0
  0
ENDSEC
  0
SECTION
  2
TABLES
  0
TABLE
  2
LTYPE
 70
     4
  0
LTYPE
  2
CONTINUOUS
  3
solid line
 70
    64
 72
    65
 73
     0
 40
0.0
  0
LTYPE
  2
DASHED
  3
__ __ __ __ __ __ __ __ __ __ __ __ __ __ __
 70
    64
 72
    65
 73
     2
 40
0.75
 49
0.5
 49
-0.25
  0
LTYPE
  2
CENTER
  3
____ _ ____ _ ____ _ ____ _ ____ _ ____ _ ____
 70
    64
 72
    65
 73
     4
 40
2.0
 49
1.25
 49
-0.25
 49
0.25
 49
-0.25
  0
LTYPE
  2
PHANTOM
  3
_____ _ _ _____ _ _ _____ _ _ _____ _ _ ____
 70
    64
 72
    65
 73
     6
 40
2.5
 49
1.25
 49
-0.25
 49
0.25
 49
-0.25
 49
0.25
 49
-0.25
  0
ENDTAB
  0
TABLE
  2
LAYER
 70
     1
  0
LAYER
  2
0
 70
    64
 62
     7
  6
CONTINUOUS
  0
ENDTAB
  0
TABLE
  2
STYLE
 70
     1
  0
STYLE
  2
STANDARD
 70
     0
 40
0.000000
 41
1.000000
 50
0.000000
 71
     0
 42
3.000000
  3
txt
  4
BIGFONT
  0
ENDTAB
  0
ENDSEC
  0
SECTION
  2
BLOCKS
  0
ENDSEC
  0
SECTION
  2
ENTITIES
  0
LINE
  8
0
  6
CENTER
 10
52.466251
 20
0.748750
 11
52.466251
 21
157.665939
  0
LINE
  8
0
  6
CONTINUOUS
 10
4.466250
 20
125.448753
 11
4.466250
 21
7.448750
  0
LINE
  8
0
  6
CONTINUOUS
 10
94.466248
 20
103.948738
 11
94.466248
 21
58.948742
  0
LINE
  8
0
  6
CONTINUOUS
 10
89.466248
 20
116.500633
 11
89.466248
 21
16.396830
  0
LINE
  8
0
  6
CENTER
 10
-4.846250
 20
81.448753
 11
134.403748
 21
81.448753
  0
LINE
  8
0
  6
CONTINUOUS
 10
91.466270
 20
104.948753
 11
93.466248
 21
104.948753
  0
LINE
  8
0
  6
CONTINUOUS
 10
91.466270
 20
57.948746
 11
93.466248
 21
57.948746
  0
LINE
  8
0
  6
CONTINUOUS
 10
14.466250
 20
33.948761
 11
14.466250
 21
8.948750
  0
LINE
  8
0
  6
CONTINUOUS
 10
12.931601
 20
125.448753
 11
4.466250
 21
125.448753
  0
LINE
  8
0
  6
CONTINUOUS
 10
12.931601
 20
7.448750
 11
4.466250
 21
7.448750
  0
LINE
  8
0
  6
CONTINUOUS
 10
86.518593
 20
119.500191
 11
16.431360
 21
120.723282
  0
LINE
  8
0
  6
CONTINUOUS
 10
86.518608
 20
13.397300
 11
16.431330
 21
12.173670
  0
LINE
  8
0
  6
CONTINUOUS
 10
87.528236
 20
95.948753
 11
17.466270
 21
95.948753
  0
LINE
  8
0
  6
CONTINUOUS
 10
87.528236
 20
36.948750
 11
17.466270
 21
36.948750
  0
ARC
  8
0
  6
CONTINUOUS
 10
86.466270
 20
116.500633
 40
3.000000
 50
0.000000
 51
89.000359
  0
ARC
  8
0
  6
CONTINUOUS
 10
86.466248
 20
16.396830
 40
3.000000
 50
-88.999687
 51
0.000000
  0
ARC
  8
0
  6
CONTINUOUS
 10
17.466270
 20
33.948769
 40
3.000000
 50
90.000000
 51
180.000000
  0
ARC
  8
0
  6
CONTINUOUS
 10
17.466249
 20
98.948753
 40
3.000000
 50
180.000000
 51
270.000000
  0
LINE
  8
0
  6
CENTER
 10
-0.596250
 20
16.448750
 11
19.153749
 21
16.448750
  0
LINE
  8
0
  6
CENTER
 10
1.153750
 20
116.448753
 11
18.153749
 21
116.448753
  0
LINE
  8
0
  6
DASHED
 10
4.466250
 20
112.198753
 11
14.466250
 21
112.198753
  0
LINE
  8
0
  6
DASHED
 10
4.466250
 20
120.698753
 11
14.466250
 21
120.698753
  0
LINE
  8
0
  6
DASHED
 10
4.466250
 20
20.698750
 11
14.466250
 21
20.698750
  0
LINE
  8
0
  6
DASHED
 10
4.466250
 20
12.198750
 11
14.466250
 21
12.198750
  0
LINE
  8
0
  6
CONTINUOUS
 10
26.466270
 20
10.748750
 11
78.466240
 21
10.748750
  0
ARC
  8
0
  6
CONTINUOUS
 10
78.466248
 20
13.748750
 40
3.000000
 50
270.000000
 51
351.561890
  0
ARC
  8
0
  6
CONTINUOUS
 10
26.466249
 20
13.748750
 40
3.000000
 50
208.811905
 51
270.000000
  0
ARC
  8
0
  6
CONTINUOUS
 10
91.466248
 20
106.948753
 40
2.000000
 50
180.000000
 51
270.000000
  0
ARC
  8
0
  6
CONTINUOUS
 10
91.466270
 20
55.948757
 40
2.000000
 50
90.000000
 51
180.000000
  0
ARC
  8
0
  6
CONTINUOUS
 10
93.466248
 20
58.948746
 40
1.000000
 50
-90.000000
 51
0.000000
  0
ARC
  8
0
  6
CONTINUOUS
 10
93.466248
 20
103.948738
 40
1.000000
 50
0.000000
 51
90.000000
  0
ARC
  8
0
  6
CONTINUOUS
 10
52.466251
 20
55.748749
 40
45.000000
 50
-34.692108
 51
20.459709
  0
ARC
  8
0
  6
CONTINUOUS
 10
12.966250
 20
8.948750
 40
1.500000
 50
-90.000000
 51
0.000000
  0
LINE
  8
0
  6
CENTER
 10
-4.846250
 20
55.748749
 11
106.502502
 21
55.748749
  0
LINE
  8
0
  6
CONTINUOUS
 10
14.466250
 20
123.448753
 11
14.466250
 21
98.948738
  0
ARC
  8
0
  6
CONTINUOUS
 10
16.466230
 20
122.722992
 40
2.000000
 50
180.000000
 51
269.000610
  0
LINE
  8
0
  6
CONTINUOUS
 10
14.863450
 20
123.966393
 11
15.144060
 21
122.919159
  0
ARC
  8
0
  6
CONTINUOUS
 10
12.466261
 20
123.448738
 40
2.000000
 50
0.000000
 51
90.000000
  0
ARC
  8
0
  6
CONTINUOUS
 10
12.931609
 20
123.448738
 40
2.000000
 50
15.000500
 51
90.000000
  0
ARC
  8
0
  6
CONTINUOUS
 10
18.041809
 20
123.695648
 40
3.000000
 50
195.000504
 51
269.000610
  0
LINE
  8
0
  6
CONTINUOUS
 10
14.863450
 20
8.931110
 11
15.143900
 21
9.977770
  0
ARC
  8
0
  6
CONTINUOUS
 10
12.931601
 20
9.448750
 40
2.000000
 50
270.000000
 51
345.000092
  0
ARC
  8
0
  6
CONTINUOUS
 10
16.466261
 20
10.173980
 40
2.000000
 50
91.000633
 51
180.000000
  0
ARC
  8
0
  6
CONTINUOUS
 10
18.041691
 20
9.201330
 40
3.000000
 50
91.000526
 51
165.000198
  0
LINE
  8
0
  6
CONTINUOUS
 10
360.390015
 20
10.748750
 11
360.390015
 21
100.748749
  0
LINE
  8
0
  6
CENTER
 10
391.293121
 20
55.748749
 11
268.794891
 21
55.748749
  0
LINE
  8
0
  6
CONTINUOUS
 10
186.889999
 20
36.948750
 11
186.889999
 21
95.948753
  0
LINE
  8
0
  6
CONTINUOUS
 10
360.390015
 20
100.748749
 11
281.047394
 21
100.748749
  0
LINE
  8
0
  6
CONTINUOUS
 10
289.890015
 20
10.748750
 11
360.390015
 21
10.748750
  0
LINE
  8
0
  6
CENTER
 10
276.044495
 20
81.448753
 11
201.882187
 21
81.448753
  0
LINE
  8
0
  6
CENTER
 10
237.389999
 20
133.998749
 11
237.389999
 21
-1.344600
  0
LINE
  8
0
  6
CONTINUOUS
 10
277.390015
 20
125.448753
 11
197.389999
 21
125.448753
  0
LINE
  8
0
  6
CONTINUOUS
 10
277.390015
 20
7.448750
 11
197.389999
 21
7.448750
  0
LINE
  8
0
  6
CENTER
 10
204.389999
 20
116.448753
 11
190.514999
 21
116.448753
  0
LINE
  8
0
  6
CENTER
 10
197.389999
 20
109.748749
 11
197.389999
 21
123.248749
  0
CIRCLE
  8
0
  6
CONTINUOUS
 10
197.389999
 20
116.448753
 40
4.250000
  0
LINE
  8
0
  6
CENTER
 10
204.389999
 20
16.448750
 11
190.514999
 21
16.448750
  0
LINE
  8
0
  6
CENTER
 10
197.389999
 20
23.148750
 11
197.389999
 21
9.648750
  0
CIRCLE
  8
0
  6
CONTINUOUS
 10
197.389999
 20
16.448750
 40
4.250000
  0
LINE
  8
0
  6
CENTER
 10
270.390015
 20
116.448753
 11
284.265015
 21
116.448753
  0
LINE
  8
0
  6
CENTER
 10
277.390015
 20
109.748749
 11
277.390015
 21
123.248749
  0
CIRCLE
  8
0
  6
CONTINUOUS
 10
277.390015
 20
116.448753
 40
4.250000
  0
LINE
  8
0
  6
CENTER
 10
270.390015
 20
16.448750
 11
284.265015
 21
16.448750
  0
LINE
  8
0
  6
CENTER
 10
277.390015
 20
23.148750
 11
277.390015
 21
9.648750
  0
CIRCLE
  8
0
  6
CONTINUOUS
 10
277.390015
 20
16.448750
 40
4.250000
  0
LINE
  8
0
  6
CONTINUOUS
 10
188.413300
 20
117.095383
 11
186.889999
 21
95.948753
  0
LINE
  8
0
  6
CONTINUOUS
 10
188.413300
 20
15.802190
 11
186.889999
 21
36.948750
  0
ARC
  8
0
  6
CONTINUOUS
 10
197.389999
 20
116.448753
 40
9.000000
 50
90.000000
 51
175.879898
  0
ARC
  8
0
  6
CONTINUOUS
 10
197.389999
 20
16.448750
 40
9.000000
 50
-175.879898
 51
-90.000000
  0
ARC
  8
0
  6
CONTINUOUS
 10
277.390015
 20
116.448753
 40
9.000000
 50
4.120102
 51
90.000000
  0
LINE
  8
0
  6
CONTINUOUS
 10
286.366699
 20
117.095383
 11
287.544189
 21
100.748749
  0
LINE
  8
0
  6
CONTINUOUS
 10
286.366699
 20
15.802190
 11
286.934814
 21
23.688070
  0
ARC
  8
0
  6
CONTINUOUS
 10
277.390015
 20
16.448750
 40
9.000000
 50
270.000000
 51
355.879913
  0
ARC
  8
0
  6
CONTINUOUS
 10
282.890015
 20
20.748779
 40
5.000000
 50
0.000000
 51
90.000000
  0
ARC
  8
0
  6
CONTINUOUS
 10
289.890015
 20
12.748750
 40
2.000000
 50
180.000000
 51
270.000000
  0
LINE
  8
0
  6
CONTINUOUS
 10
287.890015
 20
12.748750
 11
287.890015
 21
20.748779
  0
LINE
  8
0
  6
CONTINUOUS
 10
287.890015
 20
93.348640
 11
287.890015
 21
20.748779
  0
LINE
  8
0
  6
CONTINUOUS
 10
360.390015
 20
90.158051
 11
289.890015
 21
90.158051
  0
LINE
  8
0
  6
CONTINUOUS
 10
360.390015
 20
21.339439
 11
289.390015
 21
21.339439
  0
CIRCLE
  8
0
  6
CONTINUOUS
 10
237.389999
 20
81.448753
 40
23.500000
  0
LINE
  8
0
  6
CONTINUOUS
 10
228.980606
 20
38.448750
 11
225.514999
 21
38.448750
  0
LINE
  8
0
  6
CONTINUOUS
 10
230.893494
 20
44.253719
 11
230.893494
 21
38.448750
  0
LINE
  8
0
  6
CONTINUOUS
 10
234.225494
 20
46.362244
 11
234.225494
 21
48.444748
  0
LINE
  8
0
  6
CONTINUOUS
 10
240.889496
 20
46.362244
 11
240.889496
 21
48.444748
  0
LINE
  8
0
  6
CONTINUOUS
 10
236.906693
 20
47.221275
 11
236.906693
 21
39.542061
  0
LINE
  8
0
  6
CONTINUOUS
 10
238.156204
 20
47.221275
 11
238.156204
 21
39.542061
  0
LINE
  8
0
  6
CONTINUOUS
 10
244.716095
 20
47.221275
 11
244.716095
 21
39.490002
  0
LINE
  8
0
  6
CONTINUOUS
 10
245.861404
 20
43.121349
 11
245.861404
 21
39.490002
  0
LINE
  8
0
  6
CONTINUOUS
 10
229.312393
 20
47.117149
 11
226.101196
 21
47.117149
  0
LINE
  8
0
  6
CONTINUOUS
 10
226.598297
 20
39.620159
 11
226.113297
 21
39.620159
  0
LINE
  8
0
  6
CONTINUOUS
 10
226.101196
 20
47.117149
 11
225.348801
 21
46.184189
  0
LINE
  8
0
  6
CONTINUOUS
 10
225.439301
 20
48.444748
 11
224.229507
 21
46.895569
  0
LINE
  8
0
  6
CONTINUOUS
 10
225.348801
 20
40.425388
 11
226.113297
 21
39.620159
  0
LINE
  8
0
  6
CONTINUOUS
 10
224.229507
 20
39.745850
 11
225.514999
 21
38.448750
  0
LINE
  8
0
  6
CONTINUOUS
 10
224.229507
 20
46.895569
 11
224.229507
 21
39.745850
  0
LINE
  8
0
  6
CONTINUOUS
 10
225.348801
 20
46.184189
 11
225.348801
 21
40.425388
  0
LINE
  8
0
  6
CONTINUOUS
 10
229.930298
 20
46.519806
 11
229.299805
 21
47.117149
  0
LINE
  8
0
  6
CONTINUOUS
 10
229.920303
 20
48.444748
 11
230.893494
 21
47.364769
  0
LINE
  8
0
  6
CONTINUOUS
 10
229.930298
 20
46.362244
 11
230.893494
 21
46.362244
  0
LINE
  8
0
  6
CONTINUOUS
 10
225.439301
 20
48.444748
 11
229.920303
 21
48.444748
  0
LINE
  8
0
  6
CONTINUOUS
 10
228.186203
 20
44.253719
 11
230.893494
 21
44.253719
  0
LINE
  8
0
  6
CONTINUOUS
 10
229.930298
 20
43.160400
 11
228.186203
 21
43.160400
  0
LINE
  8
0
  6
CONTINUOUS
 10
227.431305
 20
39.620159
 11
226.598297
 21
39.620159
  0
LINE
  8
0
  6
CONTINUOUS
 10
229.930298
 20
42.119160
 11
229.930298
 21
42.952148
  0
LINE
  8
0
  6
CONTINUOUS
 10
227.847794
 20
39.620159
 11
227.431305
 21
39.620159
  0
LINE
  8
0
  6
CONTINUOUS
 10
229.930298
 20
41.702648
 11
229.930298
 21
42.119160
  0
LINE
  8
0
  6
CONTINUOUS
 10
229.930298
 20
41.647339
 11
229.930298
 21
41.702648
  0
ARC
  8
0
  6
CONTINUOUS
 10
227.847794
 20
41.702648
 40
2.082500
 50
-89.999786
 51
0.000109
  0
LINE
  8
0
  6
CONTINUOUS
 10
229.930298
 20
39.245571
 11
229.930298
 21
38.448750
  0
LINE
  8
0
  6
CONTINUOUS
 10
230.893494
 20
47.364769
 11
230.893494
 21
46.362244
  0
LINE
  8
0
  6
CONTINUOUS
 10
229.930298
 20
43.160400
 11
229.930298
 21
41.702648
  0
LINE
  8
0
  6
CONTINUOUS
 10
228.186203
 20
44.253719
 11
228.186203
 21
43.160400
  0
LINE
  8
0
  6
CONTINUOUS
 10
229.930298
 20
42.952148
 11
229.930298
 21
43.160400
  0
LINE
  8
0
  6
CONTINUOUS
 10
229.930298
 20
38.448750
 11
230.893494
 21
38.448750
  0
LINE
  8
0
  6
CONTINUOUS
 10
229.930298
 20
39.245571
 11
228.980606
 21
38.448750
  0
LINE
  8
0
  6
CONTINUOUS
 10
238.156204
 20
39.542061
 11
238.572693
 21
39.542061
  0
LINE
  8
0
  6
CONTINUOUS
 10
236.412094
 20
39.542061
 11
236.412094
 21
38.448750
  0
LINE
  8
0
  6
CONTINUOUS
 10
238.572693
 20
39.542061
 11
238.572693
 21
38.448750
  0
LINE
  8
0
  6
CONTINUOUS
 10
240.194397
 20
46.362244
 11
240.889496
 21
46.362244
  0
LINE
  8
0
  6
CONTINUOUS
 10
234.225494
 20
46.362244
 11
234.965195
 21
46.362244
  0
LINE
  8
0
  6
CONTINUOUS
 10
234.225494
 20
48.444748
 11
240.889496
 21
48.444748
  0
LINE
  8
0
  6
CONTINUOUS
 10
236.412094
 20
38.448750
 11
238.572693
 21
38.448750
  0
LINE
  8
0
  6
CONTINUOUS
 10
236.412094
 20
39.542061
 11
236.906693
 21
39.542061
  0
ARC
  8
0
  6
CONTINUOUS
 10
248.217300
 20
45.776543
 40
2.668203
 50
-73.981873
 51
90.003510
  0
ARC
  8
0
  6
CONTINUOUS
 10
248.217300
 20
45.776543
 40
1.627786
 50
-82.585274
 51
62.411850
  0
LINE
  8
0
  6
CONTINUOUS
 10
244.221497
 20
48.444748
 11
248.217300
 21
48.444748
  0
LINE
  8
0
  6
CONTINUOUS
 10
248.427307
 20
44.162369
 11
245.861404
 21
44.162369
  0
LINE
  8
0
  6
CONTINUOUS
 10
244.221497
 20
48.444748
 11
244.221497
 21
47.221275
  0
LINE
  8
0
  6
CONTINUOUS
 10
245.861404
 20
47.221275
 11
245.861404
 21
44.162369
  0
LINE
  8
0
  6
CONTINUOUS
 10
248.953506
 20
43.211929
 11
250.604996
 21
39.490002
  0
LINE
  8
0
  6
CONTINUOUS
 10
247.994293
 20
43.121349
 11
249.557205
 21
39.490002
  0
LINE
  8
0
  6
CONTINUOUS
 10
244.221497
 20
39.490002
 11
244.716095
 21
39.490002
  0
LINE
  8
0
  6
CONTINUOUS
 10
245.861404
 20
39.490002
 11
246.317001
 21
39.490002
  0
LINE
  8
0
  6
CONTINUOUS
 10
246.317001
 20
38.448750
 11
244.221497
 21
38.448750
  0
LINE
  8
0
  6
CONTINUOUS
 10
249.349594
 20
39.490002
 11
249.557205
 21
39.490002
  0
LINE
  8
0
  6
CONTINUOUS
 10
250.604996
 20
39.490002
 11
250.885498
 21
39.490002
  0
LINE
  8
0
  6
CONTINUOUS
 10
249.349594
 20
38.448750
 11
250.885498
 21
38.448750
  0
LINE
  8
0
  6
CONTINUOUS
 10
250.885498
 20
39.490002
 11
250.885498
 21
38.448750
  0
LINE
  8
0
  6
CONTINUOUS
 10
249.349594
 20
39.490002
 11
249.349594
 21
38.448750
  0
LINE
  8
0
  6
CONTINUOUS
 10
246.317001
 20
39.490002
 11
246.317001
 21
38.448750
  0
LINE
  8
0
  6
CONTINUOUS
 10
244.221497
 20
39.490002
 11
244.221497
 21
38.448750
  0
LINE
  8
0
  6
CONTINUOUS
 10
235.323105
 20
47.221275
 11
234.965195
 21
46.362244
  0
LINE
  8
0
  6
CONTINUOUS
 10
239.892502
 20
47.221275
 11
240.194397
 21
46.362244
  0
LINE
  8
0
  6
CONTINUOUS
 10
238.156204
 20
47.221275
 11
239.892502
 21
47.221275
  0
LINE
  8
0
  6
CONTINUOUS
 10
236.906693
 20
47.221275
 11
235.323105
 21
47.221275
  0
LINE
  8
0
  6
CONTINUOUS
 10
245.861404
 20
43.121349
 11
247.994293
 21
43.121349
  0
LINE
  8
0
  6
CONTINUOUS
 10
244.221497
 20
47.221275
 11
244.716095
 21
47.221275
  0
LINE
  8
0
  6
CONTINUOUS
 10
245.861404
 20
47.221275
 11
248.971100
 21
47.219254
  0
LINE
  8
0
  6
CONTINUOUS
 10
229.930298
 20
46.519806
 11
229.930298
 21
46.362244
  0
LINE
  8
0
  6
CONTINUOUS
 10
252.811096
 20
13.448750
 11
221.968903
 21
13.448750
  0
LINE
  8
0
  6
CONTINUOUS
 10
221.968903
 20
119.448753
 11
252.811096
 21
119.448753
  0
LINE
  8
0
  6
CONTINUOUS
 10
255.682602
 20
118.542038
 11
285.761414
 21
97.441940
  0
LINE
  8
0
  6
CONTINUOUS
 10
219.097504
 20
118.542030
 11
186.889999
 21
95.948753
  0
LINE
  8
0
  6
CONTINUOUS
 10
255.682602
 20
14.355460
 11
270.631500
 21
24.842020
  0
LINE
  8
0
  6
CONTINUOUS
 10
219.097397
 20
14.355470
 11
186.889999
 21
36.948750
  0
ARC
  8
0
  6
CONTINUOUS
 10
252.811203
 20
114.448753
 40
5.000000
 50
54.950710
 51
90.000000
  0
ARC
  8
0
  6
CONTINUOUS
 10
221.968903
 20
114.448753
 40
5.000000
 50
90.000000
 51
125.049500
  0
ARC
  8
0
  6
CONTINUOUS
 10
221.968903
 20
18.448750
 40
5.000000
 50
234.950500
 51
270.000000
  0
ARC
  8
0
  6
CONTINUOUS
 10
252.811096
 20
18.448750
 40
5.000000
 50
270.000000
 51
305.049591
  0
LINE
  8
0
  6
CONTINUOUS
 10
273.502899
 20
25.748751
 11
282.890015
 21
25.748751
  0
ARC
  8
0
  6
CONTINUOUS
 10
273.502899
 20
20.748760
 40
5.000000
 50
90.000000
 51
125.049698
  0
ARC
  8
0
  6
CONTINUOUS
 10
282.890015
 20
93.348640
 40
5.000000
 50
0.000000
 51
54.950691
  0
LINE
  8
0
  6
CONTINUOUS
 10
380.890015
 20
20.748751
 11
380.890015
 21
90.748749
  0
LINE
  8
0
  6
CONTINUOUS
 10
376.348602
 20
100.748749
 11
360.390015
 21
100.748749
  0
LINE
  8
0
  6
CONTINUOUS
 10
380.390015
 20
97.748749
 11
380.390015
 21
13.748750
  0
LINE
  8
0
  6
CONTINUOUS
 10
360.390015
 20
90.158051
 11
378.640015
 21
90.158051
  0
ARC
  8
0
  6
CONTINUOUS
 10
380.890015
 20
91.248749
 40
0.500000
 50
180.000000
 51
270.000000
  0
LINE
  8
0
  6
CONTINUOUS
 10
379.812592
 20
98.748741
 11
380.390015
 21
97.748749
  0
ARC
  8
0
  6
CONTINUOUS
 10
376.348511
 20
96.748756
 40
4.000000
 50
29.999599
 51
90.000000
  0
LINE
  8
0
  6
CONTINUOUS
 10
376.348602
 20
10.748750
 11
360.390015
 21
10.748750
  0
LINE
  8
0
  6
CONTINUOUS
 10
360.390015
 20
21.339451
 11
378.640015
 21
21.339451
  0
ARC
  8
0
  6
CONTINUOUS
 10
380.890015
 20
20.248751
 40
0.500000
 50
90.000000
 51
180.000000
  0
LINE
  8
0
  6
CONTINUOUS
 10
379.812592
 20
12.748760
 11
380.390015
 21
13.748750
  0
ARC
  8
0
  6
CONTINUOUS
 10
376.348511
 20
14.748740
 40
4.000000
 50
270.000000
 51
330.000397
  0
LINE
  8
0
  6
CONTINUOUS
 10
126.466248
 20
72.448753
 11
126.466248
 21
90.448753
  0
LINE
  8
0
  6
CONTINUOUS
 10
96.466248
 20
90.448753
 11
126.466248
 21
90.448753
  0
LINE
  8
0
  6
CONTINUOUS
 10
96.466248
 20
72.448753
 11
126.466248
 21
72.448753
  0
LINE
  8
0
  6
CONTINUOUS
 10
96.466248
 20
91.448753
 11
96.466248
 21
71.448753
  0
LINE
  8
0
  6
CONTINUOUS
 10
94.466248
 20
91.448753
 11
96.466248
 21
91.448753
  0
LINE
  8
0
  6
CONTINUOUS
 10
94.466248
 20
71.448753
 11
96.466248
 21
71.448753
  0
ARC
  8
0
  6
CONTINUOUS
 10
102.466248
 20
81.448753
 40
3.000000
 50
90.000000
 51
270.000000
  0
LINE
  8
0
  6
CONTINUOUS
 10
102.466248
 20
84.448753
 11
126.466248
 21
84.448753
  0
LINE
  8
0
  6
CONTINUOUS
 10
102.466270
 20
78.448753
 11
126.466248
 21
78.448753
  0
LINE
  8
0
  6
CONTINUOUS
 10
231.889999
 20
84.448753
 11
231.889999
 21
78.448753
  0
LINE
  8
0
  6
CONTINUOUS
 10
225.889999
 20
84.448753
 11
225.889999
 21
78.448753
  0
LINE
  8
0
  6
CONTINUOUS
 10
225.889999
 20
84.448753
 11
231.889999
 21
84.448753
  0
LINE
  8
0
  6
CONTINUOUS
 10
225.889999
 20
78.448753
 11
231.889999
 21
78.448753
  0
ARC
  8
0
  6
CONTINUOUS
 10
237.389999
 20
81.448753
 40
9.000000
 50
-160.528793
 51
160.528793
  0
LINE
  8
0
  6
CENTER
 10
237.389999
 20
174.035629
 11
237.389999
 21
319.353424
  0
LINE
  8
0
  6
CENTER
 10
394.376251
 20
254.913132
 11
173.248749
 21
254.913132
  0
LINE
  8
0
  6
CONTINUOUS
 10
191.064117
 20
217.913132
 11
285.941681
 21
217.913132
  0
LINE
  8
0
  6
CONTINUOUS
 10
380.890015
 20
289.913116
 11
380.890015
 21
219.913132
  0
LINE
  8
0
  6
CONTINUOUS
 10
376.348541
 20
209.913132
 11
360.390015
 21
209.913132
  0
LINE
  8
0
  6
CONTINUOUS
 10
380.390015
 20
212.913132
 11
380.390015
 21
296.913116
  0
LINE
  8
0
  6
CONTINUOUS
 10
360.390015
 20
225.913132
 11
378.640015
 21
225.913132
  0
ARC
  8
0
  6
CONTINUOUS
 10
380.890015
 20
219.413132
 40
0.500000
 50
90.000000
 51
180.000000
  0
LINE
  8
0
  6
CONTINUOUS
 10
379.812653
 20
211.913132
 11
380.390015
 21
212.913132
  0
ARC
  8
0
  6
CONTINUOUS
 10
376.348541
 20
213.913116
 40
4.000000
 50
270.000000
 51
330.000397
  0
LINE
  8
0
  6
CONTINUOUS
 10
376.348541
 20
299.913116
 11
360.390015
 21
299.913116
  0
ARC
  8
0
  6
CONTINUOUS
 10
380.890015
 20
290.413116
 40
0.500000
 50
180.000000
 51
270.000000
  0
LINE
  8
0
  6
CONTINUOUS
 10
379.812653
 20
297.913116
 11
380.390015
 21
296.913116
  0
ARC
  8
0
  6
CONTINUOUS
 10
376.348541
 20
295.913147
 40
4.000000
 50
29.999599
 51
90.000000
  0
LINE
  8
0
  6
CONTINUOUS
 10
360.390015
 20
299.913116
 11
360.390015
 21
279.913147
  0
LINE
  8
0
  6
CONTINUOUS
 10
288.099426
 20
225.910385
 11
287.941010
 21
219.860764
  0
LINE
  8
0
  6
CONTINUOUS
 10
290.047791
 20
209.913132
 11
360.390015
 21
209.913132
  0
LINE
  8
0
  6
CONTINUOUS
 10
360.390015
 20
225.913132
 11
281.047455
 21
225.913132
  0
LINE
  8
0
  6
CONTINUOUS
 10
360.390015
 20
283.913116
 11
378.640015
 21
283.913116
  0
LINE
  8
0
  6
CONTINUOUS
 10
360.390015
 20
283.913116
 11
289.773132
 21
283.913116
  0
LINE
  8
0
  6
CONTINUOUS
 10
289.916870
 20
299.913116
 11
360.390015
 21
299.913116
  0
LINE
  8
0
  6
CONTINUOUS
 10
289.146912
 20
254.913132
 11
287.890015
 21
302.913116
  0
LINE
  8
0
  6
CONTINUOUS
 10
254.389999
 20
222.913132
 11
254.389999
 21
290.913116
  0
LINE
  8
0
  6
CONTINUOUS
 10
220.389999
 20
222.913132
 11
220.389999
 21
290.913116
  0
LINE
  8
0
  6
CONTINUOUS
 10
281.047455
 20
227.913132
 11
281.047455
 21
291.378113
  0
LINE
  8
0
  6
CONTINUOUS
 10
214.889999
 20
212.913132
 11
259.890015
 21
212.913132
  0
LINE
  8
0
  6
CONTINUOUS
 10
260.890015
 20
213.913132
 11
260.890015
 21
215.913132
  0
LINE
  8
0
  6
CONTINUOUS
 10
213.889999
 20
213.913132
 11
213.889999
 21
215.913132
  0
ARC
  8
0
  6
CONTINUOUS
 10
262.890015
 20
215.913132
 40
2.000000
 50
90.000000
 51
180.000000
  0
ARC
  8
0
  6
CONTINUOUS
 10
211.889999
 20
215.913132
 40
2.000000
 50
0.000000
 51
90.000000
  0
ARC
  8
0
  6
CONTINUOUS
 10
259.889984
 20
213.913132
 40
1.000000
 50
-90.000000
 51
0.000000
  0
ARC
  8
0
  6
CONTINUOUS
 10
214.889999
 20
213.913132
 40
1.000000
 50
180.000000
 51
270.000000
  0
LINE
  8
0
  6
CONTINUOUS
 10
225.889999
 20
180.913132
 11
246.389999
 21
180.913132
  0
LINE
  8
0
  6
CONTINUOUS
 10
246.389999
 20
210.913132
 11
246.389999
 21
180.913132
  0
LINE
  8
0
  6
CONTINUOUS
 10
228.389999
 20
210.913132
 11
228.389999
 21
207.913132
  0
LINE
  8
0
  6
CONTINUOUS
 10
247.389999
 20
210.913132
 11
227.389999
 21
210.913132
  0
LINE
  8
0
  6
CONTINUOUS
 10
247.389999
 20
212.913132
 11
247.389999
 21
210.913132
  0
LINE
  8
0
  6
CONTINUOUS
 10
227.389999
 20
212.913132
 11
227.389999
 21
210.913132
  0
LINE
  8
0
  6
CONTINUOUS
 10
225.889999
 20
180.913132
 11
225.889999
 21
207.913132
  0
LINE
  8
0
  6
CONTINUOUS
 10
225.889999
 20
207.913132
 11
228.904999
 21
207.913132
  0
LINE
  8
0
  6
CONTINUOUS
 10
228.904999
 20
180.913132
 11
228.904999
 21
207.913132
  0
LINE
  8
0
  6
CONTINUOUS
 10
360.390015
 20
229.913147
 11
360.390015
 21
209.913132
  0
LINE
  8
0
  6
CONTINUOUS
 10
287.890015
 20
302.913116
 11
186.889999
 21
302.913116
  0
LINE
  8
0
  6
CONTINUOUS
 10
189.064804
 20
219.860764
 11
186.889999
 21
302.913116
  0
LINE
  8
0
  6
CONTINUOUS
 10
286.098816
 20
292.913116
 11
189.100174
 21
292.913116
  0
ARC
  8
0
  6
CONTINUOUS
 10
189.100174
 20
294.913116
 40
2.000000
 50
181.500000
 51
270.000000
  0
ARC
  8
0
  6
CONTINUOUS
 10
191.064117
 20
219.913132
 40
2.000000
 50
181.500000
 51
270.000000
  0
ARC
  8
0
  6
CONTINUOUS
 10
218.389999
 20
290.913116
 40
2.000000
 50
0.000000
 51
90.000000
  0
ARC
  8
0
  6
CONTINUOUS
 10
256.390015
 20
290.913116
 40
2.000000
 50
90.000000
 51
180.000000
  0
LINE
  8
0
  6
CONTINUOUS
 10
254.531937
 20
291.653137
 11
220.248062
 21
291.653137
  0
ARC
  8
0
  6
CONTINUOUS
 10
286.098816
 20
294.913116
 40
2.000000
 50
-90.000000
 51
1.500000
  0
ARC
  8
0
  6
CONTINUOUS
 10
289.916870
 20
301.913116
 40
2.000000
 50
181.500000
 51
270.000000
  0
LINE
  8
0
  6
CONTINUOUS
 10
288.048492
 20
211.860764
 11
287.941010
 21
215.965485
  0
ARC
  8
0
  6
CONTINUOUS
 10
290.047791
 20
211.913132
 40
2.000000
 50
181.500000
 51
270.000000
  0
ARC
  8
0
  6
CONTINUOUS
 10
285.941681
 20
215.913132
 40
2.000000
 50
1.500000
 51
90.000000
  0
ARC
  8
0
  6
CONTINUOUS
 10
285.941681
 20
219.913132
 40
2.000000
 50
270.000000
 51
358.500000
  0
LINE
  8
0
  6
CENTER
 10
197.389999
 20
310.601715
 11
197.389999
 21
286.739075
  0
LINE
  8
0
  6
DASHED
 10
193.139999
 20
292.913116
 11
193.139999
 21
302.913116
  0
LINE
  8
0
  6
DASHED
 10
201.639999
 20
292.913116
 11
201.639999
 21
302.913116
  0
LINE
  8
0
  6
CENTER
 10
277.390015
 20
310.601715
 11
277.390015
 21
286.739075
  0
LINE
  8
0
  6
DASHED
 10
281.640015
 20
292.913116
 11
281.640015
 21
302.913116
  0
LINE
  8
0
  6
DASHED
 10
273.140015
 20
292.913116
 11
273.140015
 21
302.913116
  0
LINE
  8
0
  6
CONTINUOUS
 10
369.390015
 20
277.913147
 11
369.390015
 21
231.913147
  0
LINE
  8
0
  6
CONTINUOUS
 10
367.390015
 20
229.913147
 11
369.390015
 21
231.913147
  0
LINE
  8
0
  6
CONTINUOUS
 10
367.390015
 20
229.913147
 11
321.390015
 21
229.913147
  0
LINE
  8
0
  6
CONTINUOUS
 10
326.890015
 20
234.413147
 11
326.890015
 21
229.913147
  0
ARC
  8
0
  6
CONTINUOUS
 10
323.890015
 20
234.413147
 40
3.000000
 50
0.000000
 51
90.000000
  0
LINE
  8
0
  6
CONTINUOUS
 10
323.890015
 20
237.413147
 11
319.390015
 21
237.413147
  0
CIRCLE
  8
0
  6
CONTINUOUS
 10
322.890015
 20
233.413147
 40
2.250000
  0
LINE
  8
0
  6
CONTINUOUS
 10
319.390015
 20
277.913147
 11
319.390015
 21
231.913147
  0
LINE
  8
0
  6
CONTINUOUS
 10
321.390015
 20
229.913147
 11
319.390015
 21
231.913147
  0
LINE
  8
0
  6
CONTINUOUS
 10
321.390015
 20
279.913147
 11
319.390015
 21
277.913147
  0
LINE
  8
0
  6
CONTINUOUS
 10
321.390015
 20
279.913147
 11
367.390015
 21
279.913147
  0
LINE
  8
0
  6
CONTINUOUS
 10
369.390015
 20
277.913147
 11
367.390015
 21
279.913147
  0
LINE
  8
0
  6
CONTINUOUS
 10
364.890015
 20
272.413147
 11
369.389984
 21
272.413147
  0
CIRCLE
  8
0
  6
CONTINUOUS
 10
365.890015
 20
276.413147
 40
2.250000
  0
ARC
  8
0
  6
CONTINUOUS
 10
364.890015
 20
275.413147
 40
3.000000
 50
180.000000
 51
270.000000
  0
LINE
  8
0
  6
CONTINUOUS
 10
361.890015
 20
275.413147
 11
361.890015
 21
279.913147
  0
LINE
  8
0
  6
CENTER
 10
344.390015
 20
287.378937
 11
344.390015
 21
223.246902
  0
LINE
  8
0
  6
CONTINUOUS
 10
368.389984
 20
272.413116
 11
368.389984
 21
237.413132
  0
LINE
  8
0
  6
CONTINUOUS
 10
326.890015
 20
230.913132
 11
361.889984
 21
230.913132
  0
LINE
  8
0
  6
CONTINUOUS
 10
320.390015
 20
237.413132
 11
320.390015
 21
272.413116
  0
LINE
  8
0
  6
CONTINUOUS
 10
361.890015
 20
278.913116
 11
326.890015
 21
278.913116
  0
LINE
  8
0
  6
CONTINUOUS
 10
364.889984
 20
237.413132
 11
369.389984
 21
237.413132
  0
ARC
  8
0
  6
CONTINUOUS
 10
364.889984
 20
234.413132
 40
3.000000
 50
90.000000
 51
180.000000
  0
LINE
  8
0
  6
CONTINUOUS
 10
361.889984
 20
234.413132
 11
361.889984
 21
229.913132
  0
CIRCLE
  8
0
  6
CONTINUOUS
 10
365.889984
 20
233.413132
 40
2.250000
  0
LINE
  8
0
  6
CONTINUOUS
 10
323.890015
 20
272.413116
 11
319.390015
 21
272.413116
  0
ARC
  8
0
  6
CONTINUOUS
 10
323.890015
 20
275.413116
 40
3.000000
 50
-90.000000
 51
0.000000
  0
LINE
  8
0
  6
CONTINUOUS
 10
326.890015
 20
275.413116
 11
326.890015
 21
279.913116
  0
CIRCLE
  8
0
  6
CONTINUOUS
 10
322.890015
 20
276.413116
 40
2.250000
  0
LINE
  8
0
  6
CONTINUOUS
 10
367.890015
 20
102.248749
 11
321.390015
 21
102.248749
  0
LINE
  8
0
  6
CONTINUOUS
 10
319.390015
 20
146.248749
 11
319.390015
 21
104.248749
  0
LINE
  8
0
  6
CONTINUOUS
 10
369.390015
 20
146.248749
 11
369.390015
 21
104.248749
  0
LINE
  8
0
  6
CONTINUOUS
 10
369.390015
 20
114.248749
 11
319.390015
 21
114.248749
  0
LINE
  8
0
  6
CONTINUOUS
 10
321.390015
 20
102.248749
 11
319.390015
 21
104.248749
  0
LINE
  8
0
  6
CONTINUOUS
 10
369.390015
 20
104.248749
 11
367.390015
 21
102.248749
  0
LINE
  8
0
  6
CONTINUOUS
 10
369.390015
 20
104.248749
 11
319.390015
 21
104.248749
  0
LINE
  8
0
  6
CONTINUOUS
 10
369.390015
 20
115.248749
 11
319.390015
 21
115.248749
  0
LINE
  8
0
  6
CONTINUOUS
 10
368.390015
 20
147.248749
 11
320.390015
 21
147.248749
  0
LINE
  8
0
  6
CONTINUOUS
 10
320.390015
 20
147.248749
 11
319.390015
 21
146.248749
  0
LINE
  8
0
  6
CONTINUOUS
 10
368.390015
 20
147.248749
 11
369.390015
 21
146.248749
  0
LINE
  8
0
  6
CONTINUOUS
 10
369.390015
 20
146.248749
 11
319.390015
 21
146.248749
  0
LINE
  8
0
  6
CENTER
 10
344.390015
 20
95.859238
 11
344.390015
 21
152.559235
  0
LINE
  8
0
  6
CENTER
 10
371.765015
 20
130.248749
 11
367.140015
 21
130.248749
  0
LINE
  8
0
  6
CONTINUOUS
 10
367.890015
 20
102.248749
 11
367.890015
 21
100.748749
  0
LINE
  8
0
  6
CONTINUOUS
 10
321.890015
 20
102.248749
 11
321.890015
 21
100.748749
  0
LINE
  8
0
  6
CONTINUOUS
 10
370.265015
 20
140.748749
 11
368.265015
 21
140.748749
  0
LINE
  8
0
  6
CONTINUOUS
 10
370.265015
 20
119.748749
 11
368.265015
 21
119.748749
  0
LINE
  8
0
  6
CONTINUOUS
 10
77.466232
 20
146.248749
 11
77.466232
 21
119.658165
  0
LINE
  8
0
  6
CONTINUOUS
 10
27.466249
 20
146.248749
 11
27.466249
 21
120.530708
  0
LINE
  8
0
  6
CONTINUOUS
 10
28.466249
 20
147.248749
 11
76.466232
 21
147.248749
  0
LINE
  8
0
  6
CONTINUOUS
 10
76.466232
 20
147.248749
 11
77.466232
 21
146.248749
  0
LINE
  8
0
  6
CONTINUOUS
 10
28.466249
 20
147.248749
 11
27.466249
 21
146.248749
  0
LINE
  8
0
  6
CONTINUOUS
 10
27.466249
 20
146.248749
 11
77.466232
 21
146.248749
  0
TEXT
  8
0
 10
-60.000000
 20
-1.000000
 40
4.000000
 41
1.000000
  1
HFM-18L-160~240-S40K
 50
0.000000
  0
ENDSEC
  0
EOF
