  0
SECTION
  2
HEADER
  9
$CLAYER
  8
1
  9
$LTSCALE
 40
3.0
  0
ENDSEC
  0
SECTION
  2
TABLES
  0
TABLE
  2
LTYPE
 70
     4
  0
LTYPE
  2
CONTINUOUS
  3
solid line
 70
    64
 72
    65
 73
     0
 40
0.0
  0
LTYPE
  2
DASHED
  3
__ __ __ __ __ __ __ __ __ __ __ __ __ __ __
 70
    64
 72
    65
 73
     2
 40
0.75
 49
0.5
 49
-0.25
  0
LTYPE
  2
CENTER
  3
____ _ ____ _ ____ _ ____ _ ____ _ ____ _ ____
 70
    64
 72
    65
 73
     4
 40
2.0
 49
1.25
 49
-0.25
 49
0.25
 49
-0.25
  0
LTYPE
  2
PHANTOM
  3
_____ _ _ _____ _ _ _____ _ _ _____ _ _ ____
 70
    64
 72
    65
 73
     6
 40
2.5
 49
1.25
 49
-0.25
 49
0.25
 49
-0.25
 49
0.25
 49
-0.25
  0
ENDTAB
  0
TABLE
  2
LAYER
 70
     1
  0
LAYER
  2
0
 70
    64
 62
     7
  6
CONTINUOUS
  0
ENDTAB
  0
TABLE
  2
STYLE
 70
     1
  0
STYLE
  2
STANDARD
 70
     0
 40
0.000000
 41
1.000000
 50
0.000000
 71
     0
 42
3.000000
  3
txt
  4
BIGFONT
  0
ENDTAB
  0
ENDSEC
  0
SECTION
  2
BLOCKS
  0
ENDSEC
  0
SECTION
  2
ENTITIES
  0
LINE
  8
0
  6
CENTER
 10
47.871250
 20
0.748750
 11
47.871250
 21
140.147507
  0
LINE
  8
0
  6
CONTINUOUS
 10
-0.128750
 20
125.448753
 11
-0.128750
 21
7.448750
  0
LINE
  8
0
  6
CONTINUOUS
 10
89.871246
 20
103.948738
 11
89.871246
 21
58.948742
  0
LINE
  8
0
  6
CONTINUOUS
 10
84.871246
 20
116.500633
 11
84.871246
 21
16.396830
  0
LINE
  8
0
  6
CENTER
 10
-9.441250
 20
81.448753
 11
129.808746
 21
81.448753
  0
LINE
  8
0
  6
CONTINUOUS
 10
86.871269
 20
104.948753
 11
88.871246
 21
104.948753
  0
LINE
  8
0
  6
CONTINUOUS
 10
86.871269
 20
57.948746
 11
88.871246
 21
57.948746
  0
LINE
  8
0
  6
CONTINUOUS
 10
9.871250
 20
33.948761
 11
9.871250
 21
8.948750
  0
LINE
  8
0
  6
CONTINUOUS
 10
8.336601
 20
125.448753
 11
-0.128750
 21
125.448753
  0
LINE
  8
0
  6
CONTINUOUS
 10
8.336601
 20
7.448750
 11
-0.128750
 21
7.448750
  0
LINE
  8
0
  6
CONTINUOUS
 10
81.923592
 20
119.500191
 11
11.836360
 21
120.723282
  0
LINE
  8
0
  6
CONTINUOUS
 10
81.923607
 20
13.397300
 11
11.836330
 21
12.173670
  0
LINE
  8
0
  6
CONTINUOUS
 10
82.933243
 20
95.948753
 11
12.871270
 21
95.948753
  0
LINE
  8
0
  6
CONTINUOUS
 10
82.933243
 20
36.948750
 11
12.871270
 21
36.948750
  0
ARC
  8
0
  6
CONTINUOUS
 10
81.871269
 20
116.500633
 40
3.000000
 50
0.000000
 51
89.000359
  0
ARC
  8
0
  6
CONTINUOUS
 10
81.871246
 20
16.396830
 40
3.000000
 50
-88.999687
 51
0.000000
  0
ARC
  8
0
  6
CONTINUOUS
 10
12.871270
 20
33.948769
 40
3.000000
 50
90.000000
 51
180.000000
  0
ARC
  8
0
  6
CONTINUOUS
 10
12.871250
 20
98.948753
 40
3.000000
 50
180.000000
 51
270.000000
  0
LINE
  8
0
  6
CENTER
 10
-5.191250
 20
16.448750
 11
14.558750
 21
16.448750
  0
LINE
  8
0
  6
CENTER
 10
-3.441250
 20
116.448753
 11
13.558750
 21
116.448753
  0
LINE
  8
0
  6
DASHED
 10
-0.128750
 20
112.198753
 11
9.871250
 21
112.198753
  0
LINE
  8
0
  6
DASHED
 10
-0.128750
 20
120.698753
 11
9.871250
 21
120.698753
  0
LINE
  8
0
  6
DASHED
 10
-0.128750
 20
20.698750
 11
9.871250
 21
20.698750
  0
LINE
  8
0
  6
DASHED
 10
-0.128750
 20
12.198750
 11
9.871250
 21
12.198750
  0
LINE
  8
0
  6
CONTINUOUS
 10
21.871269
 20
10.748750
 11
73.871239
 21
10.748750
  0
ARC
  8
0
  6
CONTINUOUS
 10
73.871246
 20
13.748750
 40
3.000000
 50
270.000000
 51
351.561890
  0
ARC
  8
0
  6
CONTINUOUS
 10
21.871250
 20
13.748750
 40
3.000000
 50
208.811905
 51
270.000000
  0
ARC
  8
0
  6
CONTINUOUS
 10
86.871246
 20
106.948753
 40
2.000000
 50
180.000000
 51
270.000000
  0
ARC
  8
0
  6
CONTINUOUS
 10
86.871269
 20
55.948757
 40
2.000000
 50
90.000000
 51
180.000000
  0
ARC
  8
0
  6
CONTINUOUS
 10
88.871246
 20
58.948746
 40
1.000000
 50
-90.000000
 51
0.000000
  0
ARC
  8
0
  6
CONTINUOUS
 10
88.871246
 20
103.948738
 40
1.000000
 50
0.000000
 51
90.000000
  0
ARC
  8
0
  6
CONTINUOUS
 10
47.871250
 20
55.748749
 40
45.000000
 50
-34.692108
 51
20.459709
  0
ARC
  8
0
  6
CONTINUOUS
 10
8.371250
 20
8.948750
 40
1.500000
 50
-90.000000
 51
0.000000
  0
LINE
  8
0
  6
CENTER
 10
-9.441250
 20
55.748749
 11
101.907501
 21
55.748749
  0
LINE
  8
0
  6
CONTINUOUS
 10
9.871250
 20
123.448753
 11
9.871250
 21
98.948738
  0
ARC
  8
0
  6
CONTINUOUS
 10
11.871230
 20
122.722992
 40
2.000000
 50
180.000000
 51
269.000610
  0
LINE
  8
0
  6
CONTINUOUS
 10
10.268450
 20
123.966393
 11
10.549060
 21
122.919159
  0
ARC
  8
0
  6
CONTINUOUS
 10
7.871261
 20
123.448738
 40
2.000000
 50
0.000000
 51
90.000000
  0
ARC
  8
0
  6
CONTINUOUS
 10
8.336609
 20
123.448738
 40
2.000000
 50
15.000500
 51
90.000000
  0
ARC
  8
0
  6
CONTINUOUS
 10
13.446810
 20
123.695648
 40
3.000000
 50
195.000504
 51
269.000610
  0
LINE
  8
0
  6
CONTINUOUS
 10
10.268450
 20
8.931110
 11
10.548900
 21
9.977770
  0
ARC
  8
0
  6
CONTINUOUS
 10
8.336601
 20
9.448750
 40
2.000000
 50
270.000000
 51
345.000092
  0
ARC
  8
0
  6
CONTINUOUS
 10
11.871260
 20
10.173980
 40
2.000000
 50
91.000633
 51
180.000000
  0
ARC
  8
0
  6
CONTINUOUS
 10
13.446690
 20
9.201330
 40
3.000000
 50
91.000526
 51
165.000198
  0
LINE
  8
0
  6
CONTINUOUS
 10
351.200012
 20
10.748750
 11
351.200012
 21
100.748749
  0
LINE
  8
0
  6
CENTER
 10
382.103119
 20
55.748749
 11
259.604889
 21
55.748749
  0
LINE
  8
0
  6
CONTINUOUS
 10
177.699997
 20
36.948750
 11
177.699997
 21
95.948753
  0
LINE
  8
0
  6
CONTINUOUS
 10
351.200012
 20
100.748749
 11
271.857391
 21
100.748749
  0
LINE
  8
0
  6
CONTINUOUS
 10
280.700012
 20
10.748750
 11
351.200012
 21
10.748750
  0
LINE
  8
0
  6
CENTER
 10
266.854492
 20
81.448753
 11
192.692184
 21
81.448753
  0
LINE
  8
0
  6
CENTER
 10
228.199997
 20
133.998749
 11
228.199997
 21
-1.344600
  0
LINE
  8
0
  6
CONTINUOUS
 10
268.200012
 20
125.448753
 11
188.199997
 21
125.448753
  0
LINE
  8
0
  6
CONTINUOUS
 10
268.200012
 20
7.448750
 11
188.199997
 21
7.448750
  0
LINE
  8
0
  6
CENTER
 10
195.199997
 20
116.448753
 11
181.324997
 21
116.448753
  0
LINE
  8
0
  6
CENTER
 10
188.199997
 20
109.748749
 11
188.199997
 21
123.248749
  0
CIRCLE
  8
0
  6
CONTINUOUS
 10
188.199997
 20
116.448753
 40
4.250000
  0
LINE
  8
0
  6
CENTER
 10
195.199997
 20
16.448750
 11
181.324997
 21
16.448750
  0
LINE
  8
0
  6
CENTER
 10
188.199997
 20
23.148750
 11
188.199997
 21
9.648750
  0
CIRCLE
  8
0
  6
CONTINUOUS
 10
188.199997
 20
16.448750
 40
4.250000
  0
LINE
  8
0
  6
CENTER
 10
261.200012
 20
116.448753
 11
275.075012
 21
116.448753
  0
LINE
  8
0
  6
CENTER
 10
268.200012
 20
109.748749
 11
268.200012
 21
123.248749
  0
CIRCLE
  8
0
  6
CONTINUOUS
 10
268.200012
 20
116.448753
 40
4.250000
  0
LINE
  8
0
  6
CENTER
 10
261.200012
 20
16.448750
 11
275.075012
 21
16.448750
  0
LINE
  8
0
  6
CENTER
 10
268.200012
 20
23.148750
 11
268.200012
 21
9.648750
  0
CIRCLE
  8
0
  6
CONTINUOUS
 10
268.200012
 20
16.448750
 40
4.250000
  0
LINE
  8
0
  6
CONTINUOUS
 10
179.223297
 20
117.095383
 11
177.699997
 21
95.948753
  0
LINE
  8
0
  6
CONTINUOUS
 10
179.223297
 20
15.802190
 11
177.699997
 21
36.948750
  0
ARC
  8
0
  6
CONTINUOUS
 10
188.199997
 20
116.448753
 40
9.000000
 50
90.000000
 51
175.879898
  0
ARC
  8
0
  6
CONTINUOUS
 10
188.199997
 20
16.448750
 40
9.000000
 50
-175.879898
 51
-90.000000
  0
ARC
  8
0
  6
CONTINUOUS
 10
268.200012
 20
116.448753
 40
9.000000
 50
4.120102
 51
90.000000
  0
LINE
  8
0
  6
CONTINUOUS
 10
277.176697
 20
117.095383
 11
278.354187
 21
100.748749
  0
LINE
  8
0
  6
CONTINUOUS
 10
277.176697
 20
15.802190
 11
277.744812
 21
23.688070
  0
ARC
  8
0
  6
CONTINUOUS
 10
268.200012
 20
16.448750
 40
9.000000
 50
270.000000
 51
355.879913
  0
ARC
  8
0
  6
CONTINUOUS
 10
273.700012
 20
20.748779
 40
5.000000
 50
0.000000
 51
90.000000
  0
ARC
  8
0
  6
CONTINUOUS
 10
280.700012
 20
12.748750
 40
2.000000
 50
180.000000
 51
270.000000
  0
LINE
  8
0
  6
CONTINUOUS
 10
278.700012
 20
12.748750
 11
278.700012
 21
20.748779
  0
LINE
  8
0
  6
CONTINUOUS
 10
278.700012
 20
93.348640
 11
278.700012
 21
20.748779
  0
LINE
  8
0
  6
CONTINUOUS
 10
351.200012
 20
90.158051
 11
280.700012
 21
90.158051
  0
LINE
  8
0
  6
CONTINUOUS
 10
351.200012
 20
21.339439
 11
280.200012
 21
21.339439
  0
CIRCLE
  8
0
  6
CONTINUOUS
 10
228.199997
 20
81.448753
 40
23.500000
  0
LINE
  8
0
  6
CONTINUOUS
 10
219.790604
 20
38.448750
 11
216.324997
 21
38.448750
  0
LINE
  8
0
  6
CONTINUOUS
 10
221.703506
 20
44.253719
 11
221.703506
 21
38.448750
  0
LINE
  8
0
  6
CONTINUOUS
 10
225.035507
 20
46.362244
 11
225.035507
 21
48.444748
  0
LINE
  8
0
  6
CONTINUOUS
 10
231.699493
 20
46.362244
 11
231.699493
 21
48.444748
  0
LINE
  8
0
  6
CONTINUOUS
 10
227.716705
 20
47.221275
 11
227.716705
 21
39.542061
  0
LINE
  8
0
  6
CONTINUOUS
 10
228.966202
 20
47.221275
 11
228.966202
 21
39.542061
  0
LINE
  8
0
  6
CONTINUOUS
 10
235.526093
 20
47.221275
 11
235.526093
 21
39.490002
  0
LINE
  8
0
  6
CONTINUOUS
 10
236.671402
 20
43.121349
 11
236.671402
 21
39.490002
  0
LINE
  8
0
  6
CONTINUOUS
 10
220.122406
 20
47.117149
 11
216.911194
 21
47.117149
  0
LINE
  8
0
  6
CONTINUOUS
 10
217.408295
 20
39.620159
 11
216.923294
 21
39.620159
  0
LINE
  8
0
  6
CONTINUOUS
 10
216.911194
 20
47.117149
 11
216.158798
 21
46.184189
  0
LINE
  8
0
  6
CONTINUOUS
 10
216.249298
 20
48.444748
 11
215.039505
 21
46.895569
  0
LINE
  8
0
  6
CONTINUOUS
 10
216.158798
 20
40.425388
 11
216.923294
 21
39.620159
  0
LINE
  8
0
  6
CONTINUOUS
 10
215.039505
 20
39.745850
 11
216.324997
 21
38.448750
  0
LINE
  8
0
  6
CONTINUOUS
 10
215.039505
 20
46.895569
 11
215.039505
 21
39.745850
  0
LINE
  8
0
  6
CONTINUOUS
 10
216.158798
 20
46.184189
 11
216.158798
 21
40.425388
  0
LINE
  8
0
  6
CONTINUOUS
 10
220.740295
 20
46.519806
 11
220.109802
 21
47.117149
  0
LINE
  8
0
  6
CONTINUOUS
 10
220.730301
 20
48.444748
 11
221.703506
 21
47.364769
  0
LINE
  8
0
  6
CONTINUOUS
 10
220.740295
 20
46.362244
 11
221.703506
 21
46.362244
  0
LINE
  8
0
  6
CONTINUOUS
 10
216.249298
 20
48.444748
 11
220.730301
 21
48.444748
  0
LINE
  8
0
  6
CONTINUOUS
 10
218.996201
 20
44.253719
 11
221.703506
 21
44.253719
  0
LINE
  8
0
  6
CONTINUOUS
 10
220.740295
 20
43.160400
 11
218.996201
 21
43.160400
  0
LINE
  8
0
  6
CONTINUOUS
 10
218.241302
 20
39.620159
 11
217.408295
 21
39.620159
  0
LINE
  8
0
  6
CONTINUOUS
 10
220.740295
 20
42.119160
 11
220.740295
 21
42.952148
  0
LINE
  8
0
  6
CONTINUOUS
 10
218.657806
 20
39.620159
 11
218.241302
 21
39.620159
  0
LINE
  8
0
  6
CONTINUOUS
 10
220.740295
 20
41.702648
 11
220.740295
 21
42.119160
  0
LINE
  8
0
  6
CONTINUOUS
 10
220.740295
 20
41.647339
 11
220.740295
 21
41.702648
  0
ARC
  8
0
  6
CONTINUOUS
 10
218.657806
 20
41.702648
 40
2.082500
 50
-89.999786
 51
0.000109
  0
LINE
  8
0
  6
CONTINUOUS
 10
220.740295
 20
39.245571
 11
220.740295
 21
38.448750
  0
LINE
  8
0
  6
CONTINUOUS
 10
221.703506
 20
47.364769
 11
221.703506
 21
46.362244
  0
LINE
  8
0
  6
CONTINUOUS
 10
220.740295
 20
43.160400
 11
220.740295
 21
41.702648
  0
LINE
  8
0
  6
CONTINUOUS
 10
218.996201
 20
44.253719
 11
218.996201
 21
43.160400
  0
LINE
  8
0
  6
CONTINUOUS
 10
220.740295
 20
42.952148
 11
220.740295
 21
43.160400
  0
LINE
  8
0
  6
CONTINUOUS
 10
220.740295
 20
38.448750
 11
221.703506
 21
38.448750
  0
LINE
  8
0
  6
CONTINUOUS
 10
220.740295
 20
39.245571
 11
219.790604
 21
38.448750
  0
LINE
  8
0
  6
CONTINUOUS
 10
228.966202
 20
39.542061
 11
229.382706
 21
39.542061
  0
LINE
  8
0
  6
CONTINUOUS
 10
227.222107
 20
39.542061
 11
227.222107
 21
38.448750
  0
LINE
  8
0
  6
CONTINUOUS
 10
229.382706
 20
39.542061
 11
229.382706
 21
38.448750
  0
LINE
  8
0
  6
CONTINUOUS
 10
231.004395
 20
46.362244
 11
231.699493
 21
46.362244
  0
LINE
  8
0
  6
CONTINUOUS
 10
225.035507
 20
46.362244
 11
225.775208
 21
46.362244
  0
LINE
  8
0
  6
CONTINUOUS
 10
225.035507
 20
48.444748
 11
231.699493
 21
48.444748
  0
LINE
  8
0
  6
CONTINUOUS
 10
227.222107
 20
38.448750
 11
229.382706
 21
38.448750
  0
LINE
  8
0
  6
CONTINUOUS
 10
227.222107
 20
39.542061
 11
227.716705
 21
39.542061
  0
ARC
  8
0
  6
CONTINUOUS
 10
239.027298
 20
45.776543
 40
2.668203
 50
-73.981873
 51
90.003510
  0
ARC
  8
0
  6
CONTINUOUS
 10
239.027298
 20
45.776543
 40
1.627786
 50
-82.585274
 51
62.411850
  0
LINE
  8
0
  6
CONTINUOUS
 10
235.031494
 20
48.444748
 11
239.027298
 21
48.444748
  0
LINE
  8
0
  6
CONTINUOUS
 10
239.237305
 20
44.162369
 11
236.671402
 21
44.162369
  0
LINE
  8
0
  6
CONTINUOUS
 10
235.031494
 20
48.444748
 11
235.031494
 21
47.221275
  0
LINE
  8
0
  6
CONTINUOUS
 10
236.671402
 20
47.221275
 11
236.671402
 21
44.162369
  0
LINE
  8
0
  6
CONTINUOUS
 10
239.763504
 20
43.211929
 11
241.414993
 21
39.490002
  0
LINE
  8
0
  6
CONTINUOUS
 10
238.804306
 20
43.121349
 11
240.367203
 21
39.490002
  0
LINE
  8
0
  6
CONTINUOUS
 10
235.031494
 20
39.490002
 11
235.526093
 21
39.490002
  0
LINE
  8
0
  6
CONTINUOUS
 10
236.671402
 20
39.490002
 11
237.126999
 21
39.490002
  0
LINE
  8
0
  6
CONTINUOUS
 10
237.126999
 20
38.448750
 11
235.031494
 21
38.448750
  0
LINE
  8
0
  6
CONTINUOUS
 10
240.159607
 20
39.490002
 11
240.367203
 21
39.490002
  0
LINE
  8
0
  6
CONTINUOUS
 10
241.414993
 20
39.490002
 11
241.695496
 21
39.490002
  0
LINE
  8
0
  6
CONTINUOUS
 10
240.159607
 20
38.448750
 11
241.695496
 21
38.448750
  0
LINE
  8
0
  6
CONTINUOUS
 10
241.695496
 20
39.490002
 11
241.695496
 21
38.448750
  0
LINE
  8
0
  6
CONTINUOUS
 10
240.159607
 20
39.490002
 11
240.159607
 21
38.448750
  0
LINE
  8
0
  6
CONTINUOUS
 10
237.126999
 20
39.490002
 11
237.126999
 21
38.448750
  0
LINE
  8
0
  6
CONTINUOUS
 10
235.031494
 20
39.490002
 11
235.031494
 21
38.448750
  0
LINE
  8
0
  6
CONTINUOUS
 10
226.133102
 20
47.221275
 11
225.775208
 21
46.362244
  0
LINE
  8
0
  6
CONTINUOUS
 10
230.702499
 20
47.221275
 11
231.004395
 21
46.362244
  0
LINE
  8
0
  6
CONTINUOUS
 10
228.966202
 20
47.221275
 11
230.702499
 21
47.221275
  0
LINE
  8
0
  6
CONTINUOUS
 10
227.716705
 20
47.221275
 11
226.133102
 21
47.221275
  0
LINE
  8
0
  6
CONTINUOUS
 10
236.671402
 20
43.121349
 11
238.804306
 21
43.121349
  0
LINE
  8
0
  6
CONTINUOUS
 10
235.031494
 20
47.221275
 11
235.526093
 21
47.221275
  0
LINE
  8
0
  6
CONTINUOUS
 10
236.671402
 20
47.221275
 11
239.781097
 21
47.219254
  0
LINE
  8
0
  6
CONTINUOUS
 10
220.740295
 20
46.519806
 11
220.740295
 21
46.362244
  0
LINE
  8
0
  6
CONTINUOUS
 10
243.621094
 20
13.448750
 11
212.778900
 21
13.448750
  0
LINE
  8
0
  6
CONTINUOUS
 10
212.778900
 20
119.448753
 11
243.621094
 21
119.448753
  0
LINE
  8
0
  6
CONTINUOUS
 10
246.492599
 20
118.542038
 11
276.571411
 21
97.441940
  0
LINE
  8
0
  6
CONTINUOUS
 10
209.907501
 20
118.542030
 11
177.699997
 21
95.948753
  0
LINE
  8
0
  6
CONTINUOUS
 10
246.492599
 20
14.355460
 11
261.441498
 21
24.842020
  0
LINE
  8
0
  6
CONTINUOUS
 10
209.907394
 20
14.355470
 11
177.699997
 21
36.948750
  0
ARC
  8
0
  6
CONTINUOUS
 10
243.621201
 20
114.448753
 40
5.000000
 50
54.950710
 51
90.000000
  0
ARC
  8
0
  6
CONTINUOUS
 10
212.778900
 20
114.448753
 40
5.000000
 50
90.000000
 51
125.049500
  0
ARC
  8
0
  6
CONTINUOUS
 10
212.778900
 20
18.448750
 40
5.000000
 50
234.950500
 51
270.000000
  0
ARC
  8
0
  6
CONTINUOUS
 10
243.621094
 20
18.448750
 40
5.000000
 50
270.000000
 51
305.049591
  0
LINE
  8
0
  6
CONTINUOUS
 10
264.312897
 20
25.748751
 11
273.700012
 21
25.748751
  0
ARC
  8
0
  6
CONTINUOUS
 10
264.312897
 20
20.748760
 40
5.000000
 50
90.000000
 51
125.049698
  0
ARC
  8
0
  6
CONTINUOUS
 10
273.700012
 20
93.348640
 40
5.000000
 50
0.000000
 51
54.950691
  0
LINE
  8
0
  6
CONTINUOUS
 10
371.700012
 20
20.748751
 11
371.700012
 21
90.748749
  0
LINE
  8
0
  6
CONTINUOUS
 10
367.158600
 20
100.748749
 11
351.200012
 21
100.748749
  0
LINE
  8
0
  6
CONTINUOUS
 10
371.200012
 20
97.748749
 11
371.200012
 21
13.748750
  0
LINE
  8
0
  6
CONTINUOUS
 10
351.200012
 20
90.158051
 11
369.450012
 21
90.158051
  0
ARC
  8
0
  6
CONTINUOUS
 10
371.700012
 20
91.248749
 40
0.500000
 50
180.000000
 51
270.000000
  0
LINE
  8
0
  6
CONTINUOUS
 10
370.622589
 20
98.748741
 11
371.200012
 21
97.748749
  0
ARC
  8
0
  6
CONTINUOUS
 10
367.158508
 20
96.748756
 40
4.000000
 50
29.999599
 51
90.000000
  0
LINE
  8
0
  6
CONTINUOUS
 10
367.158600
 20
10.748750
 11
351.200012
 21
10.748750
  0
LINE
  8
0
  6
CONTINUOUS
 10
351.200012
 20
21.339451
 11
369.450012
 21
21.339451
  0
ARC
  8
0
  6
CONTINUOUS
 10
371.700012
 20
20.248751
 40
0.500000
 50
90.000000
 51
180.000000
  0
LINE
  8
0
  6
CONTINUOUS
 10
370.622589
 20
12.748760
 11
371.200012
 21
13.748750
  0
ARC
  8
0
  6
CONTINUOUS
 10
367.158508
 20
14.748740
 40
4.000000
 50
270.000000
 51
330.000397
  0
LINE
  8
0
  6
CONTINUOUS
 10
121.871246
 20
72.448753
 11
121.871246
 21
90.448753
  0
LINE
  8
0
  6
CONTINUOUS
 10
91.871246
 20
90.448753
 11
121.871246
 21
90.448753
  0
LINE
  8
0
  6
CONTINUOUS
 10
91.871246
 20
72.448753
 11
121.871246
 21
72.448753
  0
LINE
  8
0
  6
CONTINUOUS
 10
91.871246
 20
91.448753
 11
91.871246
 21
71.448753
  0
LINE
  8
0
  6
CONTINUOUS
 10
89.871246
 20
91.448753
 11
91.871246
 21
91.448753
  0
LINE
  8
0
  6
CONTINUOUS
 10
89.871246
 20
71.448753
 11
91.871246
 21
71.448753
  0
ARC
  8
0
  6
CONTINUOUS
 10
97.871246
 20
81.448753
 40
3.000000
 50
90.000000
 51
270.000000
  0
LINE
  8
0
  6
CONTINUOUS
 10
97.871246
 20
84.448753
 11
121.871246
 21
84.448753
  0
LINE
  8
0
  6
CONTINUOUS
 10
97.871269
 20
78.448753
 11
121.871246
 21
78.448753
  0
LINE
  8
0
  6
CONTINUOUS
 10
222.699997
 20
84.448753
 11
222.699997
 21
78.448753
  0
LINE
  8
0
  6
CONTINUOUS
 10
216.699997
 20
84.448753
 11
216.699997
 21
78.448753
  0
LINE
  8
0
  6
CONTINUOUS
 10
216.699997
 20
84.448753
 11
222.699997
 21
84.448753
  0
LINE
  8
0
  6
CONTINUOUS
 10
216.699997
 20
78.448753
 11
222.699997
 21
78.448753
  0
ARC
  8
0
  6
CONTINUOUS
 10
228.199997
 20
81.448753
 40
9.000000
 50
-160.528793
 51
160.528793
  0
LINE
  8
0
  6
CENTER
 10
228.199997
 20
165.419998
 11
228.199997
 21
310.737823
  0
LINE
  8
0
  6
CENTER
 10
385.186249
 20
246.297501
 11
164.058746
 21
246.297501
  0
LINE
  8
0
  6
CONTINUOUS
 10
181.874115
 20
209.297501
 11
276.751678
 21
209.297501
  0
LINE
  8
0
  6
CONTINUOUS
 10
371.700012
 20
281.297485
 11
371.700012
 21
211.297501
  0
LINE
  8
0
  6
CONTINUOUS
 10
367.158539
 20
201.297501
 11
351.200012
 21
201.297501
  0
LINE
  8
0
  6
CONTINUOUS
 10
371.200012
 20
204.297501
 11
371.200012
 21
288.297485
  0
LINE
  8
0
  6
CONTINUOUS
 10
351.200012
 20
217.297501
 11
369.450012
 21
217.297501
  0
ARC
  8
0
  6
CONTINUOUS
 10
371.700012
 20
210.797501
 40
0.500000
 50
90.000000
 51
180.000000
  0
LINE
  8
0
  6
CONTINUOUS
 10
370.622650
 20
203.297516
 11
371.200012
 21
204.297501
  0
ARC
  8
0
  6
CONTINUOUS
 10
367.158539
 20
205.297485
 40
4.000000
 50
270.000000
 51
330.000397
  0
LINE
  8
0
  6
CONTINUOUS
 10
367.158539
 20
291.297485
 11
351.200012
 21
291.297485
  0
ARC
  8
0
  6
CONTINUOUS
 10
371.700012
 20
281.797485
 40
0.500000
 50
180.000000
 51
270.000000
  0
LINE
  8
0
  6
CONTINUOUS
 10
370.622650
 20
289.297485
 11
371.200012
 21
288.297485
  0
ARC
  8
0
  6
CONTINUOUS
 10
367.158539
 20
287.297516
 40
4.000000
 50
29.999599
 51
90.000000
  0
LINE
  8
0
  6
CONTINUOUS
 10
351.200012
 20
291.297485
 11
351.200012
 21
271.297516
  0
LINE
  8
0
  6
CONTINUOUS
 10
278.909424
 20
217.294754
 11
278.751007
 21
211.245148
  0
LINE
  8
0
  6
CONTINUOUS
 10
280.857788
 20
201.297501
 11
351.200012
 21
201.297501
  0
LINE
  8
0
  6
CONTINUOUS
 10
351.200012
 20
217.297501
 11
271.857452
 21
217.297501
  0
LINE
  8
0
  6
CONTINUOUS
 10
351.200012
 20
275.297485
 11
369.450012
 21
275.297485
  0
LINE
  8
0
  6
CONTINUOUS
 10
351.200012
 20
275.297485
 11
280.583130
 21
275.297485
  0
LINE
  8
0
  6
CONTINUOUS
 10
280.726868
 20
291.297485
 11
351.200012
 21
291.297485
  0
LINE
  8
0
  6
CONTINUOUS
 10
279.956909
 20
246.297501
 11
278.700012
 21
294.297485
  0
LINE
  8
0
  6
CONTINUOUS
 10
245.199997
 20
214.297501
 11
245.199997
 21
282.297485
  0
LINE
  8
0
  6
CONTINUOUS
 10
211.199997
 20
214.297501
 11
211.199997
 21
282.297485
  0
LINE
  8
0
  6
CONTINUOUS
 10
271.857452
 20
219.297501
 11
271.857452
 21
282.762512
  0
LINE
  8
0
  6
CONTINUOUS
 10
205.699997
 20
204.297501
 11
250.699997
 21
204.297501
  0
LINE
  8
0
  6
CONTINUOUS
 10
251.699997
 20
205.297501
 11
251.699997
 21
207.297501
  0
LINE
  8
0
  6
CONTINUOUS
 10
204.699997
 20
205.297501
 11
204.699997
 21
207.297501
  0
ARC
  8
0
  6
CONTINUOUS
 10
253.699997
 20
207.297501
 40
2.000000
 50
90.000000
 51
180.000000
  0
ARC
  8
0
  6
CONTINUOUS
 10
202.700012
 20
207.297501
 40
2.000000
 50
0.000000
 51
90.000000
  0
ARC
  8
0
  6
CONTINUOUS
 10
250.699997
 20
205.297501
 40
1.000000
 50
-90.000000
 51
0.000000
  0
ARC
  8
0
  6
CONTINUOUS
 10
205.699997
 20
205.297501
 40
1.000000
 50
180.000000
 51
270.000000
  0
LINE
  8
0
  6
CONTINUOUS
 10
216.699997
 20
172.297501
 11
237.199997
 21
172.297501
  0
LINE
  8
0
  6
CONTINUOUS
 10
237.199997
 20
202.297501
 11
237.199997
 21
172.297501
  0
LINE
  8
0
  6
CONTINUOUS
 10
219.199997
 20
202.297501
 11
219.199997
 21
199.297501
  0
LINE
  8
0
  6
CONTINUOUS
 10
238.199997
 20
202.297501
 11
218.199997
 21
202.297501
  0
LINE
  8
0
  6
CONTINUOUS
 10
238.199997
 20
204.297501
 11
238.199997
 21
202.297501
  0
LINE
  8
0
  6
CONTINUOUS
 10
218.199997
 20
204.297501
 11
218.199997
 21
202.297501
  0
LINE
  8
0
  6
CONTINUOUS
 10
216.699997
 20
172.297501
 11
216.699997
 21
199.297501
  0
LINE
  8
0
  6
CONTINUOUS
 10
216.699997
 20
199.297501
 11
219.714996
 21
199.297501
  0
LINE
  8
0
  6
CONTINUOUS
 10
219.714996
 20
172.297501
 11
219.714996
 21
199.297501
  0
LINE
  8
0
  6
CONTINUOUS
 10
351.200012
 20
221.297516
 11
351.200012
 21
201.297501
  0
LINE
  8
0
  6
CONTINUOUS
 10
278.700012
 20
294.297485
 11
177.699997
 21
294.297485
  0
LINE
  8
0
  6
CONTINUOUS
 10
179.874802
 20
211.245148
 11
177.699997
 21
294.297485
  0
LINE
  8
0
  6
CONTINUOUS
 10
276.908813
 20
284.297485
 11
179.910172
 21
284.297485
  0
ARC
  8
0
  6
CONTINUOUS
 10
179.910172
 20
286.297485
 40
2.000000
 50
181.500000
 51
270.000000
  0
ARC
  8
0
  6
CONTINUOUS
 10
181.874115
 20
211.297501
 40
2.000000
 50
181.500000
 51
270.000000
  0
ARC
  8
0
  6
CONTINUOUS
 10
209.199997
 20
282.297485
 40
2.000000
 50
0.000000
 51
90.000000
  0
ARC
  8
0
  6
CONTINUOUS
 10
247.199997
 20
282.297485
 40
2.000000
 50
90.000000
 51
180.000000
  0
LINE
  8
0
  6
CONTINUOUS
 10
245.341934
 20
283.037506
 11
211.058060
 21
283.037506
  0
ARC
  8
0
  6
CONTINUOUS
 10
276.908813
 20
286.297485
 40
2.000000
 50
-90.000000
 51
1.500000
  0
ARC
  8
0
  6
CONTINUOUS
 10
280.726868
 20
293.297485
 40
2.000000
 50
181.500000
 51
270.000000
  0
LINE
  8
0
  6
CONTINUOUS
 10
278.858490
 20
203.245148
 11
278.751007
 21
207.349854
  0
ARC
  8
0
  6
CONTINUOUS
 10
280.857788
 20
203.297501
 40
2.000000
 50
181.500000
 51
270.000000
  0
ARC
  8
0
  6
CONTINUOUS
 10
276.751678
 20
207.297501
 40
2.000000
 50
1.500000
 51
90.000000
  0
ARC
  8
0
  6
CONTINUOUS
 10
276.751678
 20
211.297501
 40
2.000000
 50
270.000000
 51
358.500000
  0
LINE
  8
0
  6
CENTER
 10
188.199997
 20
301.986084
 11
188.199997
 21
278.123444
  0
LINE
  8
0
  6
DASHED
 10
183.949997
 20
284.297485
 11
183.949997
 21
294.297485
  0
LINE
  8
0
  6
DASHED
 10
192.449997
 20
284.297485
 11
192.449997
 21
294.297485
  0
LINE
  8
0
  6
CENTER
 10
268.200012
 20
301.986084
 11
268.200012
 21
278.123444
  0
LINE
  8
0
  6
DASHED
 10
272.450012
 20
284.297485
 11
272.450012
 21
294.297485
  0
LINE
  8
0
  6
DASHED
 10
263.950012
 20
284.297485
 11
263.950012
 21
294.297485
  0
LINE
  8
0
  6
CONTINUOUS
 10
358.700012
 20
102.248749
 11
312.200012
 21
102.248749
  0
LINE
  8
0
  6
CONTINUOUS
 10
310.200012
 20
132.248749
 11
310.200012
 21
104.248749
  0
LINE
  8
0
  6
CONTINUOUS
 10
360.200012
 20
132.248749
 11
360.200012
 21
104.248749
  0
LINE
  8
0
  6
CONTINUOUS
 10
362.200012
 20
114.248749
 11
310.200012
 21
114.248749
  0
LINE
  8
0
  6
CONTINUOUS
 10
312.200012
 20
102.248749
 11
310.200012
 21
104.248749
  0
LINE
  8
0
  6
CONTINUOUS
 10
360.200012
 20
104.248749
 11
358.200012
 21
102.248749
  0
LINE
  8
0
  6
CONTINUOUS
 10
360.200012
 20
104.248749
 11
310.200012
 21
104.248749
  0
LINE
  8
0
  6
CONTINUOUS
 10
359.200012
 20
133.248749
 11
311.200012
 21
133.248749
  0
LINE
  8
0
  6
CONTINUOUS
 10
311.200012
 20
133.248749
 11
310.200012
 21
132.248749
  0
LINE
  8
0
  6
CONTINUOUS
 10
359.200012
 20
133.248749
 11
360.200012
 21
132.248749
  0
LINE
  8
0
  6
CONTINUOUS
 10
360.200012
 20
132.248749
 11
310.200012
 21
132.248749
  0
LINE
  8
0
  6
CONTINUOUS
 10
362.199982
 20
130.248749
 11
362.200012
 21
114.248749
  0
LINE
  8
0
  6
CONTINUOUS
 10
361.200012
 20
131.248749
 11
360.200012
 21
131.248749
  0
ARC
  8
0
  6
CONTINUOUS
 10
361.199982
 20
130.248749
 40
1.000000
 50
0.000000
 51
90.000000
  0
LINE
  8
0
  6
CONTINUOUS
 10
365.699982
 20
127.748749
 11
365.699982
 21
119.748749
  0
LINE
  8
0
  6
CONTINUOUS
 10
365.699982
 20
127.748749
 11
362.199982
 21
129.248749
  0
LINE
  8
0
  6
CONTINUOUS
 10
365.700012
 20
119.748749
 11
362.200012
 21
118.248749
  0
LINE
  8
0
  6
CENTER
 10
335.200012
 20
97.555000
 11
335.200012
 21
138.636246
  0
LINE
  8
0
  6
CONTINUOUS
 10
358.700012
 20
102.248749
 11
358.700012
 21
100.748749
  0
LINE
  8
0
  6
CONTINUOUS
 10
312.700012
 20
102.248749
 11
312.700012
 21
100.748749
  0
LINE
  8
0
  6
CENTER
 10
368.143738
 20
123.748749
 11
356.068756
 21
123.748749
  0
LINE
  8
0
  6
CONTINUOUS
 10
361.200012
 20
238.797516
 11
360.200012
 21
238.797516
  0
ARC
  8
0
  6
CONTINUOUS
 10
361.199982
 20
239.797516
 40
1.000000
 50
-90.000000
 51
0.000000
  0
LINE
  8
0
  6
CONTINUOUS
 10
365.699982
 20
242.297516
 11
365.699982
 21
250.297516
  0
LINE
  8
0
  6
CONTINUOUS
 10
365.699982
 20
242.297516
 11
362.199982
 21
240.797516
  0
LINE
  8
0
  6
CONTINUOUS
 10
365.700012
 20
250.297516
 11
362.200012
 21
251.797516
  0
LINE
  8
0
  6
CONTINUOUS
 10
362.199982
 20
239.797516
 11
362.199982
 21
252.797516
  0
LINE
  8
0
  6
CONTINUOUS
 10
361.200012
 20
253.797516
 11
360.200012
 21
253.797516
  0
ARC
  8
0
  6
CONTINUOUS
 10
361.199982
 20
252.797516
 40
1.000000
 50
0.000000
 51
90.000000
  0
LINE
  8
0
  6
CONTINUOUS
 10
360.200012
 20
269.297516
 11
360.200012
 21
223.297516
  0
LINE
  8
0
  6
CONTINUOUS
 10
358.200012
 20
221.297516
 11
360.200012
 21
223.297516
  0
LINE
  8
0
  6
CONTINUOUS
 10
358.200012
 20
221.297516
 11
312.200012
 21
221.297516
  0
LINE
  8
0
  6
CONTINUOUS
 10
317.700012
 20
225.797516
 11
317.700012
 21
221.297516
  0
ARC
  8
0
  6
CONTINUOUS
 10
314.700012
 20
225.797516
 40
3.000000
 50
0.000000
 51
90.000000
  0
LINE
  8
0
  6
CONTINUOUS
 10
314.700012
 20
228.797516
 11
310.200012
 21
228.797516
  0
CIRCLE
  8
0
  6
CONTINUOUS
 10
313.700012
 20
224.797516
 40
2.250000
  0
LINE
  8
0
  6
CONTINUOUS
 10
310.200012
 20
269.297516
 11
310.200012
 21
223.297516
  0
LINE
  8
0
  6
CONTINUOUS
 10
312.200012
 20
221.297516
 11
310.200012
 21
223.297516
  0
LINE
  8
0
  6
CONTINUOUS
 10
312.200012
 20
271.297516
 11
310.200012
 21
269.297516
  0
LINE
  8
0
  6
CONTINUOUS
 10
312.200012
 20
271.297516
 11
358.200012
 21
271.297516
  0
LINE
  8
0
  6
CONTINUOUS
 10
360.200012
 20
269.297516
 11
358.200012
 21
271.297516
  0
LINE
  8
0
  6
CONTINUOUS
 10
355.700012
 20
263.797516
 11
360.199982
 21
263.797516
  0
CIRCLE
  8
0
  6
CONTINUOUS
 10
356.700012
 20
267.797516
 40
2.250000
  0
ARC
  8
0
  6
CONTINUOUS
 10
355.700012
 20
266.797516
 40
3.000000
 50
180.000000
 51
270.000000
  0
LINE
  8
0
  6
CONTINUOUS
 10
352.700012
 20
266.797516
 11
352.700012
 21
271.297516
  0
LINE
  8
0
  6
CENTER
 10
335.200012
 20
278.763306
 11
335.200012
 21
214.631271
  0
LINE
  8
0
  6
CONTINUOUS
 10
357.785767
 20
222.297501
 11
359.199982
 21
223.711716
  0
LINE
  8
0
  6
CONTINUOUS
 10
359.199982
 20
263.797485
 11
359.199982
 21
223.711716
  0
LINE
  8
0
  6
CONTINUOUS
 10
317.700012
 20
222.297501
 11
357.785767
 21
222.297501
  0
LINE
  8
0
  6
CONTINUOUS
 10
311.200012
 20
228.797501
 11
311.200012
 21
268.883301
  0
LINE
  8
0
  6
CONTINUOUS
 10
352.700012
 20
270.297485
 11
312.614227
 21
270.297485
  0
LINE
  8
0
  6
CONTINUOUS
 10
312.614227
 20
270.297485
 11
311.200012
 21
268.883301
  0
LINE
  8
0
  6
CONTINUOUS
 10
72.871239
 20
132.248749
 11
72.871239
 21
119.658165
  0
LINE
  8
0
  6
CONTINUOUS
 10
22.871250
 20
132.248749
 11
22.871250
 21
120.530708
  0
LINE
  8
0
  6
CONTINUOUS
 10
23.871250
 20
133.248749
 11
71.871239
 21
133.248749
  0
LINE
  8
0
  6
CONTINUOUS
 10
71.871239
 20
133.248749
 11
72.871239
 21
132.248749
  0
LINE
  8
0
  6
CONTINUOUS
 10
23.871250
 20
133.248749
 11
22.871250
 21
132.248749
  0
LINE
  8
0
  6
CONTINUOUS
 10
22.871250
 20
132.248749
 11
72.871239
 21
132.248749
  0
TEXT
  8
0
 10
-69.000000
 20
-1.000000
 40
4.000000
 41
1.000000
  1
HFM-18L-160~240-S40WT
 50
0.000000
  0
ENDSEC
  0
EOF
