  0
SECTION
  2
HEADER
  9
$CLAYER
  8
1
  9
$LTSCALE
 40
3.0
  0
ENDSEC
  0
SECTION
  2
TABLES
  0
TABLE
  2
LTYPE
 70
     4
  0
LTYPE
  2
CONTINUOUS
  3
solid line
 70
    64
 72
    65
 73
     0
 40
0.0
  0
LTYPE
  2
DASHED
  3
__ __ __ __ __ __ __ __ __ __ __ __ __ __ __
 70
    64
 72
    65
 73
     2
 40
0.75
 49
0.5
 49
-0.25
  0
LTYPE
  2
CENTER
  3
____ _ ____ _ ____ _ ____ _ ____ _ ____ _ ____
 70
    64
 72
    65
 73
     4
 40
2.0
 49
1.25
 49
-0.25
 49
0.25
 49
-0.25
  0
LTYPE
  2
PHANTOM
  3
_____ _ _ _____ _ _ _____ _ _ _____ _ _ ____
 70
    64
 72
    65
 73
     6
 40
2.5
 49
1.25
 49
-0.25
 49
0.25
 49
-0.25
 49
0.25
 49
-0.25
  0
ENDTAB
  0
TABLE
  2
LAYER
 70
     1
  0
LAYER
  2
0
 70
    64
 62
     7
  6
CONTINUOUS
  0
ENDTAB
  0
TABLE
  2
STYLE
 70
     1
  0
STYLE
  2
STANDARD
 70
     0
 40
0.000000
 41
1.000000
 50
0.000000
 71
     0
 42
3.000000
  3
txt
  4
BIGFONT
  0
ENDTAB
  0
ENDSEC
  0
SECTION
  2
BLOCKS
  0
ENDSEC
  0
SECTION
  2
ENTITIES
  0
LINE
  8
0
  6
CENTER
 10
55.770000
 20
5.340000
 11
55.770000
 21
146.322037
  0
LINE
  8
0
  6
CONTINUOUS
 10
7.770000
 20
130.039993
 11
7.770000
 21
12.040000
  0
LINE
  8
0
  6
CONTINUOUS
 10
97.769997
 20
108.539993
 11
97.769997
 21
63.539989
  0
LINE
  8
0
  6
CONTINUOUS
 10
92.769997
 20
121.091881
 11
92.769997
 21
20.988079
  0
LINE
  8
0
  6
CENTER
 10
-1.542500
 20
86.040001
 11
137.707504
 21
86.040001
  0
LINE
  8
0
  6
CONTINUOUS
 10
94.770020
 20
109.540001
 11
96.769997
 21
109.540001
  0
LINE
  8
0
  6
CONTINUOUS
 10
94.770020
 20
62.539993
 11
96.769997
 21
62.539993
  0
LINE
  8
0
  6
CONTINUOUS
 10
17.770000
 20
38.540009
 11
17.770000
 21
13.540000
  0
LINE
  8
0
  6
CONTINUOUS
 10
16.235352
 20
130.039993
 11
7.770000
 21
130.039993
  0
LINE
  8
0
  6
CONTINUOUS
 10
16.235352
 20
12.040000
 11
7.770000
 21
12.040000
  0
LINE
  8
0
  6
CONTINUOUS
 10
89.822342
 20
124.091431
 11
19.735109
 21
125.314529
  0
LINE
  8
0
  6
CONTINUOUS
 10
89.822357
 20
17.988541
 11
19.735081
 21
16.764919
  0
LINE
  8
0
  6
CONTINUOUS
 10
91.003471
 20
100.540001
 11
20.770020
 21
100.540001
  0
LINE
  8
0
  6
CONTINUOUS
 10
91.003471
 20
41.540001
 11
20.770020
 21
41.540001
  0
ARC
  8
0
  6
CONTINUOUS
 10
89.770020
 20
121.091881
 40
3.000000
 50
0.000000
 51
89.000359
  0
ARC
  8
0
  6
CONTINUOUS
 10
89.769997
 20
20.988079
 40
3.000000
 50
-88.999687
 51
0.000000
  0
ARC
  8
0
  6
CONTINUOUS
 10
20.770020
 20
38.540020
 40
3.000000
 50
90.000000
 51
180.000000
  0
ARC
  8
0
  6
CONTINUOUS
 10
20.770000
 20
103.540001
 40
3.000000
 50
180.000000
 51
270.000000
  0
LINE
  8
0
  6
CENTER
 10
2.707500
 20
21.040001
 11
22.457500
 21
21.040001
  0
LINE
  8
0
  6
CENTER
 10
4.457500
 20
121.040001
 11
21.457500
 21
121.040001
  0
LINE
  8
0
  6
DASHED
 10
7.770000
 20
116.790001
 11
17.770000
 21
116.790001
  0
LINE
  8
0
  6
DASHED
 10
7.770000
 20
125.290001
 11
17.770000
 21
125.290001
  0
LINE
  8
0
  6
DASHED
 10
7.770000
 20
25.290001
 11
17.770000
 21
25.290001
  0
LINE
  8
0
  6
DASHED
 10
7.770000
 20
16.790001
 11
17.770000
 21
16.790001
  0
LINE
  8
0
  6
CONTINUOUS
 10
29.770020
 20
15.340000
 11
81.769989
 21
15.340000
  0
ARC
  8
0
  6
CONTINUOUS
 10
81.769997
 20
18.340000
 40
3.000000
 50
270.000000
 51
351.561890
  0
ARC
  8
0
  6
CONTINUOUS
 10
29.770000
 20
18.340000
 40
3.000000
 50
208.811905
 51
270.000000
  0
ARC
  8
0
  6
CONTINUOUS
 10
94.769997
 20
111.540001
 40
2.000000
 50
180.000000
 51
270.000000
  0
ARC
  8
0
  6
CONTINUOUS
 10
94.770020
 20
60.540005
 40
2.000000
 50
90.000000
 51
180.000000
  0
ARC
  8
0
  6
CONTINUOUS
 10
96.769997
 20
63.539989
 40
1.000000
 50
-90.000000
 51
0.000000
  0
ARC
  8
0
  6
CONTINUOUS
 10
96.769997
 20
108.539993
 40
1.000000
 50
0.000000
 51
90.000000
  0
ARC
  8
0
  6
CONTINUOUS
 10
55.770000
 20
60.339996
 40
45.000000
 50
-34.692108
 51
20.459709
  0
ARC
  8
0
  6
CONTINUOUS
 10
16.270000
 20
13.540000
 40
1.500000
 50
-90.000000
 51
0.000000
  0
LINE
  8
0
  6
CENTER
 10
-1.542500
 20
60.339996
 11
109.769997
 21
60.339996
  0
LINE
  8
0
  6
CONTINUOUS
 10
17.770000
 20
128.039993
 11
17.770000
 21
103.539993
  0
ARC
  8
0
  6
CONTINUOUS
 10
15.770011
 20
128.039993
 40
2.000000
 50
0.000000
 51
90.000000
  0
LINE
  8
0
  6
CONTINUOUS
 10
18.167210
 20
128.557632
 11
18.447809
 21
127.510399
  0
ARC
  8
0
  6
CONTINUOUS
 10
16.235359
 20
128.039993
 40
2.000000
 50
15.000470
 51
90.000000
  0
ARC
  8
0
  6
CONTINUOUS
 10
19.769979
 20
127.314240
 40
2.000000
 50
180.000000
 51
269.000610
  0
ARC
  8
0
  6
CONTINUOUS
 10
21.345570
 20
128.286896
 40
3.000000
 50
195.000504
 51
269.000488
  0
LINE
  8
0
  6
CONTINUOUS
 10
18.167200
 20
13.522360
 11
18.447651
 21
14.569030
  0
ARC
  8
0
  6
CONTINUOUS
 10
16.235352
 20
14.040000
 40
2.000000
 50
270.000000
 51
345.000000
  0
ARC
  8
0
  6
CONTINUOUS
 10
19.770020
 20
14.765240
 40
2.000000
 50
91.000641
 51
180.000000
  0
ARC
  8
0
  6
CONTINUOUS
 10
21.345440
 20
13.792580
 40
3.000000
 50
91.000458
 51
165.000198
  0
LINE
  8
0
  6
CONTINUOUS
 10
102.769997
 20
34.239491
 11
102.769997
 21
77.040001
  0
LINE
  8
0
  6
CONTINUOUS
 10
29.669479
 20
13.340000
 11
81.870506
 21
13.340000
  0
LINE
  8
0
  6
CONTINUOUS
 10
24.719749
 20
15.390240
 11
23.283119
 21
16.826851
  0
ARC
  8
0
  6
CONTINUOUS
 10
95.769997
 20
34.239479
 40
7.000000
 50
-44.999882
 51
0.000000
  0
ARC
  8
0
  6
CONTINUOUS
 10
81.870506
 20
20.340000
 40
7.000000
 50
270.000000
 51
315.000000
  0
ARC
  8
0
  6
CONTINUOUS
 10
29.669479
 20
20.340000
 40
7.000000
 50
225.000107
 51
270.000000
  0
LINE
  8
0
  6
CONTINUOUS
 10
86.820251
 20
15.390250
 11
89.411369
 21
17.981380
  0
LINE
  8
0
  6
CONTINUOUS
 10
100.719749
 20
29.289749
 11
92.769997
 21
21.340000
  0
LINE
  8
0
  6
CONTINUOUS
 10
129.770004
 20
77.040001
 11
129.770004
 21
95.040001
  0
LINE
  8
0
  6
CONTINUOUS
 10
99.769997
 20
95.040001
 11
129.770004
 21
95.040001
  0
LINE
  8
0
  6
CONTINUOUS
 10
99.769997
 20
77.040001
 11
129.770004
 21
77.040001
  0
LINE
  8
0
  6
CONTINUOUS
 10
99.769997
 20
96.040001
 11
99.769997
 21
76.040001
  0
LINE
  8
0
  6
CONTINUOUS
 10
97.769997
 20
96.040001
 11
99.769997
 21
96.040001
  0
LINE
  8
0
  6
CONTINUOUS
 10
97.769997
 20
76.040001
 11
99.769997
 21
76.040001
  0
ARC
  8
0
  6
CONTINUOUS
 10
105.769997
 20
86.040001
 40
3.000000
 50
90.000000
 51
270.000000
  0
LINE
  8
0
  6
CONTINUOUS
 10
105.769997
 20
89.040001
 11
129.770004
 21
89.040001
  0
LINE
  8
0
  6
CONTINUOUS
 10
105.770020
 20
83.040001
 11
129.770004
 21
83.040001
  0
LINE
  8
0
  6
CONTINUOUS
 10
378.769989
 20
15.340000
 11
378.769989
 21
105.339996
  0
LINE
  8
0
  6
CENTER
 10
445.966888
 20
60.339996
 11
276.765015
 21
60.339996
  0
LINE
  8
0
  6
CONTINUOUS
 10
205.270004
 20
41.540001
 11
205.270004
 21
100.540001
  0
LINE
  8
0
  6
CONTINUOUS
 10
378.769989
 20
105.339996
 11
299.427399
 21
105.339996
  0
LINE
  8
0
  6
CONTINUOUS
 10
308.269989
 20
15.340000
 11
378.769989
 21
15.340000
  0
LINE
  8
0
  6
CENTER
 10
288.336243
 20
86.040001
 11
220.559998
 21
86.040001
  0
LINE
  8
0
  6
CENTER
 10
255.770004
 20
138.589996
 11
255.770004
 21
3.246650
  0
LINE
  8
0
  6
CONTINUOUS
 10
295.769989
 20
130.039993
 11
215.770004
 21
130.039993
  0
LINE
  8
0
  6
CONTINUOUS
 10
295.769989
 20
12.040000
 11
215.770004
 21
12.040000
  0
LINE
  8
0
  6
CENTER
 10
222.770004
 20
121.040001
 11
208.895004
 21
121.040001
  0
LINE
  8
0
  6
CENTER
 10
215.770004
 20
114.339996
 11
215.770004
 21
127.839996
  0
CIRCLE
  8
0
  6
CONTINUOUS
 10
215.770004
 20
121.040001
 40
4.250000
  0
LINE
  8
0
  6
CENTER
 10
222.770004
 20
21.040001
 11
208.895004
 21
21.040001
  0
LINE
  8
0
  6
CENTER
 10
215.770004
 20
27.740000
 11
215.770004
 21
14.240000
  0
CIRCLE
  8
0
  6
CONTINUOUS
 10
215.770004
 20
21.040001
 40
4.250000
  0
LINE
  8
0
  6
CENTER
 10
288.769989
 20
121.040001
 11
302.644989
 21
121.040001
  0
LINE
  8
0
  6
CENTER
 10
295.769989
 20
114.339996
 11
295.769989
 21
127.839996
  0
CIRCLE
  8
0
  6
CONTINUOUS
 10
295.769989
 20
121.040001
 40
4.250000
  0
LINE
  8
0
  6
CENTER
 10
288.769989
 20
21.040001
 11
302.644989
 21
21.040001
  0
LINE
  8
0
  6
CENTER
 10
295.769989
 20
27.740000
 11
295.769989
 21
14.240000
  0
CIRCLE
  8
0
  6
CONTINUOUS
 10
295.769989
 20
21.040001
 40
4.250000
  0
LINE
  8
0
  6
CONTINUOUS
 10
206.793304
 20
121.686630
 11
205.270004
 21
100.540001
  0
LINE
  8
0
  6
CONTINUOUS
 10
206.793304
 20
20.393440
 11
205.270004
 21
41.540001
  0
ARC
  8
0
  6
CONTINUOUS
 10
215.770004
 20
121.040001
 40
9.000000
 50
90.000000
 51
175.879898
  0
ARC
  8
0
  6
CONTINUOUS
 10
215.770004
 20
21.040001
 40
9.000000
 50
-175.879898
 51
-90.000000
  0
ARC
  8
0
  6
CONTINUOUS
 10
295.769989
 20
121.040001
 40
9.000000
 50
4.120102
 51
90.000000
  0
LINE
  8
0
  6
CONTINUOUS
 10
304.746704
 20
121.686630
 11
305.924194
 21
105.339996
  0
LINE
  8
0
  6
CONTINUOUS
 10
304.746704
 20
20.393440
 11
305.314789
 21
28.279320
  0
ARC
  8
0
  6
CONTINUOUS
 10
295.769989
 20
21.040001
 40
9.000000
 50
270.000000
 51
355.879913
  0
ARC
  8
0
  6
CONTINUOUS
 10
301.269989
 20
25.340031
 40
5.000000
 50
0.000000
 51
90.000000
  0
ARC
  8
0
  6
CONTINUOUS
 10
308.269989
 20
17.340000
 40
2.000000
 50
180.000000
 51
270.000000
  0
LINE
  8
0
  6
CONTINUOUS
 10
306.269989
 20
17.340000
 11
306.269989
 21
25.340031
  0
LINE
  8
0
  6
CONTINUOUS
 10
306.269989
 20
97.939888
 11
306.269989
 21
25.340031
  0
LINE
  8
0
  6
CONTINUOUS
 10
378.769989
 20
94.749298
 11
308.269989
 21
94.749298
  0
LINE
  8
0
  6
CONTINUOUS
 10
378.769989
 20
25.930691
 11
307.769989
 21
25.930691
  0
CIRCLE
  8
0
  6
CONTINUOUS
 10
255.770004
 20
86.040001
 40
23.500000
  0
LINE
  8
0
  6
CONTINUOUS
 10
247.360596
 20
43.040001
 11
243.895004
 21
43.040001
  0
LINE
  8
0
  6
CONTINUOUS
 10
249.273499
 20
48.844971
 11
249.273499
 21
43.040001
  0
LINE
  8
0
  6
CONTINUOUS
 10
252.605499
 20
50.953491
 11
252.605499
 21
53.035995
  0
LINE
  8
0
  6
CONTINUOUS
 10
259.269501
 20
50.953491
 11
259.269501
 21
53.035995
  0
LINE
  8
0
  6
CONTINUOUS
 10
255.286697
 20
51.812523
 11
255.286697
 21
44.133308
  0
LINE
  8
0
  6
CONTINUOUS
 10
256.536194
 20
51.812523
 11
256.536194
 21
44.133308
  0
LINE
  8
0
  6
CONTINUOUS
 10
263.096100
 20
51.812523
 11
263.096100
 21
44.081249
  0
LINE
  8
0
  6
CONTINUOUS
 10
264.241394
 20
47.712601
 11
264.241394
 21
44.081249
  0
LINE
  8
0
  6
CONTINUOUS
 10
247.692398
 20
51.708397
 11
244.481201
 21
51.708397
  0
LINE
  8
0
  6
CONTINUOUS
 10
244.978302
 20
44.211411
 11
244.493301
 21
44.211411
  0
LINE
  8
0
  6
CONTINUOUS
 10
244.481201
 20
51.708397
 11
243.728806
 21
50.775436
  0
LINE
  8
0
  6
CONTINUOUS
 10
243.819305
 20
53.035995
 11
242.609497
 21
51.486816
  0
LINE
  8
0
  6
CONTINUOUS
 10
243.728806
 20
45.016640
 11
244.493301
 21
44.211411
  0
LINE
  8
0
  6
CONTINUOUS
 10
242.609497
 20
44.337101
 11
243.895004
 21
43.040001
  0
LINE
  8
0
  6
CONTINUOUS
 10
242.609497
 20
51.486816
 11
242.609497
 21
44.337101
  0
LINE
  8
0
  6
CONTINUOUS
 10
243.728806
 20
50.775436
 11
243.728806
 21
45.016640
  0
LINE
  8
0
  6
CONTINUOUS
 10
248.310303
 20
51.111053
 11
247.679794
 21
51.708397
  0
LINE
  8
0
  6
CONTINUOUS
 10
248.300293
 20
53.035995
 11
249.273499
 21
51.956017
  0
LINE
  8
0
  6
CONTINUOUS
 10
248.310303
 20
50.953491
 11
249.273499
 21
50.953491
  0
LINE
  8
0
  6
CONTINUOUS
 10
243.819305
 20
53.035995
 11
248.300293
 21
53.035995
  0
LINE
  8
0
  6
CONTINUOUS
 10
246.566193
 20
48.844971
 11
249.273499
 21
48.844971
  0
LINE
  8
0
  6
CONTINUOUS
 10
248.310303
 20
47.751652
 11
246.566193
 21
47.751652
  0
LINE
  8
0
  6
CONTINUOUS
 10
245.811295
 20
44.211411
 11
244.978302
 21
44.211411
  0
LINE
  8
0
  6
CONTINUOUS
 10
248.310303
 20
46.710411
 11
248.310303
 21
47.543400
  0
LINE
  8
0
  6
CONTINUOUS
 10
246.227798
 20
44.211411
 11
245.811295
 21
44.211411
  0
LINE
  8
0
  6
CONTINUOUS
 10
248.310303
 20
46.293900
 11
248.310303
 21
46.710411
  0
LINE
  8
0
  6
CONTINUOUS
 10
248.310303
 20
46.238590
 11
248.310303
 21
46.293900
  0
ARC
  8
0
  6
CONTINUOUS
 10
246.227798
 20
46.293900
 40
2.082500
 50
-89.999786
 51
0.000109
  0
LINE
  8
0
  6
CONTINUOUS
 10
248.310303
 20
43.836819
 11
248.310303
 21
43.040001
  0
LINE
  8
0
  6
CONTINUOUS
 10
249.273499
 20
51.956017
 11
249.273499
 21
50.953491
  0
LINE
  8
0
  6
CONTINUOUS
 10
248.310303
 20
47.751652
 11
248.310303
 21
46.293900
  0
LINE
  8
0
  6
CONTINUOUS
 10
246.566193
 20
48.844971
 11
246.566193
 21
47.751652
  0
LINE
  8
0
  6
CONTINUOUS
 10
248.310303
 20
47.543400
 11
248.310303
 21
47.751652
  0
LINE
  8
0
  6
CONTINUOUS
 10
248.310303
 20
43.040001
 11
249.273499
 21
43.040001
  0
LINE
  8
0
  6
CONTINUOUS
 10
248.310303
 20
43.836819
 11
247.360596
 21
43.040001
  0
LINE
  8
0
  6
CONTINUOUS
 10
256.536194
 20
44.133308
 11
256.952698
 21
44.133308
  0
LINE
  8
0
  6
CONTINUOUS
 10
254.792099
 20
44.133308
 11
254.792099
 21
43.040001
  0
LINE
  8
0
  6
CONTINUOUS
 10
256.952698
 20
44.133308
 11
256.952698
 21
43.040001
  0
LINE
  8
0
  6
CONTINUOUS
 10
258.574402
 20
50.953491
 11
259.269501
 21
50.953491
  0
LINE
  8
0
  6
CONTINUOUS
 10
252.605499
 20
50.953491
 11
253.345200
 21
50.953491
  0
LINE
  8
0
  6
CONTINUOUS
 10
252.605499
 20
53.035995
 11
259.269501
 21
53.035995
  0
LINE
  8
0
  6
CONTINUOUS
 10
254.792099
 20
43.040001
 11
256.952698
 21
43.040001
  0
LINE
  8
0
  6
CONTINUOUS
 10
254.792099
 20
44.133308
 11
255.286697
 21
44.133308
  0
ARC
  8
0
  6
CONTINUOUS
 10
266.597290
 20
50.367790
 40
2.668203
 50
-73.981873
 51
90.003510
  0
ARC
  8
0
  6
CONTINUOUS
 10
266.597290
 20
50.367790
 40
1.627786
 50
-82.585274
 51
62.411850
  0
LINE
  8
0
  6
CONTINUOUS
 10
262.601501
 20
53.035995
 11
266.597290
 21
53.035995
  0
LINE
  8
0
  6
CONTINUOUS
 10
266.807312
 20
48.753620
 11
264.241394
 21
48.753620
  0
LINE
  8
0
  6
CONTINUOUS
 10
262.601501
 20
53.035995
 11
262.601501
 21
51.812523
  0
LINE
  8
0
  6
CONTINUOUS
 10
264.241394
 20
51.812523
 11
264.241394
 21
48.753620
  0
LINE
  8
0
  6
CONTINUOUS
 10
267.333496
 20
47.803181
 11
268.984985
 21
44.081249
  0
LINE
  8
0
  6
CONTINUOUS
 10
266.374298
 20
47.712601
 11
267.937195
 21
44.081249
  0
LINE
  8
0
  6
CONTINUOUS
 10
262.601501
 20
44.081249
 11
263.096100
 21
44.081249
  0
LINE
  8
0
  6
CONTINUOUS
 10
264.241394
 20
44.081249
 11
264.696991
 21
44.081249
  0
LINE
  8
0
  6
CONTINUOUS
 10
264.696991
 20
43.040001
 11
262.601501
 21
43.040001
  0
LINE
  8
0
  6
CONTINUOUS
 10
267.729614
 20
44.081249
 11
267.937195
 21
44.081249
  0
LINE
  8
0
  6
CONTINUOUS
 10
268.984985
 20
44.081249
 11
269.265503
 21
44.081249
  0
LINE
  8
0
  6
CONTINUOUS
 10
267.729614
 20
43.040001
 11
269.265503
 21
43.040001
  0
LINE
  8
0
  6
CONTINUOUS
 10
269.265503
 20
44.081249
 11
269.265503
 21
43.040001
  0
LINE
  8
0
  6
CONTINUOUS
 10
267.729614
 20
44.081249
 11
267.729614
 21
43.040001
  0
LINE
  8
0
  6
CONTINUOUS
 10
264.696991
 20
44.081249
 11
264.696991
 21
43.040001
  0
LINE
  8
0
  6
CONTINUOUS
 10
262.601501
 20
44.081249
 11
262.601501
 21
43.040001
  0
LINE
  8
0
  6
CONTINUOUS
 10
253.703094
 20
51.812523
 11
253.345200
 21
50.953491
  0
LINE
  8
0
  6
CONTINUOUS
 10
258.272491
 20
51.812523
 11
258.574402
 21
50.953491
  0
LINE
  8
0
  6
CONTINUOUS
 10
256.536194
 20
51.812523
 11
258.272491
 21
51.812523
  0
LINE
  8
0
  6
CONTINUOUS
 10
255.286697
 20
51.812523
 11
253.703094
 21
51.812523
  0
LINE
  8
0
  6
CONTINUOUS
 10
264.241394
 20
47.712601
 11
266.374298
 21
47.712601
  0
LINE
  8
0
  6
CONTINUOUS
 10
262.601501
 20
51.812523
 11
263.096100
 21
51.812523
  0
LINE
  8
0
  6
CONTINUOUS
 10
264.241394
 20
51.812523
 11
267.351105
 21
51.810501
  0
LINE
  8
0
  6
CONTINUOUS
 10
248.310303
 20
51.111053
 11
248.310303
 21
50.953491
  0
LINE
  8
0
  6
CONTINUOUS
 10
271.191101
 20
18.040001
 11
240.348907
 21
18.040001
  0
LINE
  8
0
  6
CONTINUOUS
 10
240.348907
 20
124.040001
 11
271.191101
 21
124.040001
  0
LINE
  8
0
  6
CONTINUOUS
 10
274.062592
 20
123.133293
 11
304.141388
 21
102.033188
  0
LINE
  8
0
  6
CONTINUOUS
 10
237.477493
 20
123.133278
 11
205.270004
 21
100.540001
  0
LINE
  8
0
  6
CONTINUOUS
 10
274.062592
 20
18.946699
 11
289.011505
 21
29.433270
  0
LINE
  8
0
  6
CONTINUOUS
 10
237.477402
 20
18.946720
 11
205.270004
 21
41.540001
  0
ARC
  8
0
  6
CONTINUOUS
 10
271.191193
 20
119.040001
 40
5.000000
 50
54.950710
 51
90.000000
  0
ARC
  8
0
  6
CONTINUOUS
 10
240.348907
 20
119.040001
 40
5.000000
 50
90.000000
 51
125.049500
  0
ARC
  8
0
  6
CONTINUOUS
 10
240.348907
 20
23.040001
 40
5.000000
 50
234.950500
 51
270.000000
  0
ARC
  8
0
  6
CONTINUOUS
 10
271.191101
 20
23.040001
 40
5.000000
 50
270.000000
 51
305.049591
  0
LINE
  8
0
  6
CONTINUOUS
 10
291.882904
 20
30.340000
 11
301.269989
 21
30.340000
  0
ARC
  8
0
  6
CONTINUOUS
 10
291.882904
 20
25.340010
 40
5.000000
 50
90.000000
 51
125.049698
  0
ARC
  8
0
  6
CONTINUOUS
 10
301.269989
 20
97.939888
 40
5.000000
 50
0.000000
 51
54.950691
  0
LINE
  8
0
  6
CONTINUOUS
 10
388.269989
 20
105.339996
 11
378.769989
 21
105.339996
  0
LINE
  8
0
  6
CONTINUOUS
 10
378.769989
 20
94.749298
 11
388.269989
 21
94.749298
  0
LINE
  8
0
  6
CONTINUOUS
 10
388.269989
 20
15.340000
 11
378.769989
 21
15.340000
  0
LINE
  8
0
  6
CONTINUOUS
 10
378.769989
 20
25.930691
 11
388.269989
 21
25.930691
  0
LINE
  8
0
  6
CONTINUOUS
 10
388.269989
 20
107.339996
 11
388.269989
 21
13.340000
  0
LINE
  8
0
  6
CONTINUOUS
 10
388.269989
 20
89.339996
 11
432.244995
 21
89.339996
  0
LINE
  8
0
  6
CONTINUOUS
 10
388.269989
 20
31.340000
 11
432.244995
 21
31.340000
  0
LINE
  8
0
  6
CONTINUOUS
 10
430.769989
 20
107.339996
 11
388.269989
 21
107.339996
  0
LINE
  8
0
  6
CONTINUOUS
 10
430.769989
 20
13.340000
 11
388.269989
 21
13.340000
  0
ARC
  8
0
  6
CONTINUOUS
 10
430.769989
 20
102.340027
 40
5.000000
 50
0.000000
 51
90.000000
  0
ARC
  8
0
  6
CONTINUOUS
 10
430.769989
 20
18.340000
 40
5.000000
 50
-90.000000
 51
0.000000
  0
LINE
  8
0
  6
CONTINUOUS
 10
435.769989
 20
102.340012
 11
435.769989
 21
18.339979
  0
LINE
  8
0
  6
CONTINUOUS
 10
250.270004
 20
89.040001
 11
250.270004
 21
83.040001
  0
LINE
  8
0
  6
CONTINUOUS
 10
244.270004
 20
89.040001
 11
244.270004
 21
83.040001
  0
LINE
  8
0
  6
CONTINUOUS
 10
244.270004
 20
89.040001
 11
250.270004
 21
89.040001
  0
LINE
  8
0
  6
CONTINUOUS
 10
244.270004
 20
83.040001
 11
250.270004
 21
83.040001
  0
ARC
  8
0
  6
CONTINUOUS
 10
255.770004
 20
86.040001
 40
9.000000
 50
-160.528793
 51
160.528793
  0
LINE
  8
0
  6
CENTER
 10
255.770004
 20
184.948746
 11
255.770004
 21
330.266571
  0
LINE
  8
0
  6
CENTER
 10
449.938751
 20
265.826263
 11
191.628754
 21
265.826263
  0
LINE
  8
0
  6
CONTINUOUS
 10
209.444122
 20
228.826248
 11
304.321686
 21
228.826248
  0
LINE
  8
0
  6
CONTINUOUS
 10
306.479431
 20
236.823502
 11
306.321014
 21
230.773895
  0
LINE
  8
0
  6
CONTINUOUS
 10
308.427795
 20
220.826248
 11
378.769989
 21
220.826248
  0
LINE
  8
0
  6
CONTINUOUS
 10
378.769989
 20
236.826248
 11
299.427460
 21
236.826248
  0
LINE
  8
0
  6
CONTINUOUS
 10
378.769989
 20
294.826263
 11
308.153137
 21
294.826263
  0
LINE
  8
0
  6
CONTINUOUS
 10
308.296875
 20
310.826263
 11
378.769989
 21
310.826263
  0
LINE
  8
0
  6
CONTINUOUS
 10
307.526917
 20
265.826263
 11
306.269989
 21
313.826263
  0
LINE
  8
0
  6
CONTINUOUS
 10
272.769989
 20
233.826248
 11
272.769989
 21
301.826263
  0
LINE
  8
0
  6
CONTINUOUS
 10
238.770004
 20
233.826248
 11
238.770004
 21
301.826263
  0
LINE
  8
0
  6
CONTINUOUS
 10
299.427460
 20
238.826248
 11
299.427460
 21
302.291260
  0
LINE
  8
0
  6
CONTINUOUS
 10
233.270004
 20
223.826248
 11
278.269989
 21
223.826248
  0
LINE
  8
0
  6
CONTINUOUS
 10
279.269989
 20
224.826248
 11
279.269989
 21
226.826248
  0
LINE
  8
0
  6
CONTINUOUS
 10
232.270004
 20
224.826248
 11
232.270004
 21
226.826248
  0
ARC
  8
0
  6
CONTINUOUS
 10
281.269989
 20
226.826248
 40
2.000000
 50
90.000000
 51
180.000000
  0
ARC
  8
0
  6
CONTINUOUS
 10
230.270004
 20
226.826248
 40
2.000000
 50
0.000000
 51
90.000000
  0
ARC
  8
0
  6
CONTINUOUS
 10
278.269989
 20
224.826248
 40
1.000000
 50
-90.000000
 51
0.000000
  0
ARC
  8
0
  6
CONTINUOUS
 10
233.269989
 20
224.826248
 40
1.000000
 50
180.000000
 51
270.000000
  0
LINE
  8
0
  6
CONTINUOUS
 10
244.270004
 20
191.826248
 11
264.769989
 21
191.826248
  0
LINE
  8
0
  6
CONTINUOUS
 10
264.769989
 20
221.826248
 11
264.769989
 21
191.826248
  0
LINE
  8
0
  6
CONTINUOUS
 10
246.770004
 20
221.826248
 11
246.770004
 21
218.826248
  0
LINE
  8
0
  6
CONTINUOUS
 10
265.769989
 20
221.826248
 11
245.770004
 21
221.826248
  0
LINE
  8
0
  6
CONTINUOUS
 10
265.769989
 20
223.826248
 11
265.769989
 21
221.826248
  0
LINE
  8
0
  6
CONTINUOUS
 10
245.770004
 20
223.826248
 11
245.770004
 21
221.826248
  0
LINE
  8
0
  6
CONTINUOUS
 10
244.270004
 20
191.826248
 11
244.270004
 21
218.826248
  0
LINE
  8
0
  6
CONTINUOUS
 10
244.270004
 20
218.826248
 11
247.285004
 21
218.826248
  0
LINE
  8
0
  6
CONTINUOUS
 10
247.285004
 20
191.826248
 11
247.285004
 21
218.826248
  0
LINE
  8
0
  6
CONTINUOUS
 10
306.269989
 20
313.826263
 11
205.270004
 21
313.826263
  0
LINE
  8
0
  6
CONTINUOUS
 10
207.444809
 20
230.773895
 11
205.270004
 21
313.826263
  0
LINE
  8
0
  6
CONTINUOUS
 10
304.478790
 20
303.826263
 11
207.480179
 21
303.826263
  0
ARC
  8
0
  6
CONTINUOUS
 10
207.480179
 20
305.826263
 40
2.000000
 50
181.500000
 51
270.000000
  0
ARC
  8
0
  6
CONTINUOUS
 10
209.444122
 20
230.826248
 40
2.000000
 50
181.500000
 51
270.000000
  0
ARC
  8
0
  6
CONTINUOUS
 10
236.770004
 20
301.826263
 40
2.000000
 50
0.000000
 51
90.000000
  0
ARC
  8
0
  6
CONTINUOUS
 10
274.769989
 20
301.826263
 40
2.000000
 50
90.000000
 51
180.000000
  0
LINE
  8
0
  6
CONTINUOUS
 10
272.911926
 20
302.566254
 11
238.628067
 21
302.566254
  0
ARC
  8
0
  6
CONTINUOUS
 10
304.478790
 20
305.826263
 40
2.000000
 50
-90.000000
 51
1.500000
  0
ARC
  8
0
  6
CONTINUOUS
 10
308.296875
 20
312.826263
 40
2.000000
 50
181.500000
 51
270.000000
  0
LINE
  8
0
  6
CONTINUOUS
 10
306.428497
 20
222.773895
 11
306.321014
 21
226.878601
  0
ARC
  8
0
  6
CONTINUOUS
 10
308.427795
 20
222.826248
 40
2.000000
 50
181.500000
 51
270.000000
  0
ARC
  8
0
  6
CONTINUOUS
 10
304.321686
 20
226.826248
 40
2.000000
 50
1.500000
 51
90.000000
  0
ARC
  8
0
  6
CONTINUOUS
 10
304.321686
 20
230.826248
 40
2.000000
 50
270.000000
 51
358.500000
  0
LINE
  8
0
  6
CENTER
 10
215.770004
 20
321.514832
 11
215.770004
 21
297.652191
  0
LINE
  8
0
  6
DASHED
 10
211.520004
 20
303.826263
 11
211.520004
 21
313.826263
  0
LINE
  8
0
  6
DASHED
 10
220.020004
 20
303.826263
 11
220.020004
 21
313.826263
  0
LINE
  8
0
  6
CENTER
 10
295.769989
 20
321.514832
 11
295.769989
 21
297.652191
  0
LINE
  8
0
  6
DASHED
 10
300.019989
 20
303.826263
 11
300.019989
 21
313.826263
  0
LINE
  8
0
  6
DASHED
 10
291.519989
 20
303.826263
 11
291.519989
 21
313.826263
  0
LINE
  8
0
  6
CONTINUOUS
 10
388.269989
 20
220.826248
 11
378.769989
 21
220.826248
  0
LINE
  8
0
  6
CONTINUOUS
 10
378.769989
 20
236.826248
 11
388.269989
 21
236.826248
  0
LINE
  8
0
  6
CONTINUOUS
 10
388.269989
 20
310.826263
 11
378.769989
 21
310.826263
  0
LINE
  8
0
  6
CONTINUOUS
 10
378.769989
 20
310.826263
 11
378.769989
 21
290.826263
  0
LINE
  8
0
  6
CONTINUOUS
 10
378.769989
 20
294.826263
 11
388.269989
 21
294.826263
  0
LINE
  8
0
  6
CONTINUOUS
 10
378.769989
 20
240.826263
 11
378.769989
 21
220.826248
  0
LINE
  8
0
  6
CONTINUOUS
 10
388.269989
 20
218.826248
 11
388.269989
 21
258.326263
  0
LINE
  8
0
  6
CONTINUOUS
 10
388.269989
 20
236.826248
 11
432.245026
 21
236.826248
  0
LINE
  8
0
  6
CONTINUOUS
 10
388.269989
 20
294.826263
 11
432.245026
 21
294.826263
  0
LINE
  8
0
  6
CONTINUOUS
 10
430.770020
 20
218.826248
 11
388.269989
 21
218.826248
  0
LINE
  8
0
  6
CONTINUOUS
 10
430.770020
 20
312.826263
 11
388.269989
 21
312.826263
  0
ARC
  8
0
  6
CONTINUOUS
 10
430.769989
 20
223.826248
 40
5.000000
 50
-90.000000
 51
0.000000
  0
ARC
  8
0
  6
CONTINUOUS
 10
430.770020
 20
307.826263
 40
5.000000
 50
0.000000
 51
90.000000
  0
LINE
  8
0
  6
CONTINUOUS
 10
435.769989
 20
223.826248
 11
435.770020
 21
307.826263
  0
LINE
  8
0
  6
CONTINUOUS
 10
386.269989
 20
106.839996
 11
339.769989
 21
106.839996
  0
LINE
  8
0
  6
CONTINUOUS
 10
337.770020
 20
136.839996
 11
337.769989
 21
108.839996
  0
LINE
  8
0
  6
CONTINUOUS
 10
387.769989
 20
136.839996
 11
387.769989
 21
108.839996
  0
LINE
  8
0
  6
CONTINUOUS
 10
389.769989
 20
118.839996
 11
337.769989
 21
118.839996
  0
LINE
  8
0
  6
CONTINUOUS
 10
339.769989
 20
106.839996
 11
337.769989
 21
108.839996
  0
LINE
  8
0
  6
CONTINUOUS
 10
387.769989
 20
108.839996
 11
385.769989
 21
106.839996
  0
LINE
  8
0
  6
CONTINUOUS
 10
387.769989
 20
108.839996
 11
337.769989
 21
108.839996
  0
LINE
  8
0
  6
CONTINUOUS
 10
386.769989
 20
137.839996
 11
338.770020
 21
137.839996
  0
LINE
  8
0
  6
CONTINUOUS
 10
338.770020
 20
137.839996
 11
337.770020
 21
136.839996
  0
LINE
  8
0
  6
CONTINUOUS
 10
386.769989
 20
137.839996
 11
387.769989
 21
136.839996
  0
LINE
  8
0
  6
CONTINUOUS
 10
387.769989
 20
136.839996
 11
337.770020
 21
136.839996
  0
LINE
  8
0
  6
CONTINUOUS
 10
389.769989
 20
134.839996
 11
389.769989
 21
118.839996
  0
LINE
  8
0
  6
CONTINUOUS
 10
388.769989
 20
135.839996
 11
387.769989
 21
135.839996
  0
ARC
  8
0
  6
CONTINUOUS
 10
388.769989
 20
134.839996
 40
1.000000
 50
0.000000
 51
90.000000
  0
LINE
  8
0
  6
CONTINUOUS
 10
393.269989
 20
132.339996
 11
393.269989
 21
124.339996
  0
LINE
  8
0
  6
CONTINUOUS
 10
393.269989
 20
132.339996
 11
389.769989
 21
133.839996
  0
LINE
  8
0
  6
CONTINUOUS
 10
393.269989
 20
124.339996
 11
389.769989
 21
122.839996
  0
LINE
  8
0
  6
CENTER
 10
362.769989
 20
102.146248
 11
362.769989
 21
143.227493
  0
LINE
  8
0
  6
CONTINUOUS
 10
386.269989
 20
106.839996
 11
386.269989
 21
105.339996
  0
LINE
  8
0
  6
CONTINUOUS
 10
340.269989
 20
106.839996
 11
340.269989
 21
105.339996
  0
LINE
  8
0
  6
CENTER
 10
395.713745
 20
128.339996
 11
383.638763
 21
128.339996
  0
LINE
  8
0
  6
CONTINUOUS
 10
388.769989
 20
258.326263
 11
387.769989
 21
258.326263
  0
ARC
  8
0
  6
CONTINUOUS
 10
388.769989
 20
259.326263
 40
1.000000
 50
-90.000000
 51
0.000000
  0
LINE
  8
0
  6
CONTINUOUS
 10
393.269989
 20
261.826263
 11
393.269989
 21
269.826263
  0
LINE
  8
0
  6
CONTINUOUS
 10
393.269989
 20
261.826263
 11
389.769989
 21
260.326263
  0
LINE
  8
0
  6
CONTINUOUS
 10
393.269989
 20
269.826263
 11
389.769989
 21
271.326263
  0
LINE
  8
0
  6
CONTINUOUS
 10
389.769989
 20
259.326263
 11
389.769989
 21
272.326263
  0
LINE
  8
0
  6
CONTINUOUS
 10
388.769989
 20
273.326263
 11
387.769989
 21
273.326263
  0
ARC
  8
0
  6
CONTINUOUS
 10
388.769989
 20
272.326263
 40
1.000000
 50
0.000000
 51
90.000000
  0
LINE
  8
0
  6
CONTINUOUS
 10
387.769989
 20
288.826263
 11
387.769989
 21
242.826263
  0
LINE
  8
0
  6
CONTINUOUS
 10
385.769989
 20
240.826263
 11
387.769989
 21
242.826263
  0
LINE
  8
0
  6
CONTINUOUS
 10
385.769989
 20
240.826263
 11
339.770020
 21
240.826263
  0
LINE
  8
0
  6
CONTINUOUS
 10
345.269989
 20
245.326263
 11
345.269989
 21
240.826263
  0
ARC
  8
0
  6
CONTINUOUS
 10
342.269989
 20
245.326263
 40
3.000000
 50
0.000000
 51
90.000000
  0
LINE
  8
0
  6
CONTINUOUS
 10
342.269989
 20
248.326263
 11
337.770020
 21
248.326263
  0
CIRCLE
  8
0
  6
CONTINUOUS
 10
341.269989
 20
244.326263
 40
2.250000
  0
LINE
  8
0
  6
CONTINUOUS
 10
337.770020
 20
288.826263
 11
337.770020
 21
242.826263
  0
LINE
  8
0
  6
CONTINUOUS
 10
339.770020
 20
240.826263
 11
337.770020
 21
242.826263
  0
LINE
  8
0
  6
CONTINUOUS
 10
339.770020
 20
290.826263
 11
337.770020
 21
288.826263
  0
LINE
  8
0
  6
CONTINUOUS
 10
339.770020
 20
290.826263
 11
385.769989
 21
290.826263
  0
LINE
  8
0
  6
CONTINUOUS
 10
387.769989
 20
288.826263
 11
385.769989
 21
290.826263
  0
LINE
  8
0
  6
CONTINUOUS
 10
383.269989
 20
283.326263
 11
387.769989
 21
283.326263
  0
CIRCLE
  8
0
  6
CONTINUOUS
 10
384.269989
 20
287.326263
 40
2.250000
  0
ARC
  8
0
  6
CONTINUOUS
 10
383.269989
 20
286.326263
 40
3.000000
 50
180.000000
 51
270.000000
  0
LINE
  8
0
  6
CONTINUOUS
 10
380.269989
 20
286.326263
 11
380.269989
 21
290.826263
  0
LINE
  8
0
  6
CENTER
 10
362.769989
 20
298.292053
 11
362.769989
 21
234.160019
  0
LINE
  8
0
  6
CONTINUOUS
 10
385.355774
 20
241.826248
 11
386.769989
 21
243.240463
  0
LINE
  8
0
  6
CONTINUOUS
 10
386.769989
 20
283.326263
 11
386.769989
 21
243.240463
  0
LINE
  8
0
  6
CONTINUOUS
 10
345.269989
 20
241.826248
 11
385.355774
 21
241.826248
  0
LINE
  8
0
  6
CONTINUOUS
 10
338.770020
 20
248.326248
 11
338.770020
 21
288.412048
  0
LINE
  8
0
  6
CONTINUOUS
 10
380.269989
 20
289.826263
 11
340.184204
 21
289.826263
  0
LINE
  8
0
  6
CONTINUOUS
 10
340.184204
 20
289.826263
 11
338.770020
 21
288.412048
  0
LINE
  8
0
  6
CONTINUOUS
 10
80.769989
 20
136.839996
 11
80.769989
 21
124.249405
  0
LINE
  8
0
  6
CONTINUOUS
 10
30.770000
 20
136.839996
 11
30.770000
 21
125.121956
  0
LINE
  8
0
  6
CONTINUOUS
 10
31.770000
 20
137.839996
 11
79.769989
 21
137.839996
  0
LINE
  8
0
  6
CONTINUOUS
 10
79.769989
 20
137.839996
 11
80.769989
 21
136.839996
  0
LINE
  8
0
  6
CONTINUOUS
 10
31.770000
 20
137.839996
 11
30.770000
 21
136.839996
  0
LINE
  8
0
  6
CONTINUOUS
 10
30.770000
 20
136.839996
 11
80.769989
 21
136.839996
  0
LINE
  8
0
  6
CONTINUOUS
 10
388.269989
 20
273.326263
 11
388.269989
 21
312.826263
  0
TEXT
  8
0
 10
-40.000000
 20
3.000000
 40
4.000000
 41
1.000000
  1
HFM-18L-10~240-S60WT
 50
0.000000
  0
ENDSEC
  0
EOF
