  0
SECTION
  2
HEADER
  9
$CLAYER
  8
1
  9
$LTSCALE
 40
3.0
  0
ENDSEC
  0
SECTION
  2
TABLES
  0
TABLE
  2
LTYPE
 70
     4
  0
LTYPE
  2
CONTINUOUS
  3
solid line
 70
    64
 72
    65
 73
     0
 40
0.0
  0
LTYPE
  2
DASHED
  3
__ __ __ __ __ __ __ __ __ __ __ __ __ __ __
 70
    64
 72
    65
 73
     2
 40
0.75
 49
0.5
 49
-0.25
  0
LTYPE
  2
CENTER
  3
____ _ ____ _ ____ _ ____ _ ____ _ ____ _ ____
 70
    64
 72
    65
 73
     4
 40
2.0
 49
1.25
 49
-0.25
 49
0.25
 49
-0.25
  0
LTYPE
  2
PHANTOM
  3
_____ _ _ _____ _ _ _____ _ _ _____ _ _ ____
 70
    64
 72
    65
 73
     6
 40
2.5
 49
1.25
 49
-0.25
 49
0.25
 49
-0.25
 49
0.25
 49
-0.25
  0
ENDTAB
  0
TABLE
  2
LAYER
 70
     1
  0
LAYER
  2
0
 70
    64
 62
     7
  6
CONTINUOUS
  0
ENDTAB
  0
TABLE
  2
STYLE
 70
     1
  0
STYLE
  2
STANDARD
 70
     0
 40
0.000000
 41
1.000000
 50
0.000000
 71
     0
 42
3.000000
  3
txt
  4
BIGFONT
  0
ENDTAB
  0
ENDSEC
  0
SECTION
  2
BLOCKS
  0
ENDSEC
  0
SECTION
  2
ENTITIES
  0
LINE
  8
0
  6
CENTER
 10
67.724998
 20
-0.922500
 11
67.724998
 21
129.577499
  0
LINE
  8
0
  6
CONTINUOUS
 10
19.725000
 20
123.777496
 11
19.725000
 21
5.777500
  0
LINE
  8
0
  6
CONTINUOUS
 10
109.724998
 20
102.277489
 11
109.724998
 21
57.277489
  0
LINE
  8
0
  6
CONTINUOUS
 10
104.724998
 20
114.829376
 11
104.724998
 21
14.725580
  0
LINE
  8
0
  6
CENTER
 10
10.412500
 20
79.777496
 11
149.662506
 21
79.777496
  0
LINE
  8
0
  6
CONTINUOUS
 10
106.725021
 20
103.277496
 11
108.724998
 21
103.277496
  0
LINE
  8
0
  6
CONTINUOUS
 10
106.725021
 20
56.277493
 11
108.724998
 21
56.277493
  0
LINE
  8
0
  6
CONTINUOUS
 10
29.725000
 20
32.277512
 11
29.725000
 21
7.277500
  0
LINE
  8
0
  6
CONTINUOUS
 10
28.190351
 20
123.777496
 11
19.725000
 21
123.777496
  0
LINE
  8
0
  6
CONTINUOUS
 10
28.190351
 20
5.777500
 11
19.725000
 21
5.777500
  0
LINE
  8
0
  6
CONTINUOUS
 10
101.777344
 20
117.828934
 11
31.690109
 21
119.052032
  0
LINE
  8
0
  6
CONTINUOUS
 10
101.777359
 20
11.726040
 11
31.690081
 21
10.502420
  0
LINE
  8
0
  6
CONTINUOUS
 10
102.958473
 20
94.277496
 11
32.725021
 21
94.277496
  0
LINE
  8
0
  6
CONTINUOUS
 10
102.958473
 20
35.277500
 11
32.725021
 21
35.277500
  0
ARC
  8
0
  6
CONTINUOUS
 10
101.725021
 20
114.829376
 40
3.000000
 50
0.000000
 51
89.000359
  0
ARC
  8
0
  6
CONTINUOUS
 10
101.724998
 20
14.725580
 40
3.000000
 50
-88.999687
 51
0.000000
  0
ARC
  8
0
  6
CONTINUOUS
 10
32.725021
 20
32.277519
 40
3.000000
 50
90.000000
 51
180.000000
  0
ARC
  8
0
  6
CONTINUOUS
 10
32.724998
 20
97.277496
 40
3.000000
 50
180.000000
 51
270.000000
  0
LINE
  8
0
  6
CENTER
 10
14.662500
 20
14.777500
 11
34.412498
 21
14.777500
  0
LINE
  8
0
  6
CENTER
 10
16.412500
 20
114.777496
 11
33.412498
 21
114.777496
  0
LINE
  8
0
  6
DASHED
 10
19.725000
 20
110.527496
 11
29.725000
 21
110.527496
  0
LINE
  8
0
  6
DASHED
 10
19.725000
 20
119.027496
 11
29.725000
 21
119.027496
  0
LINE
  8
0
  6
DASHED
 10
19.725000
 20
19.027500
 11
29.725000
 21
19.027500
  0
LINE
  8
0
  6
DASHED
 10
19.725000
 20
10.527500
 11
29.725000
 21
10.527500
  0
LINE
  8
0
  6
CONTINUOUS
 10
41.725021
 20
9.077500
 11
93.724991
 21
9.077500
  0
ARC
  8
0
  6
CONTINUOUS
 10
93.724998
 20
12.077500
 40
3.000000
 50
270.000000
 51
351.561890
  0
ARC
  8
0
  6
CONTINUOUS
 10
41.724998
 20
12.077500
 40
3.000000
 50
208.811905
 51
270.000000
  0
ARC
  8
0
  6
CONTINUOUS
 10
106.724998
 20
105.277496
 40
2.000000
 50
180.000000
 51
270.000000
  0
ARC
  8
0
  6
CONTINUOUS
 10
106.725021
 20
54.277504
 40
2.000000
 50
90.000000
 51
180.000000
  0
ARC
  8
0
  6
CONTINUOUS
 10
108.724998
 20
57.277493
 40
1.000000
 50
-90.000000
 51
0.000000
  0
ARC
  8
0
  6
CONTINUOUS
 10
108.724998
 20
102.277489
 40
1.000000
 50
0.000000
 51
90.000000
  0
ARC
  8
0
  6
CONTINUOUS
 10
67.724998
 20
54.077496
 40
45.000000
 50
-34.692108
 51
20.459709
  0
ARC
  8
0
  6
CONTINUOUS
 10
28.225000
 20
7.277500
 40
1.500000
 50
-90.000000
 51
0.000000
  0
LINE
  8
0
  6
CENTER
 10
10.412500
 20
54.077496
 11
121.724998
 21
54.077496
  0
LINE
  8
0
  6
CONTINUOUS
 10
29.725000
 20
121.777489
 11
29.725000
 21
97.277489
  0
ARC
  8
0
  6
CONTINUOUS
 10
27.725012
 20
121.777489
 40
2.000000
 50
0.000000
 51
90.000000
  0
LINE
  8
0
  6
CONTINUOUS
 10
30.122210
 20
122.295143
 11
30.402809
 21
121.247902
  0
ARC
  8
0
  6
CONTINUOUS
 10
28.190359
 20
121.777489
 40
2.000000
 50
15.000470
 51
90.000000
  0
ARC
  8
0
  6
CONTINUOUS
 10
31.724979
 20
121.051743
 40
2.000000
 50
180.000000
 51
269.000610
  0
ARC
  8
0
  6
CONTINUOUS
 10
33.300571
 20
122.024399
 40
3.000000
 50
195.000504
 51
269.000488
  0
LINE
  8
0
  6
CONTINUOUS
 10
30.122200
 20
7.259860
 11
30.402651
 21
8.306530
  0
ARC
  8
0
  6
CONTINUOUS
 10
28.190351
 20
7.777500
 40
2.000000
 50
270.000000
 51
345.000000
  0
ARC
  8
0
  6
CONTINUOUS
 10
31.725019
 20
8.502740
 40
2.000000
 50
91.000641
 51
180.000000
  0
ARC
  8
0
  6
CONTINUOUS
 10
33.300442
 20
7.530080
 40
3.000000
 50
91.000458
 51
165.000198
  0
LINE
  8
0
  6
CONTINUOUS
 10
114.724998
 20
27.976990
 11
114.724998
 21
70.777496
  0
LINE
  8
0
  6
CONTINUOUS
 10
41.624481
 20
7.077500
 11
93.825508
 21
7.077500
  0
LINE
  8
0
  6
CONTINUOUS
 10
36.674751
 20
9.127740
 11
35.238121
 21
10.564350
  0
ARC
  8
0
  6
CONTINUOUS
 10
107.724998
 20
27.976980
 40
7.000000
 50
-44.999882
 51
0.000000
  0
ARC
  8
0
  6
CONTINUOUS
 10
93.825508
 20
14.077500
 40
7.000000
 50
270.000000
 51
315.000000
  0
ARC
  8
0
  6
CONTINUOUS
 10
41.624481
 20
14.077500
 40
7.000000
 50
225.000107
 51
270.000000
  0
LINE
  8
0
  6
CONTINUOUS
 10
98.775253
 20
9.127750
 11
101.366371
 21
11.718880
  0
LINE
  8
0
  6
CONTINUOUS
 10
112.674751
 20
23.027250
 11
104.724998
 21
15.077500
  0
LINE
  8
0
  6
CONTINUOUS
 10
141.725006
 20
70.777496
 11
141.725006
 21
88.777496
  0
LINE
  8
0
  6
CONTINUOUS
 10
111.724998
 20
88.777496
 11
141.725006
 21
88.777496
  0
LINE
  8
0
  6
CONTINUOUS
 10
111.724998
 20
70.777496
 11
141.725006
 21
70.777496
  0
LINE
  8
0
  6
CONTINUOUS
 10
111.724998
 20
89.777496
 11
111.724998
 21
69.777496
  0
LINE
  8
0
  6
CONTINUOUS
 10
109.724998
 20
89.777496
 11
111.724998
 21
89.777496
  0
LINE
  8
0
  6
CONTINUOUS
 10
109.724998
 20
69.777496
 11
111.724998
 21
69.777496
  0
ARC
  8
0
  6
CONTINUOUS
 10
117.724998
 20
79.777496
 40
3.000000
 50
90.000000
 51
270.000000
  0
LINE
  8
0
  6
CONTINUOUS
 10
117.724998
 20
82.777496
 11
141.725006
 21
82.777496
  0
LINE
  8
0
  6
CONTINUOUS
 10
117.725021
 20
76.777496
 11
141.725006
 21
76.777496
  0
LINE
  8
0
  6
CONTINUOUS
 10
390.725006
 20
9.077500
 11
390.725006
 21
99.077499
  0
LINE
  8
0
  6
CENTER
 10
457.921875
 20
54.077496
 11
288.720001
 21
54.077496
  0
LINE
  8
0
  6
CONTINUOUS
 10
217.225006
 20
35.277500
 11
217.225006
 21
94.277496
  0
LINE
  8
0
  6
CONTINUOUS
 10
390.725006
 20
99.077499
 11
311.382385
 21
99.077499
  0
LINE
  8
0
  6
CONTINUOUS
 10
320.225006
 20
9.077500
 11
390.725006
 21
9.077500
  0
LINE
  8
0
  6
CENTER
 10
296.266571
 20
79.777496
 11
233.663757
 21
79.777496
  0
LINE
  8
0
  6
CENTER
 10
267.725006
 20
132.327499
 11
267.725006
 21
-3.015850
  0
LINE
  8
0
  6
CONTINUOUS
 10
307.725006
 20
123.777496
 11
227.725006
 21
123.777496
  0
LINE
  8
0
  6
CONTINUOUS
 10
307.725006
 20
5.777500
 11
227.725006
 21
5.777500
  0
LINE
  8
0
  6
CENTER
 10
234.725006
 20
114.777496
 11
220.850006
 21
114.777496
  0
LINE
  8
0
  6
CENTER
 10
227.725006
 20
108.077499
 11
227.725006
 21
121.577499
  0
CIRCLE
  8
0
  6
CONTINUOUS
 10
227.725006
 20
114.777496
 40
4.250000
  0
LINE
  8
0
  6
CENTER
 10
234.725006
 20
14.777500
 11
220.850006
 21
14.777500
  0
LINE
  8
0
  6
CENTER
 10
227.725006
 20
21.477501
 11
227.725006
 21
7.977500
  0
CIRCLE
  8
0
  6
CONTINUOUS
 10
227.725006
 20
14.777500
 40
4.250000
  0
LINE
  8
0
  6
CENTER
 10
300.725006
 20
114.777496
 11
314.600006
 21
114.777496
  0
LINE
  8
0
  6
CENTER
 10
307.725006
 20
108.077499
 11
307.725006
 21
121.577499
  0
CIRCLE
  8
0
  6
CONTINUOUS
 10
307.725006
 20
114.777496
 40
4.250000
  0
LINE
  8
0
  6
CENTER
 10
300.725006
 20
14.777500
 11
314.600006
 21
14.777500
  0
LINE
  8
0
  6
CENTER
 10
307.725006
 20
21.477501
 11
307.725006
 21
7.977500
  0
CIRCLE
  8
0
  6
CONTINUOUS
 10
307.725006
 20
14.777500
 40
4.250000
  0
LINE
  8
0
  6
CONTINUOUS
 10
218.748306
 20
115.424133
 11
217.225006
 21
94.277496
  0
LINE
  8
0
  6
CONTINUOUS
 10
218.748306
 20
14.130940
 11
217.225006
 21
35.277500
  0
ARC
  8
0
  6
CONTINUOUS
 10
227.725006
 20
114.777496
 40
9.000000
 50
90.000000
 51
175.879898
  0
ARC
  8
0
  6
CONTINUOUS
 10
227.725006
 20
14.777500
 40
9.000000
 50
-175.879898
 51
-90.000000
  0
ARC
  8
0
  6
CONTINUOUS
 10
307.725006
 20
114.777496
 40
9.000000
 50
4.120102
 51
90.000000
  0
LINE
  8
0
  6
CONTINUOUS
 10
316.701691
 20
115.424133
 11
317.879211
 21
99.077499
  0
LINE
  8
0
  6
CONTINUOUS
 10
316.701691
 20
14.130940
 11
317.269806
 21
22.016821
  0
ARC
  8
0
  6
CONTINUOUS
 10
307.725006
 20
14.777500
 40
9.000000
 50
270.000000
 51
355.879913
  0
ARC
  8
0
  6
CONTINUOUS
 10
313.225006
 20
19.077530
 40
5.000000
 50
0.000000
 51
90.000000
  0
ARC
  8
0
  6
CONTINUOUS
 10
320.225006
 20
11.077500
 40
2.000000
 50
180.000000
 51
270.000000
  0
LINE
  8
0
  6
CONTINUOUS
 10
318.225006
 20
11.077500
 11
318.225006
 21
19.077530
  0
LINE
  8
0
  6
CONTINUOUS
 10
318.225006
 20
91.677391
 11
318.225006
 21
19.077530
  0
LINE
  8
0
  6
CONTINUOUS
 10
390.725006
 20
88.486801
 11
320.225006
 21
88.486801
  0
LINE
  8
0
  6
CONTINUOUS
 10
390.725006
 20
19.668190
 11
319.725006
 21
19.668190
  0
CIRCLE
  8
0
  6
CONTINUOUS
 10
267.725006
 20
79.777496
 40
23.500000
  0
LINE
  8
0
  6
CONTINUOUS
 10
259.315613
 20
36.777500
 11
255.850006
 21
36.777500
  0
LINE
  8
0
  6
CONTINUOUS
 10
261.228485
 20
42.582470
 11
261.228485
 21
36.777500
  0
LINE
  8
0
  6
CONTINUOUS
 10
264.560486
 20
44.690990
 11
264.560486
 21
46.773495
  0
LINE
  8
0
  6
CONTINUOUS
 10
271.224487
 20
44.690990
 11
271.224487
 21
46.773495
  0
LINE
  8
0
  6
CONTINUOUS
 10
267.241699
 20
45.550022
 11
267.241699
 21
37.870811
  0
LINE
  8
0
  6
CONTINUOUS
 10
268.491211
 20
45.550022
 11
268.491211
 21
37.870811
  0
LINE
  8
0
  6
CONTINUOUS
 10
275.051086
 20
45.550022
 11
275.051086
 21
37.818748
  0
LINE
  8
0
  6
CONTINUOUS
 10
276.196411
 20
41.450100
 11
276.196411
 21
37.818748
  0
LINE
  8
0
  6
CONTINUOUS
 10
259.647400
 20
45.445896
 11
256.436188
 21
45.445896
  0
LINE
  8
0
  6
CONTINUOUS
 10
256.933289
 20
37.948910
 11
256.448303
 21
37.948910
  0
LINE
  8
0
  6
CONTINUOUS
 10
256.436188
 20
45.445896
 11
255.683807
 21
44.512936
  0
LINE
  8
0
  6
CONTINUOUS
 10
255.774307
 20
46.773495
 11
254.564499
 21
45.224316
  0
LINE
  8
0
  6
CONTINUOUS
 10
255.683807
 20
38.754139
 11
256.448303
 21
37.948910
  0
LINE
  8
0
  6
CONTINUOUS
 10
254.564499
 20
38.074600
 11
255.850006
 21
36.777500
  0
LINE
  8
0
  6
CONTINUOUS
 10
254.564499
 20
45.224316
 11
254.564499
 21
38.074600
  0
LINE
  8
0
  6
CONTINUOUS
 10
255.683807
 20
44.512936
 11
255.683807
 21
38.754139
  0
LINE
  8
0
  6
CONTINUOUS
 10
260.265289
 20
44.848553
 11
259.634796
 21
45.445896
  0
LINE
  8
0
  6
CONTINUOUS
 10
260.255310
 20
46.773495
 11
261.228485
 21
45.693516
  0
LINE
  8
0
  6
CONTINUOUS
 10
260.265289
 20
44.690990
 11
261.228485
 21
44.690990
  0
LINE
  8
0
  6
CONTINUOUS
 10
255.774307
 20
46.773495
 11
260.255310
 21
46.773495
  0
LINE
  8
0
  6
CONTINUOUS
 10
258.521210
 20
42.582470
 11
261.228485
 21
42.582470
  0
LINE
  8
0
  6
CONTINUOUS
 10
260.265289
 20
41.489151
 11
258.521210
 21
41.489151
  0
LINE
  8
0
  6
CONTINUOUS
 10
257.766296
 20
37.948910
 11
256.933289
 21
37.948910
  0
LINE
  8
0
  6
CONTINUOUS
 10
260.265289
 20
40.447910
 11
260.265289
 21
41.280899
  0
LINE
  8
0
  6
CONTINUOUS
 10
258.182800
 20
37.948910
 11
257.766296
 21
37.948910
  0
LINE
  8
0
  6
CONTINUOUS
 10
260.265289
 20
40.031399
 11
260.265289
 21
40.447910
  0
LINE
  8
0
  6
CONTINUOUS
 10
260.265289
 20
39.976089
 11
260.265289
 21
40.031399
  0
ARC
  8
0
  6
CONTINUOUS
 10
258.182800
 20
40.031399
 40
2.082500
 50
-89.999786
 51
0.000109
  0
LINE
  8
0
  6
CONTINUOUS
 10
260.265289
 20
37.574322
 11
260.265289
 21
36.777500
  0
LINE
  8
0
  6
CONTINUOUS
 10
261.228485
 20
45.693516
 11
261.228485
 21
44.690990
  0
LINE
  8
0
  6
CONTINUOUS
 10
260.265289
 20
41.489151
 11
260.265289
 21
40.031399
  0
LINE
  8
0
  6
CONTINUOUS
 10
258.521210
 20
42.582470
 11
258.521210
 21
41.489151
  0
LINE
  8
0
  6
CONTINUOUS
 10
260.265289
 20
41.280899
 11
260.265289
 21
41.489151
  0
LINE
  8
0
  6
CONTINUOUS
 10
260.265289
 20
36.777500
 11
261.228485
 21
36.777500
  0
LINE
  8
0
  6
CONTINUOUS
 10
260.265289
 20
37.574322
 11
259.315613
 21
36.777500
  0
LINE
  8
0
  6
CONTINUOUS
 10
268.491211
 20
37.870811
 11
268.907715
 21
37.870811
  0
LINE
  8
0
  6
CONTINUOUS
 10
266.747101
 20
37.870811
 11
266.747101
 21
36.777500
  0
LINE
  8
0
  6
CONTINUOUS
 10
268.907715
 20
37.870811
 11
268.907715
 21
36.777500
  0
LINE
  8
0
  6
CONTINUOUS
 10
270.529388
 20
44.690990
 11
271.224487
 21
44.690990
  0
LINE
  8
0
  6
CONTINUOUS
 10
264.560486
 20
44.690990
 11
265.300201
 21
44.690990
  0
LINE
  8
0
  6
CONTINUOUS
 10
264.560486
 20
46.773495
 11
271.224487
 21
46.773495
  0
LINE
  8
0
  6
CONTINUOUS
 10
266.747101
 20
36.777500
 11
268.907715
 21
36.777500
  0
LINE
  8
0
  6
CONTINUOUS
 10
266.747101
 20
37.870811
 11
267.241699
 21
37.870811
  0
ARC
  8
0
  6
CONTINUOUS
 10
278.552307
 20
44.105289
 40
2.668203
 50
-73.981873
 51
90.003510
  0
ARC
  8
0
  6
CONTINUOUS
 10
278.552307
 20
44.105289
 40
1.627786
 50
-82.585274
 51
62.411850
  0
LINE
  8
0
  6
CONTINUOUS
 10
274.556488
 20
46.773495
 11
278.552307
 21
46.773495
  0
LINE
  8
0
  6
CONTINUOUS
 10
278.762299
 20
42.491119
 11
276.196411
 21
42.491119
  0
LINE
  8
0
  6
CONTINUOUS
 10
274.556488
 20
46.773495
 11
274.556488
 21
45.550022
  0
LINE
  8
0
  6
CONTINUOUS
 10
276.196411
 20
45.550022
 11
276.196411
 21
42.491119
  0
LINE
  8
0
  6
CONTINUOUS
 10
279.288513
 20
41.540680
 11
280.940002
 21
37.818748
  0
LINE
  8
0
  6
CONTINUOUS
 10
278.329315
 20
41.450100
 11
279.892212
 21
37.818748
  0
LINE
  8
0
  6
CONTINUOUS
 10
274.556488
 20
37.818748
 11
275.051086
 21
37.818748
  0
LINE
  8
0
  6
CONTINUOUS
 10
276.196411
 20
37.818748
 11
276.652008
 21
37.818748
  0
LINE
  8
0
  6
CONTINUOUS
 10
276.652008
 20
36.777500
 11
274.556488
 21
36.777500
  0
LINE
  8
0
  6
CONTINUOUS
 10
279.684601
 20
37.818748
 11
279.892212
 21
37.818748
  0
LINE
  8
0
  6
CONTINUOUS
 10
280.940002
 20
37.818748
 11
281.220490
 21
37.818748
  0
LINE
  8
0
  6
CONTINUOUS
 10
279.684601
 20
36.777500
 11
281.220490
 21
36.777500
  0
LINE
  8
0
  6
CONTINUOUS
 10
281.220490
 20
37.818748
 11
281.220490
 21
36.777500
  0
LINE
  8
0
  6
CONTINUOUS
 10
279.684601
 20
37.818748
 11
279.684601
 21
36.777500
  0
LINE
  8
0
  6
CONTINUOUS
 10
276.652008
 20
37.818748
 11
276.652008
 21
36.777500
  0
LINE
  8
0
  6
CONTINUOUS
 10
274.556488
 20
37.818748
 11
274.556488
 21
36.777500
  0
LINE
  8
0
  6
CONTINUOUS
 10
265.658112
 20
45.550022
 11
265.300201
 21
44.690990
  0
LINE
  8
0
  6
CONTINUOUS
 10
270.227509
 20
45.550022
 11
270.529388
 21
44.690990
  0
LINE
  8
0
  6
CONTINUOUS
 10
268.491211
 20
45.550022
 11
270.227509
 21
45.550022
  0
LINE
  8
0
  6
CONTINUOUS
 10
267.241699
 20
45.550022
 11
265.658112
 21
45.550022
  0
LINE
  8
0
  6
CONTINUOUS
 10
276.196411
 20
41.450100
 11
278.329315
 21
41.450100
  0
LINE
  8
0
  6
CONTINUOUS
 10
274.556488
 20
45.550022
 11
275.051086
 21
45.550022
  0
LINE
  8
0
  6
CONTINUOUS
 10
276.196411
 20
45.550022
 11
279.306091
 21
45.548000
  0
LINE
  8
0
  6
CONTINUOUS
 10
260.265289
 20
44.848553
 11
260.265289
 21
44.690990
  0
LINE
  8
0
  6
CONTINUOUS
 10
283.146088
 20
11.777500
 11
252.303894
 21
11.777500
  0
LINE
  8
0
  6
CONTINUOUS
 10
252.303894
 20
117.777496
 11
283.146088
 21
117.777496
  0
LINE
  8
0
  6
CONTINUOUS
 10
286.017609
 20
116.870789
 11
316.096405
 21
95.770691
  0
LINE
  8
0
  6
CONTINUOUS
 10
249.432495
 20
116.870781
 11
217.225006
 21
94.277496
  0
LINE
  8
0
  6
CONTINUOUS
 10
286.017609
 20
12.684200
 11
300.966492
 21
23.170771
  0
LINE
  8
0
  6
CONTINUOUS
 10
249.432404
 20
12.684220
 11
217.225006
 21
35.277500
  0
ARC
  8
0
  6
CONTINUOUS
 10
283.146210
 20
112.777496
 40
5.000000
 50
54.950710
 51
90.000000
  0
ARC
  8
0
  6
CONTINUOUS
 10
252.303894
 20
112.777496
 40
5.000000
 50
90.000000
 51
125.049500
  0
ARC
  8
0
  6
CONTINUOUS
 10
252.303894
 20
16.777500
 40
5.000000
 50
234.950500
 51
270.000000
  0
ARC
  8
0
  6
CONTINUOUS
 10
283.146088
 20
16.777500
 40
5.000000
 50
270.000000
 51
305.049591
  0
LINE
  8
0
  6
CONTINUOUS
 10
303.837891
 20
24.077499
 11
313.225006
 21
24.077499
  0
ARC
  8
0
  6
CONTINUOUS
 10
303.837891
 20
19.077511
 40
5.000000
 50
90.000000
 51
125.049698
  0
ARC
  8
0
  6
CONTINUOUS
 10
313.225006
 20
91.677391
 40
5.000000
 50
0.000000
 51
54.950691
  0
LINE
  8
0
  6
CONTINUOUS
 10
400.225006
 20
99.077499
 11
390.725006
 21
99.077499
  0
LINE
  8
0
  6
CONTINUOUS
 10
390.725006
 20
88.486801
 11
400.225006
 21
88.486801
  0
LINE
  8
0
  6
CONTINUOUS
 10
400.225006
 20
9.077500
 11
390.725006
 21
9.077500
  0
LINE
  8
0
  6
CONTINUOUS
 10
390.725006
 20
19.668190
 11
400.225006
 21
19.668190
  0
LINE
  8
0
  6
CONTINUOUS
 10
400.225006
 20
101.077499
 11
400.225006
 21
7.077500
  0
LINE
  8
0
  6
CONTINUOUS
 10
400.225006
 20
83.077499
 11
444.200012
 21
83.077499
  0
LINE
  8
0
  6
CONTINUOUS
 10
400.225006
 20
25.077499
 11
444.200012
 21
25.077499
  0
LINE
  8
0
  6
CONTINUOUS
 10
390.225006
 20
100.577499
 11
390.225006
 21
99.077499
  0
LINE
  8
0
  6
CONTINUOUS
 10
397.225006
 20
100.577499
 11
397.225006
 21
99.077499
  0
LINE
  8
0
  6
CONTINUOUS
 10
397.225006
 20
100.577499
 11
390.225006
 21
100.577499
  0
LINE
  8
0
  6
CONTINUOUS
 10
392.825012
 20
113.577499
 11
392.825012
 21
100.577499
  0
LINE
  8
0
  6
CONTINUOUS
 10
394.625000
 20
114.202499
 11
394.625000
 21
100.577499
  0
LINE
  8
0
  6
CONTINUOUS
 10
396.424988
 20
112.139999
 11
396.424988
 21
100.577499
  0
LINE
  8
0
  6
CONTINUOUS
 10
391.024994
 20
112.952499
 11
391.024994
 21
100.577499
  0
LINE
  8
0
  6
CONTINUOUS
 10
394.625000
 20
114.202499
 11
392.825012
 21
113.577499
  0
LINE
  8
0
  6
CONTINUOUS
 10
396.424988
 20
112.139999
 11
394.625000
 21
112.764999
  0
LINE
  8
0
  6
CONTINUOUS
 10
391.024994
 20
112.952499
 11
392.824005
 21
112.504791
  0
LINE
  8
0
  6
CONTINUOUS
 10
442.725006
 20
101.077499
 11
400.225006
 21
101.077499
  0
LINE
  8
0
  6
CONTINUOUS
 10
442.725006
 20
7.077500
 11
400.225006
 21
7.077500
  0
ARC
  8
0
  6
CONTINUOUS
 10
442.725006
 20
96.077530
 40
5.000000
 50
0.000000
 51
90.000000
  0
ARC
  8
0
  6
CONTINUOUS
 10
442.725006
 20
12.077500
 40
5.000000
 50
-90.000000
 51
0.000000
  0
LINE
  8
0
  6
CONTINUOUS
 10
447.725006
 20
96.077507
 11
447.725006
 21
12.077480
  0
LINE
  8
0
  6
CONTINUOUS
 10
262.225006
 20
82.777496
 11
262.225006
 21
76.777496
  0
LINE
  8
0
  6
CONTINUOUS
 10
256.225006
 20
82.777496
 11
256.225006
 21
76.777496
  0
LINE
  8
0
  6
CONTINUOUS
 10
256.225006
 20
82.777496
 11
262.225006
 21
82.777496
  0
LINE
  8
0
  6
CONTINUOUS
 10
256.225006
 20
76.777496
 11
262.225006
 21
76.777496
  0
ARC
  8
0
  6
CONTINUOUS
 10
267.725006
 20
79.777496
 40
9.000000
 50
-160.528793
 51
160.528793
  0
LINE
  8
0
  6
CENTER
 10
267.725006
 20
159.656555
 11
267.725006
 21
304.974365
  0
LINE
  8
0
  6
CENTER
 10
461.893738
 20
240.534058
 11
203.583755
 21
240.534058
  0
LINE
  8
0
  6
CONTINUOUS
 10
221.399124
 20
203.534058
 11
316.276672
 21
203.534058
  0
LINE
  8
0
  6
CONTINUOUS
 10
318.434418
 20
211.531326
 11
318.276001
 21
205.481705
  0
LINE
  8
0
  6
CONTINUOUS
 10
320.382812
 20
195.534058
 11
390.725006
 21
195.534058
  0
LINE
  8
0
  6
CONTINUOUS
 10
390.725006
 20
211.534058
 11
311.382446
 21
211.534058
  0
LINE
  8
0
  6
CONTINUOUS
 10
390.725006
 20
269.534058
 11
320.108124
 21
269.534058
  0
LINE
  8
0
  6
CONTINUOUS
 10
320.251862
 20
285.534058
 11
390.725006
 21
285.534058
  0
LINE
  8
0
  6
CONTINUOUS
 10
319.481934
 20
240.534058
 11
318.225006
 21
288.534058
  0
LINE
  8
0
  6
CONTINUOUS
 10
284.725006
 20
208.534058
 11
284.725006
 21
276.534058
  0
LINE
  8
0
  6
CONTINUOUS
 10
250.725006
 20
208.534058
 11
250.725006
 21
276.534058
  0
LINE
  8
0
  6
CONTINUOUS
 10
311.382446
 20
213.534058
 11
311.382446
 21
276.999054
  0
LINE
  8
0
  6
CONTINUOUS
 10
245.224991
 20
198.534058
 11
290.225006
 21
198.534058
  0
LINE
  8
0
  6
CONTINUOUS
 10
291.225006
 20
199.534058
 11
291.225006
 21
201.534058
  0
LINE
  8
0
  6
CONTINUOUS
 10
244.224991
 20
199.534058
 11
244.224991
 21
201.534058
  0
ARC
  8
0
  6
CONTINUOUS
 10
293.225006
 20
201.534058
 40
2.000000
 50
90.000000
 51
180.000000
  0
ARC
  8
0
  6
CONTINUOUS
 10
242.225006
 20
201.534058
 40
2.000000
 50
0.000000
 51
90.000000
  0
ARC
  8
0
  6
CONTINUOUS
 10
290.224976
 20
199.534058
 40
1.000000
 50
-90.000000
 51
0.000000
  0
ARC
  8
0
  6
CONTINUOUS
 10
245.224991
 20
199.534058
 40
1.000000
 50
180.000000
 51
270.000000
  0
LINE
  8
0
  6
CONTINUOUS
 10
256.225006
 20
166.534058
 11
276.725006
 21
166.534058
  0
LINE
  8
0
  6
CONTINUOUS
 10
276.725006
 20
196.534058
 11
276.725006
 21
166.534058
  0
LINE
  8
0
  6
CONTINUOUS
 10
258.725006
 20
196.534058
 11
258.725006
 21
193.534058
  0
LINE
  8
0
  6
CONTINUOUS
 10
277.725006
 20
196.534058
 11
257.725006
 21
196.534058
  0
LINE
  8
0
  6
CONTINUOUS
 10
277.725006
 20
198.534058
 11
277.725006
 21
196.534058
  0
LINE
  8
0
  6
CONTINUOUS
 10
257.725006
 20
198.534058
 11
257.725006
 21
196.534058
  0
LINE
  8
0
  6
CONTINUOUS
 10
256.225006
 20
166.534058
 11
256.225006
 21
193.534058
  0
LINE
  8
0
  6
CONTINUOUS
 10
256.225006
 20
193.534058
 11
259.239990
 21
193.534058
  0
LINE
  8
0
  6
CONTINUOUS
 10
259.239990
 20
166.534058
 11
259.239990
 21
193.534058
  0
LINE
  8
0
  6
CONTINUOUS
 10
318.225006
 20
288.534058
 11
217.225006
 21
288.534058
  0
LINE
  8
0
  6
CONTINUOUS
 10
219.399796
 20
205.481705
 11
217.225006
 21
288.534058
  0
LINE
  8
0
  6
CONTINUOUS
 10
316.433807
 20
278.534058
 11
219.435165
 21
278.534058
  0
ARC
  8
0
  6
CONTINUOUS
 10
219.435165
 20
280.534058
 40
2.000000
 50
181.500000
 51
270.000000
  0
ARC
  8
0
  6
CONTINUOUS
 10
221.399124
 20
205.534058
 40
2.000000
 50
181.500000
 51
270.000000
  0
ARC
  8
0
  6
CONTINUOUS
 10
248.725006
 20
276.534058
 40
2.000000
 50
0.000000
 51
90.000000
  0
ARC
  8
0
  6
CONTINUOUS
 10
286.725006
 20
276.534058
 40
2.000000
 50
90.000000
 51
180.000000
  0
LINE
  8
0
  6
CONTINUOUS
 10
284.866943
 20
277.274048
 11
250.583069
 21
277.274048
  0
ARC
  8
0
  6
CONTINUOUS
 10
316.433807
 20
280.534058
 40
2.000000
 50
-90.000000
 51
1.500000
  0
ARC
  8
0
  6
CONTINUOUS
 10
320.251862
 20
287.534058
 40
2.000000
 50
181.500000
 51
270.000000
  0
LINE
  8
0
  6
CONTINUOUS
 10
318.383484
 20
197.481705
 11
318.276001
 21
201.586411
  0
ARC
  8
0
  6
CONTINUOUS
 10
320.382812
 20
197.534058
 40
2.000000
 50
181.500000
 51
270.000000
  0
ARC
  8
0
  6
CONTINUOUS
 10
316.276672
 20
201.534058
 40
2.000000
 50
1.500000
 51
90.000000
  0
ARC
  8
0
  6
CONTINUOUS
 10
316.276672
 20
205.534058
 40
2.000000
 50
270.000000
 51
358.500000
  0
LINE
  8
0
  6
CENTER
 10
227.725006
 20
296.222656
 11
227.725006
 21
272.359985
  0
LINE
  8
0
  6
DASHED
 10
223.475006
 20
278.534058
 11
223.475006
 21
288.534058
  0
LINE
  8
0
  6
DASHED
 10
231.975006
 20
278.534058
 11
231.975006
 21
288.534058
  0
LINE
  8
0
  6
CENTER
 10
307.725006
 20
296.222656
 11
307.725006
 21
272.359985
  0
LINE
  8
0
  6
DASHED
 10
311.975006
 20
278.534058
 11
311.975006
 21
288.534058
  0
LINE
  8
0
  6
DASHED
 10
303.475006
 20
278.534058
 11
303.475006
 21
288.534058
  0
LINE
  8
0
  6
CONTINUOUS
 10
400.225006
 20
195.534058
 11
390.725006
 21
195.534058
  0
LINE
  8
0
  6
CONTINUOUS
 10
390.725006
 20
211.534058
 11
400.225006
 21
211.534058
  0
LINE
  8
0
  6
CONTINUOUS
 10
400.225006
 20
285.534058
 11
390.725006
 21
285.534058
  0
LINE
  8
0
  6
CONTINUOUS
 10
390.725006
 20
285.534058
 11
390.725006
 21
247.400085
  0
LINE
  8
0
  6
CONTINUOUS
 10
390.725006
 20
269.534058
 11
400.225006
 21
269.534058
  0
LINE
  8
0
  6
CONTINUOUS
 10
397.225006
 20
246.534058
 11
397.225006
 21
234.534058
  0
LINE
  8
0
  6
CONTINUOUS
 10
390.225006
 20
246.534058
 11
390.225006
 21
234.534058
  0
LINE
  8
0
  6
CONTINUOUS
 10
396.225006
 20
233.534058
 11
391.225006
 21
233.534058
  0
LINE
  8
0
  6
CONTINUOUS
 10
391.225006
 20
247.534058
 11
396.225006
 21
247.534058
  0
ARC
  8
0
  6
CONTINUOUS
 10
391.225006
 20
234.534058
 40
1.000000
 50
180.000000
 51
270.000000
  0
ARC
  8
0
  6
CONTINUOUS
 10
396.225006
 20
234.534058
 40
1.000000
 50
-90.000000
 51
0.000000
  0
ARC
  8
0
  6
CONTINUOUS
 10
396.225006
 20
246.534058
 40
1.000000
 50
0.000000
 51
90.000000
  0
ARC
  8
0
  6
CONTINUOUS
 10
391.225006
 20
246.534058
 40
1.000000
 50
90.000000
 51
180.000000
  0
LINE
  8
0
  6
CONTINUOUS
 10
392.725006
 20
244.034058
 11
392.725006
 21
237.034058
  0
LINE
  8
0
  6
CONTINUOUS
 10
394.725006
 20
244.034058
 11
394.725006
 21
237.034058
  0
ARC
  8
0
  6
CONTINUOUS
 10
393.725006
 20
237.034058
 40
1.000000
 50
-90.000000
 51
0.000000
  0
ARC
  8
0
  6
CONTINUOUS
 10
393.725006
 20
237.034058
 40
1.000000
 50
180.000000
 51
270.000000
  0
ARC
  8
0
  6
CONTINUOUS
 10
393.725006
 20
244.034058
 40
1.000000
 50
0.000000
 51
90.000000
  0
ARC
  8
0
  6
CONTINUOUS
 10
393.725006
 20
244.034058
 40
1.000000
 50
90.000000
 51
180.000000
  0
LINE
  8
0
  6
CONTINUOUS
 10
390.725006
 20
233.668045
 11
390.725006
 21
195.534058
  0
LINE
  8
0
  6
CONTINUOUS
 10
400.225006
 20
193.534058
 11
400.225006
 21
287.534058
  0
LINE
  8
0
  6
CONTINUOUS
 10
400.225006
 20
211.534058
 11
444.200043
 21
211.534058
  0
LINE
  8
0
  6
CONTINUOUS
 10
400.225006
 20
269.534058
 11
444.200043
 21
269.534058
  0
LINE
  8
0
  6
CONTINUOUS
 10
442.725006
 20
193.534058
 11
400.225006
 21
193.534058
  0
LINE
  8
0
  6
CONTINUOUS
 10
442.725006
 20
287.534058
 11
400.225006
 21
287.534058
  0
ARC
  8
0
  6
CONTINUOUS
 10
442.724976
 20
198.534058
 40
5.000000
 50
-90.000000
 51
0.000000
  0
ARC
  8
0
  6
CONTINUOUS
 10
442.725006
 20
282.534058
 40
5.000000
 50
0.000000
 51
90.000000
  0
LINE
  8
0
  6
CONTINUOUS
 10
447.724976
 20
198.534058
 11
447.725006
 21
282.534088
  0
TEXT
  8
0
 10
-31.000000
 20
-3.000000
 40
4.000000
 41
1.000000
  1
HFM-18L-10~240-S90
 50
0.000000
  0
ENDSEC
  0
EOF
