  0
SECTION
  2
HEADER
  9
$CLAYER
  8
1
  9
$LTSCALE
 40
3.0
  0
ENDSEC
  0
SECTION
  2
TABLES
  0
TABLE
  2
LTYPE
 70
     4
  0
LTYPE
  2
CONTINUOUS
  3
solid line
 70
    64
 72
    65
 73
     0
 40
0.0
  0
LTYPE
  2
DASHED
  3
__ __ __ __ __ __ __ __ __ __ __ __ __ __ __
 70
    64
 72
    65
 73
     2
 40
0.75
 49
0.5
 49
-0.25
  0
LTYPE
  2
CENTER
  3
____ _ ____ _ ____ _ ____ _ ____ _ ____ _ ____
 70
    64
 72
    65
 73
     4
 40
2.0
 49
1.25
 49
-0.25
 49
0.25
 49
-0.25
  0
LTYPE
  2
PHANTOM
  3
_____ _ _ _____ _ _ _____ _ _ _____ _ _ ____
 70
    64
 72
    65
 73
     6
 40
2.5
 49
1.25
 49
-0.25
 49
0.25
 49
-0.25
 49
0.25
 49
-0.25
  0
ENDTAB
  0
TABLE
  2
LAYER
 70
     1
  0
LAYER
  2
0
 70
    64
 62
     7
  6
CONTINUOUS
  0
ENDTAB
  0
TABLE
  2
STYLE
 70
     1
  0
STYLE
  2
STANDARD
 70
     0
 40
0.000000
 41
1.000000
 50
0.000000
 71
     0
 42
3.000000
  3
txt
  4
BIGFONT
  0
ENDTAB
  0
ENDSEC
  0
SECTION
  2
BLOCKS
  0
ENDSEC
  0
SECTION
  2
ENTITIES
  0
LINE
  8
0
  6
CENTER
 10
60.195000
 20
0.765000
 11
60.195000
 21
131.264999
  0
LINE
  8
0
  6
CONTINUOUS
 10
12.195000
 20
125.464996
 11
12.195000
 21
7.465000
  0
LINE
  8
0
  6
CONTINUOUS
 10
102.195000
 20
103.964989
 11
102.195000
 21
58.964993
  0
LINE
  8
0
  6
CONTINUOUS
 10
97.195000
 20
116.516876
 11
97.195000
 21
16.413080
  0
LINE
  8
0
  6
CENTER
 10
2.882500
 20
81.464996
 11
142.132507
 21
81.464996
  0
LINE
  8
0
  6
CONTINUOUS
 10
99.195023
 20
104.964996
 11
101.195000
 21
104.964996
  0
LINE
  8
0
  6
CONTINUOUS
 10
99.195023
 20
57.964996
 11
101.195000
 21
57.964996
  0
LINE
  8
0
  6
CONTINUOUS
 10
22.195000
 20
33.965012
 11
22.195000
 21
8.965000
  0
LINE
  8
0
  6
CONTINUOUS
 10
20.660351
 20
125.464996
 11
12.195000
 21
125.464996
  0
LINE
  8
0
  6
CONTINUOUS
 10
20.660351
 20
7.465000
 11
12.195000
 21
7.465000
  0
LINE
  8
0
  6
CONTINUOUS
 10
94.247337
 20
119.516441
 11
24.160110
 21
120.739532
  0
LINE
  8
0
  6
CONTINUOUS
 10
94.247360
 20
13.413550
 11
24.160080
 21
12.189920
  0
LINE
  8
0
  6
CONTINUOUS
 10
95.256989
 20
95.964996
 11
25.195021
 21
95.964996
  0
LINE
  8
0
  6
CONTINUOUS
 10
95.256989
 20
36.965000
 11
25.195021
 21
36.965000
  0
ARC
  8
0
  6
CONTINUOUS
 10
94.195023
 20
116.516876
 40
3.000000
 50
0.000000
 51
89.000359
  0
ARC
  8
0
  6
CONTINUOUS
 10
94.195000
 20
16.413080
 40
3.000000
 50
-88.999687
 51
0.000000
  0
ARC
  8
0
  6
CONTINUOUS
 10
25.195021
 20
33.965019
 40
3.000000
 50
90.000000
 51
180.000000
  0
ARC
  8
0
  6
CONTINUOUS
 10
25.195000
 20
98.964996
 40
3.000000
 50
180.000000
 51
270.000000
  0
LINE
  8
0
  6
CENTER
 10
7.132500
 20
16.465000
 11
26.882500
 21
16.465000
  0
LINE
  8
0
  6
CENTER
 10
8.882500
 20
116.464996
 11
25.882500
 21
116.464996
  0
LINE
  8
0
  6
DASHED
 10
12.195000
 20
112.214996
 11
22.195000
 21
112.214996
  0
LINE
  8
0
  6
DASHED
 10
12.195000
 20
120.714996
 11
22.195000
 21
120.714996
  0
LINE
  8
0
  6
DASHED
 10
12.195000
 20
20.715000
 11
22.195000
 21
20.715000
  0
LINE
  8
0
  6
DASHED
 10
12.195000
 20
12.215000
 11
22.195000
 21
12.215000
  0
LINE
  8
0
  6
CONTINUOUS
 10
34.195019
 20
10.765000
 11
86.194992
 21
10.765000
  0
ARC
  8
0
  6
CONTINUOUS
 10
86.195000
 20
13.765000
 40
3.000000
 50
270.000000
 51
351.561890
  0
ARC
  8
0
  6
CONTINUOUS
 10
34.195000
 20
13.765000
 40
3.000000
 50
208.811905
 51
270.000000
  0
ARC
  8
0
  6
CONTINUOUS
 10
99.195000
 20
106.964996
 40
2.000000
 50
180.000000
 51
270.000000
  0
ARC
  8
0
  6
CONTINUOUS
 10
99.195023
 20
55.965008
 40
2.000000
 50
90.000000
 51
180.000000
  0
ARC
  8
0
  6
CONTINUOUS
 10
101.195000
 20
58.964996
 40
1.000000
 50
-90.000000
 51
0.000000
  0
ARC
  8
0
  6
CONTINUOUS
 10
101.195000
 20
103.964989
 40
1.000000
 50
0.000000
 51
90.000000
  0
ARC
  8
0
  6
CONTINUOUS
 10
60.195000
 20
55.764999
 40
45.000000
 50
-34.692108
 51
20.459709
  0
ARC
  8
0
  6
CONTINUOUS
 10
20.695000
 20
8.965000
 40
1.500000
 50
-90.000000
 51
0.000000
  0
LINE
  8
0
  6
CENTER
 10
2.882500
 20
55.764999
 11
114.231247
 21
55.764999
  0
LINE
  8
0
  6
CONTINUOUS
 10
22.195000
 20
123.464996
 11
22.195000
 21
98.964989
  0
ARC
  8
0
  6
CONTINUOUS
 10
24.194981
 20
122.739243
 40
2.000000
 50
180.000000
 51
269.000610
  0
LINE
  8
0
  6
CONTINUOUS
 10
22.592199
 20
123.982643
 11
22.872810
 21
122.935410
  0
ARC
  8
0
  6
CONTINUOUS
 10
20.195011
 20
123.464989
 40
2.000000
 50
0.000000
 51
90.000000
  0
ARC
  8
0
  6
CONTINUOUS
 10
20.660358
 20
123.464989
 40
2.000000
 50
15.000500
 51
90.000000
  0
ARC
  8
0
  6
CONTINUOUS
 10
25.770559
 20
123.711899
 40
3.000000
 50
195.000504
 51
269.000610
  0
LINE
  8
0
  6
CONTINUOUS
 10
22.592199
 20
8.947360
 11
22.872650
 21
9.994020
  0
ARC
  8
0
  6
CONTINUOUS
 10
20.660351
 20
9.465000
 40
2.000000
 50
270.000000
 51
345.000092
  0
ARC
  8
0
  6
CONTINUOUS
 10
24.195009
 20
10.190230
 40
2.000000
 50
91.000633
 51
180.000000
  0
ARC
  8
0
  6
CONTINUOUS
 10
25.770439
 20
9.217580
 40
3.000000
 50
91.000526
 51
165.000198
  0
LINE
  8
0
  6
CONTINUOUS
 10
393.195007
 20
10.765000
 11
393.195007
 21
100.764999
  0
LINE
  8
0
  6
CENTER
 10
424.098114
 20
55.764999
 11
301.599915
 21
55.764999
  0
LINE
  8
0
  6
CONTINUOUS
 10
219.695007
 20
36.965000
 11
219.695007
 21
95.964996
  0
LINE
  8
0
  6
CONTINUOUS
 10
393.195007
 20
100.764999
 11
313.852386
 21
100.764999
  0
LINE
  8
0
  6
CONTINUOUS
 10
322.695007
 20
10.765000
 11
393.195007
 21
10.765000
  0
LINE
  8
0
  6
CENTER
 10
308.849487
 20
81.464996
 11
228.092499
 21
81.464996
  0
LINE
  8
0
  6
CENTER
 10
270.195007
 20
134.014999
 11
270.195007
 21
-1.328350
  0
LINE
  8
0
  6
CONTINUOUS
 10
310.195007
 20
125.464996
 11
230.195007
 21
125.464996
  0
LINE
  8
0
  6
CONTINUOUS
 10
310.195007
 20
7.465000
 11
230.195007
 21
7.465000
  0
LINE
  8
0
  6
CENTER
 10
237.195007
 20
116.464996
 11
223.320007
 21
116.464996
  0
LINE
  8
0
  6
CENTER
 10
230.195007
 20
109.764999
 11
230.195007
 21
123.264999
  0
CIRCLE
  8
0
  6
CONTINUOUS
 10
230.195007
 20
116.464996
 40
4.250000
  0
LINE
  8
0
  6
CENTER
 10
237.195007
 20
16.465000
 11
223.320007
 21
16.465000
  0
LINE
  8
0
  6
CENTER
 10
230.195007
 20
23.165001
 11
230.195007
 21
9.665000
  0
CIRCLE
  8
0
  6
CONTINUOUS
 10
230.195007
 20
16.465000
 40
4.250000
  0
LINE
  8
0
  6
CENTER
 10
303.195007
 20
116.464996
 11
317.070007
 21
116.464996
  0
LINE
  8
0
  6
CENTER
 10
310.195007
 20
109.764999
 11
310.195007
 21
123.264999
  0
CIRCLE
  8
0
  6
CONTINUOUS
 10
310.195007
 20
116.464996
 40
4.250000
  0
LINE
  8
0
  6
CENTER
 10
303.195007
 20
16.465000
 11
317.070007
 21
16.465000
  0
LINE
  8
0
  6
CENTER
 10
310.195007
 20
23.165001
 11
310.195007
 21
9.665000
  0
CIRCLE
  8
0
  6
CONTINUOUS
 10
310.195007
 20
16.465000
 40
4.250000
  0
LINE
  8
0
  6
CONTINUOUS
 10
221.218307
 20
117.111633
 11
219.695007
 21
95.964996
  0
LINE
  8
0
  6
CONTINUOUS
 10
221.218307
 20
15.818440
 11
219.695007
 21
36.965000
  0
ARC
  8
0
  6
CONTINUOUS
 10
230.195007
 20
116.464996
 40
9.000000
 50
90.000000
 51
175.879898
  0
ARC
  8
0
  6
CONTINUOUS
 10
230.195007
 20
16.465000
 40
9.000000
 50
-175.879898
 51
-90.000000
  0
ARC
  8
0
  6
CONTINUOUS
 10
310.195007
 20
116.464996
 40
9.000000
 50
4.120102
 51
90.000000
  0
LINE
  8
0
  6
CONTINUOUS
 10
319.171692
 20
117.111633
 11
320.349213
 21
100.764999
  0
LINE
  8
0
  6
CONTINUOUS
 10
319.171692
 20
15.818440
 11
319.739807
 21
23.704321
  0
ARC
  8
0
  6
CONTINUOUS
 10
310.195007
 20
16.465000
 40
9.000000
 50
270.000000
 51
355.879913
  0
ARC
  8
0
  6
CONTINUOUS
 10
315.695007
 20
20.765030
 40
5.000000
 50
0.000000
 51
90.000000
  0
ARC
  8
0
  6
CONTINUOUS
 10
322.695007
 20
12.765000
 40
2.000000
 50
180.000000
 51
270.000000
  0
LINE
  8
0
  6
CONTINUOUS
 10
320.695007
 20
12.765000
 11
320.695007
 21
20.765030
  0
LINE
  8
0
  6
CONTINUOUS
 10
320.695007
 20
93.364891
 11
320.695007
 21
20.765030
  0
LINE
  8
0
  6
CONTINUOUS
 10
393.195007
 20
90.174301
 11
322.695007
 21
90.174301
  0
LINE
  8
0
  6
CONTINUOUS
 10
393.195007
 20
21.355690
 11
322.195007
 21
21.355690
  0
CIRCLE
  8
0
  6
CONTINUOUS
 10
270.195007
 20
81.464996
 40
23.500000
  0
LINE
  8
0
  6
CONTINUOUS
 10
261.785614
 20
38.465000
 11
258.320007
 21
38.465000
  0
LINE
  8
0
  6
CONTINUOUS
 10
263.698486
 20
44.269970
 11
263.698486
 21
38.465000
  0
LINE
  8
0
  6
CONTINUOUS
 10
267.030487
 20
46.378494
 11
267.030487
 21
48.460999
  0
LINE
  8
0
  6
CONTINUOUS
 10
273.694489
 20
46.378494
 11
273.694489
 21
48.460999
  0
LINE
  8
0
  6
CONTINUOUS
 10
269.711700
 20
47.237526
 11
269.711700
 21
39.558311
  0
LINE
  8
0
  6
CONTINUOUS
 10
270.961212
 20
47.237526
 11
270.961212
 21
39.558311
  0
LINE
  8
0
  6
CONTINUOUS
 10
277.521088
 20
47.237526
 11
277.521088
 21
39.506248
  0
LINE
  8
0
  6
CONTINUOUS
 10
278.666412
 20
43.137600
 11
278.666412
 21
39.506248
  0
LINE
  8
0
  6
CONTINUOUS
 10
262.117401
 20
47.133400
 11
258.906189
 21
47.133400
  0
LINE
  8
0
  6
CONTINUOUS
 10
259.403290
 20
39.636410
 11
258.918304
 21
39.636410
  0
LINE
  8
0
  6
CONTINUOUS
 10
258.906189
 20
47.133400
 11
258.153809
 21
46.200439
  0
LINE
  8
0
  6
CONTINUOUS
 10
258.244293
 20
48.460999
 11
257.034485
 21
46.911819
  0
LINE
  8
0
  6
CONTINUOUS
 10
258.153809
 20
40.441639
 11
258.918304
 21
39.636410
  0
LINE
  8
0
  6
CONTINUOUS
 10
257.034485
 20
39.762100
 11
258.320007
 21
38.465000
  0
LINE
  8
0
  6
CONTINUOUS
 10
257.034485
 20
46.911819
 11
257.034485
 21
39.762100
  0
LINE
  8
0
  6
CONTINUOUS
 10
258.153809
 20
46.200439
 11
258.153809
 21
40.441639
  0
LINE
  8
0
  6
CONTINUOUS
 10
262.735291
 20
46.536057
 11
262.104797
 21
47.133400
  0
LINE
  8
0
  6
CONTINUOUS
 10
262.725311
 20
48.460999
 11
263.698486
 21
47.381020
  0
LINE
  8
0
  6
CONTINUOUS
 10
262.735291
 20
46.378494
 11
263.698486
 21
46.378494
  0
LINE
  8
0
  6
CONTINUOUS
 10
258.244293
 20
48.460999
 11
262.725311
 21
48.460999
  0
LINE
  8
0
  6
CONTINUOUS
 10
260.991211
 20
44.269970
 11
263.698486
 21
44.269970
  0
LINE
  8
0
  6
CONTINUOUS
 10
262.735291
 20
43.176651
 11
260.991211
 21
43.176651
  0
LINE
  8
0
  6
CONTINUOUS
 10
260.236298
 20
39.636410
 11
259.403290
 21
39.636410
  0
LINE
  8
0
  6
CONTINUOUS
 10
262.735291
 20
42.135410
 11
262.735291
 21
42.968399
  0
LINE
  8
0
  6
CONTINUOUS
 10
260.652802
 20
39.636410
 11
260.236298
 21
39.636410
  0
LINE
  8
0
  6
CONTINUOUS
 10
262.735291
 20
41.718899
 11
262.735291
 21
42.135410
  0
LINE
  8
0
  6
CONTINUOUS
 10
262.735291
 20
41.663589
 11
262.735291
 21
41.718899
  0
ARC
  8
0
  6
CONTINUOUS
 10
260.652802
 20
41.718899
 40
2.082500
 50
-89.999786
 51
0.000109
  0
LINE
  8
0
  6
CONTINUOUS
 10
262.735291
 20
39.261822
 11
262.735291
 21
38.465000
  0
LINE
  8
0
  6
CONTINUOUS
 10
263.698486
 20
47.381020
 11
263.698486
 21
46.378494
  0
LINE
  8
0
  6
CONTINUOUS
 10
262.735291
 20
43.176651
 11
262.735291
 21
41.718899
  0
LINE
  8
0
  6
CONTINUOUS
 10
260.991211
 20
44.269970
 11
260.991211
 21
43.176651
  0
LINE
  8
0
  6
CONTINUOUS
 10
262.735291
 20
42.968399
 11
262.735291
 21
43.176651
  0
LINE
  8
0
  6
CONTINUOUS
 10
262.735291
 20
38.465000
 11
263.698486
 21
38.465000
  0
LINE
  8
0
  6
CONTINUOUS
 10
262.735291
 20
39.261822
 11
261.785614
 21
38.465000
  0
LINE
  8
0
  6
CONTINUOUS
 10
270.961212
 20
39.558311
 11
271.377686
 21
39.558311
  0
LINE
  8
0
  6
CONTINUOUS
 10
269.217102
 20
39.558311
 11
269.217102
 21
38.465000
  0
LINE
  8
0
  6
CONTINUOUS
 10
271.377686
 20
39.558311
 11
271.377686
 21
38.465000
  0
LINE
  8
0
  6
CONTINUOUS
 10
272.999390
 20
46.378494
 11
273.694489
 21
46.378494
  0
LINE
  8
0
  6
CONTINUOUS
 10
267.030487
 20
46.378494
 11
267.770203
 21
46.378494
  0
LINE
  8
0
  6
CONTINUOUS
 10
267.030487
 20
48.460999
 11
273.694489
 21
48.460999
  0
LINE
  8
0
  6
CONTINUOUS
 10
269.217102
 20
38.465000
 11
271.377686
 21
38.465000
  0
LINE
  8
0
  6
CONTINUOUS
 10
269.217102
 20
39.558311
 11
269.711700
 21
39.558311
  0
ARC
  8
0
  6
CONTINUOUS
 10
281.022308
 20
45.792793
 40
2.668203
 50
-73.981873
 51
90.003510
  0
ARC
  8
0
  6
CONTINUOUS
 10
281.022308
 20
45.792793
 40
1.627786
 50
-82.585274
 51
62.411850
  0
LINE
  8
0
  6
CONTINUOUS
 10
277.026489
 20
48.460999
 11
281.022308
 21
48.460999
  0
LINE
  8
0
  6
CONTINUOUS
 10
281.232300
 20
44.178619
 11
278.666412
 21
44.178619
  0
LINE
  8
0
  6
CONTINUOUS
 10
277.026489
 20
48.460999
 11
277.026489
 21
47.237526
  0
LINE
  8
0
  6
CONTINUOUS
 10
278.666412
 20
47.237526
 11
278.666412
 21
44.178619
  0
LINE
  8
0
  6
CONTINUOUS
 10
281.758514
 20
43.228180
 11
283.410004
 21
39.506248
  0
LINE
  8
0
  6
CONTINUOUS
 10
280.799286
 20
43.137600
 11
282.362213
 21
39.506248
  0
LINE
  8
0
  6
CONTINUOUS
 10
277.026489
 20
39.506248
 11
277.521088
 21
39.506248
  0
LINE
  8
0
  6
CONTINUOUS
 10
278.666412
 20
39.506248
 11
279.122009
 21
39.506248
  0
LINE
  8
0
  6
CONTINUOUS
 10
279.122009
 20
38.465000
 11
277.026489
 21
38.465000
  0
LINE
  8
0
  6
CONTINUOUS
 10
282.154602
 20
39.506248
 11
282.362213
 21
39.506248
  0
LINE
  8
0
  6
CONTINUOUS
 10
283.410004
 20
39.506248
 11
283.690491
 21
39.506248
  0
LINE
  8
0
  6
CONTINUOUS
 10
282.154602
 20
38.465000
 11
283.690491
 21
38.465000
  0
LINE
  8
0
  6
CONTINUOUS
 10
283.690491
 20
39.506248
 11
283.690491
 21
38.465000
  0
LINE
  8
0
  6
CONTINUOUS
 10
282.154602
 20
39.506248
 11
282.154602
 21
38.465000
  0
LINE
  8
0
  6
CONTINUOUS
 10
279.122009
 20
39.506248
 11
279.122009
 21
38.465000
  0
LINE
  8
0
  6
CONTINUOUS
 10
277.026489
 20
39.506248
 11
277.026489
 21
38.465000
  0
LINE
  8
0
  6
CONTINUOUS
 10
268.128113
 20
47.237526
 11
267.770203
 21
46.378494
  0
LINE
  8
0
  6
CONTINUOUS
 10
272.697510
 20
47.237526
 11
272.999390
 21
46.378494
  0
LINE
  8
0
  6
CONTINUOUS
 10
270.961212
 20
47.237526
 11
272.697510
 21
47.237526
  0
LINE
  8
0
  6
CONTINUOUS
 10
269.711700
 20
47.237526
 11
268.128113
 21
47.237526
  0
LINE
  8
0
  6
CONTINUOUS
 10
278.666412
 20
43.137600
 11
280.799286
 21
43.137600
  0
LINE
  8
0
  6
CONTINUOUS
 10
277.026489
 20
47.237526
 11
277.521088
 21
47.237526
  0
LINE
  8
0
  6
CONTINUOUS
 10
278.666412
 20
47.237526
 11
281.776093
 21
47.235504
  0
LINE
  8
0
  6
CONTINUOUS
 10
262.735291
 20
46.536057
 11
262.735291
 21
46.378494
  0
LINE
  8
0
  6
CONTINUOUS
 10
285.616089
 20
13.465000
 11
254.773895
 21
13.465000
  0
LINE
  8
0
  6
CONTINUOUS
 10
254.773895
 20
119.464996
 11
285.616089
 21
119.464996
  0
LINE
  8
0
  6
CONTINUOUS
 10
288.487610
 20
118.558289
 11
318.566406
 21
97.458191
  0
LINE
  8
0
  6
CONTINUOUS
 10
251.902496
 20
118.558281
 11
219.695007
 21
95.964996
  0
LINE
  8
0
  6
CONTINUOUS
 10
288.487610
 20
14.371710
 11
303.436493
 21
24.858271
  0
LINE
  8
0
  6
CONTINUOUS
 10
251.902405
 20
14.371720
 11
219.695007
 21
36.965000
  0
ARC
  8
0
  6
CONTINUOUS
 10
285.616211
 20
114.464996
 40
5.000000
 50
54.950710
 51
90.000000
  0
ARC
  8
0
  6
CONTINUOUS
 10
254.773895
 20
114.464996
 40
5.000000
 50
90.000000
 51
125.049500
  0
ARC
  8
0
  6
CONTINUOUS
 10
254.773895
 20
18.465000
 40
5.000000
 50
234.950500
 51
270.000000
  0
ARC
  8
0
  6
CONTINUOUS
 10
285.616089
 20
18.465000
 40
5.000000
 50
270.000000
 51
305.049591
  0
LINE
  8
0
  6
CONTINUOUS
 10
306.307892
 20
25.764999
 11
315.695007
 21
25.764999
  0
ARC
  8
0
  6
CONTINUOUS
 10
306.307892
 20
20.765011
 40
5.000000
 50
90.000000
 51
125.049698
  0
ARC
  8
0
  6
CONTINUOUS
 10
315.695007
 20
93.364891
 40
5.000000
 50
0.000000
 51
54.950691
  0
LINE
  8
0
  6
CONTINUOUS
 10
413.695007
 20
20.764999
 11
413.695007
 21
90.764999
  0
LINE
  8
0
  6
CONTINUOUS
 10
409.153595
 20
100.764999
 11
393.195007
 21
100.764999
  0
LINE
  8
0
  6
CONTINUOUS
 10
413.195007
 20
97.764999
 11
413.195007
 21
13.765000
  0
LINE
  8
0
  6
CONTINUOUS
 10
393.195007
 20
90.174301
 11
411.445007
 21
90.174301
  0
ARC
  8
0
  6
CONTINUOUS
 10
413.695007
 20
91.264999
 40
0.500000
 50
180.000000
 51
270.000000
  0
LINE
  8
0
  6
CONTINUOUS
 10
412.617615
 20
98.764992
 11
413.195007
 21
97.764999
  0
ARC
  8
0
  6
CONTINUOUS
 10
409.153503
 20
96.765007
 40
4.000000
 50
29.999599
 51
90.000000
  0
LINE
  8
0
  6
CONTINUOUS
 10
409.153595
 20
10.765000
 11
393.195007
 21
10.765000
  0
LINE
  8
0
  6
CONTINUOUS
 10
393.195007
 20
21.355700
 11
411.445007
 21
21.355700
  0
ARC
  8
0
  6
CONTINUOUS
 10
413.695007
 20
20.264999
 40
0.500000
 50
90.000000
 51
180.000000
  0
LINE
  8
0
  6
CONTINUOUS
 10
412.617615
 20
12.765010
 11
413.195007
 21
13.765000
  0
ARC
  8
0
  6
CONTINUOUS
 10
409.153503
 20
14.764990
 40
4.000000
 50
270.000000
 51
330.000397
  0
LINE
  8
0
  6
CONTINUOUS
 10
392.695007
 20
102.264999
 11
392.695007
 21
100.764999
  0
LINE
  8
0
  6
CONTINUOUS
 10
399.695007
 20
102.264999
 11
399.695007
 21
100.764999
  0
LINE
  8
0
  6
CONTINUOUS
 10
399.695007
 20
102.264999
 11
392.695007
 21
102.264999
  0
LINE
  8
0
  6
CONTINUOUS
 10
395.295013
 20
115.264999
 11
395.295013
 21
102.264999
  0
LINE
  8
0
  6
CONTINUOUS
 10
397.095001
 20
115.889999
 11
397.095001
 21
102.264999
  0
LINE
  8
0
  6
CONTINUOUS
 10
398.894989
 20
113.827499
 11
398.894989
 21
102.264999
  0
LINE
  8
0
  6
CONTINUOUS
 10
393.494995
 20
114.639999
 11
393.494995
 21
102.264999
  0
LINE
  8
0
  6
CONTINUOUS
 10
397.095001
 20
115.889999
 11
395.295013
 21
115.264999
  0
LINE
  8
0
  6
CONTINUOUS
 10
398.894989
 20
113.827499
 11
397.095001
 21
114.452499
  0
LINE
  8
0
  6
CONTINUOUS
 10
393.494995
 20
114.639999
 11
395.294006
 21
114.192291
  0
LINE
  8
0
  6
CONTINUOUS
 10
134.195007
 20
72.464996
 11
134.195007
 21
90.464996
  0
LINE
  8
0
  6
CONTINUOUS
 10
104.195000
 20
90.464996
 11
134.195007
 21
90.464996
  0
LINE
  8
0
  6
CONTINUOUS
 10
104.195000
 20
72.464996
 11
134.195007
 21
72.464996
  0
LINE
  8
0
  6
CONTINUOUS
 10
104.195000
 20
91.464996
 11
104.195000
 21
71.464996
  0
LINE
  8
0
  6
CONTINUOUS
 10
102.195000
 20
91.464996
 11
104.195000
 21
91.464996
  0
LINE
  8
0
  6
CONTINUOUS
 10
102.195000
 20
71.464996
 11
104.195000
 21
71.464996
  0
ARC
  8
0
  6
CONTINUOUS
 10
110.195000
 20
81.464996
 40
3.000000
 50
90.000000
 51
270.000000
  0
LINE
  8
0
  6
CONTINUOUS
 10
110.195000
 20
84.464996
 11
134.195007
 21
84.464996
  0
LINE
  8
0
  6
CONTINUOUS
 10
110.195023
 20
78.464996
 11
134.195007
 21
78.464996
  0
LINE
  8
0
  6
CONTINUOUS
 10
264.695007
 20
84.464996
 11
264.695007
 21
78.464996
  0
LINE
  8
0
  6
CONTINUOUS
 10
258.695007
 20
84.464996
 11
258.695007
 21
78.464996
  0
LINE
  8
0
  6
CONTINUOUS
 10
258.695007
 20
84.464996
 11
264.695007
 21
84.464996
  0
LINE
  8
0
  6
CONTINUOUS
 10
258.695007
 20
78.464996
 11
264.695007
 21
78.464996
  0
ARC
  8
0
  6
CONTINUOUS
 10
270.195007
 20
81.464996
 40
9.000000
 50
-160.528793
 51
160.528793
  0
LINE
  8
0
  6
CONTINUOUS
 10
399.695007
 20
247.173752
 11
399.695007
 21
235.173752
  0
LINE
  8
0
  6
CONTINUOUS
 10
392.695007
 20
247.173752
 11
392.695007
 21
235.173752
  0
LINE
  8
0
  6
CONTINUOUS
 10
398.695007
 20
234.173752
 11
393.695007
 21
234.173752
  0
LINE
  8
0
  6
CONTINUOUS
 10
393.695007
 20
248.173752
 11
398.695007
 21
248.173752
  0
ARC
  8
0
  6
CONTINUOUS
 10
393.695007
 20
235.173752
 40
1.000000
 50
180.000000
 51
270.000000
  0
ARC
  8
0
  6
CONTINUOUS
 10
398.695007
 20
235.173752
 40
1.000000
 50
-90.000000
 51
0.000000
  0
ARC
  8
0
  6
CONTINUOUS
 10
398.695007
 20
247.173752
 40
1.000000
 50
0.000000
 51
90.000000
  0
ARC
  8
0
  6
CONTINUOUS
 10
393.695007
 20
247.173752
 40
1.000000
 50
90.000000
 51
180.000000
  0
LINE
  8
0
  6
CONTINUOUS
 10
395.195007
 20
244.673752
 11
395.195007
 21
237.673752
  0
LINE
  8
0
  6
CONTINUOUS
 10
397.195007
 20
244.673752
 11
397.195007
 21
237.673752
  0
ARC
  8
0
  6
CONTINUOUS
 10
396.195007
 20
237.673752
 40
1.000000
 50
-90.000000
 51
0.000000
  0
ARC
  8
0
  6
CONTINUOUS
 10
396.195007
 20
237.673752
 40
1.000000
 50
180.000000
 51
270.000000
  0
ARC
  8
0
  6
CONTINUOUS
 10
396.195007
 20
244.673752
 40
1.000000
 50
0.000000
 51
90.000000
  0
ARC
  8
0
  6
CONTINUOUS
 10
396.195007
 20
244.673752
 40
1.000000
 50
90.000000
 51
180.000000
  0
LINE
  8
0
  6
CENTER
 10
270.195007
 20
160.296249
 11
270.195007
 21
305.614075
  0
LINE
  8
0
  6
CENTER
 10
427.181244
 20
241.173752
 11
206.053757
 21
241.173752
  0
LINE
  8
0
  6
CONTINUOUS
 10
223.869110
 20
204.173752
 11
318.746674
 21
204.173752
  0
LINE
  8
0
  6
CONTINUOUS
 10
413.695007
 20
276.173737
 11
413.695007
 21
206.173752
  0
LINE
  8
0
  6
CONTINUOUS
 10
409.153564
 20
196.173752
 11
393.195007
 21
196.173752
  0
LINE
  8
0
  6
CONTINUOUS
 10
413.195007
 20
199.173752
 11
413.195007
 21
283.173737
  0
LINE
  8
0
  6
CONTINUOUS
 10
393.195007
 20
212.173752
 11
411.445007
 21
212.173752
  0
ARC
  8
0
  6
CONTINUOUS
 10
413.695007
 20
205.673752
 40
0.500000
 50
90.000000
 51
180.000000
  0
LINE
  8
0
  6
CONTINUOUS
 10
412.617645
 20
198.173767
 11
413.195007
 21
199.173752
  0
ARC
  8
0
  6
CONTINUOUS
 10
409.153534
 20
200.173737
 40
4.000000
 50
270.000000
 51
330.000397
  0
LINE
  8
0
  6
CONTINUOUS
 10
409.153564
 20
286.173737
 11
393.195007
 21
286.173737
  0
ARC
  8
0
  6
CONTINUOUS
 10
413.695007
 20
276.673737
 40
0.500000
 50
180.000000
 51
270.000000
  0
LINE
  8
0
  6
CONTINUOUS
 10
412.617645
 20
284.173737
 11
413.195007
 21
283.173737
  0
ARC
  8
0
  6
CONTINUOUS
 10
409.153534
 20
282.173767
 40
4.000000
 50
29.999599
 51
90.000000
  0
LINE
  8
0
  6
CONTINUOUS
 10
393.195007
 20
286.173737
 11
393.195007
 21
248.039780
  0
LINE
  8
0
  6
CONTINUOUS
 10
320.904419
 20
212.171005
 11
320.746002
 21
206.121399
  0
LINE
  8
0
  6
CONTINUOUS
 10
322.852814
 20
196.173752
 11
393.195007
 21
196.173752
  0
LINE
  8
0
  6
CONTINUOUS
 10
393.195007
 20
212.173752
 11
313.852448
 21
212.173752
  0
LINE
  8
0
  6
CONTINUOUS
 10
393.195007
 20
270.173737
 11
411.445007
 21
270.173737
  0
LINE
  8
0
  6
CONTINUOUS
 10
393.195007
 20
270.173737
 11
322.578125
 21
270.173737
  0
LINE
  8
0
  6
CONTINUOUS
 10
322.721863
 20
286.173737
 11
393.195007
 21
286.173737
  0
LINE
  8
0
  6
CONTINUOUS
 10
321.951935
 20
241.173752
 11
320.695007
 21
289.173737
  0
LINE
  8
0
  6
CONTINUOUS
 10
287.195007
 20
209.173752
 11
287.195007
 21
277.173737
  0
LINE
  8
0
  6
CONTINUOUS
 10
253.195007
 20
209.173752
 11
253.195007
 21
277.173737
  0
LINE
  8
0
  6
CONTINUOUS
 10
313.852448
 20
214.173752
 11
313.852448
 21
277.638763
  0
LINE
  8
0
  6
CONTINUOUS
 10
247.694992
 20
199.173752
 11
292.695007
 21
199.173752
  0
LINE
  8
0
  6
CONTINUOUS
 10
293.695007
 20
200.173752
 11
293.695007
 21
202.173752
  0
LINE
  8
0
  6
CONTINUOUS
 10
246.694992
 20
200.173752
 11
246.694992
 21
202.173752
  0
ARC
  8
0
  6
CONTINUOUS
 10
295.695007
 20
202.173752
 40
2.000000
 50
90.000000
 51
180.000000
  0
ARC
  8
0
  6
CONTINUOUS
 10
244.695007
 20
202.173752
 40
2.000000
 50
0.000000
 51
90.000000
  0
ARC
  8
0
  6
CONTINUOUS
 10
292.694977
 20
200.173752
 40
1.000000
 50
-90.000000
 51
0.000000
  0
ARC
  8
0
  6
CONTINUOUS
 10
247.694992
 20
200.173752
 40
1.000000
 50
180.000000
 51
270.000000
  0
LINE
  8
0
  6
CONTINUOUS
 10
258.695007
 20
167.173752
 11
279.195007
 21
167.173752
  0
LINE
  8
0
  6
CONTINUOUS
 10
279.195007
 20
197.173752
 11
279.195007
 21
167.173752
  0
LINE
  8
0
  6
CONTINUOUS
 10
261.195007
 20
197.173752
 11
261.195007
 21
194.173752
  0
LINE
  8
0
  6
CONTINUOUS
 10
280.195007
 20
197.173752
 11
260.195007
 21
197.173752
  0
LINE
  8
0
  6
CONTINUOUS
 10
280.195007
 20
199.173752
 11
280.195007
 21
197.173752
  0
LINE
  8
0
  6
CONTINUOUS
 10
260.195007
 20
199.173752
 11
260.195007
 21
197.173752
  0
LINE
  8
0
  6
CONTINUOUS
 10
258.695007
 20
167.173752
 11
258.695007
 21
194.173752
  0
LINE
  8
0
  6
CONTINUOUS
 10
258.695007
 20
194.173752
 11
261.709991
 21
194.173752
  0
LINE
  8
0
  6
CONTINUOUS
 10
261.709991
 20
167.173752
 11
261.709991
 21
194.173752
  0
LINE
  8
0
  6
CONTINUOUS
 10
393.195007
 20
234.307724
 11
393.195007
 21
196.173752
  0
LINE
  8
0
  6
CONTINUOUS
 10
320.695007
 20
289.173737
 11
219.695007
 21
289.173737
  0
LINE
  8
0
  6
CONTINUOUS
 10
221.869797
 20
206.121399
 11
219.695007
 21
289.173737
  0
LINE
  8
0
  6
CONTINUOUS
 10
318.903809
 20
279.173737
 11
221.905167
 21
279.173737
  0
ARC
  8
0
  6
CONTINUOUS
 10
221.905167
 20
281.173737
 40
2.000000
 50
181.500000
 51
270.000000
  0
ARC
  8
0
  6
CONTINUOUS
 10
223.869110
 20
206.173752
 40
2.000000
 50
181.500000
 51
270.000000
  0
ARC
  8
0
  6
CONTINUOUS
 10
251.195007
 20
277.173737
 40
2.000000
 50
0.000000
 51
90.000000
  0
ARC
  8
0
  6
CONTINUOUS
 10
289.195007
 20
277.173737
 40
2.000000
 50
90.000000
 51
180.000000
  0
LINE
  8
0
  6
CONTINUOUS
 10
287.336945
 20
277.913757
 11
253.053070
 21
277.913757
  0
ARC
  8
0
  6
CONTINUOUS
 10
318.903809
 20
281.173737
 40
2.000000
 50
-90.000000
 51
1.500000
  0
ARC
  8
0
  6
CONTINUOUS
 10
322.721863
 20
288.173737
 40
2.000000
 50
181.500000
 51
270.000000
  0
LINE
  8
0
  6
CONTINUOUS
 10
320.853485
 20
198.121399
 11
320.746002
 21
202.226105
  0
ARC
  8
0
  6
CONTINUOUS
 10
322.852814
 20
198.173752
 40
2.000000
 50
181.500000
 51
270.000000
  0
ARC
  8
0
  6
CONTINUOUS
 10
318.746674
 20
202.173752
 40
2.000000
 50
1.500000
 51
90.000000
  0
ARC
  8
0
  6
CONTINUOUS
 10
318.746674
 20
206.173752
 40
2.000000
 50
270.000000
 51
358.500000
  0
LINE
  8
0
  6
CENTER
 10
230.195007
 20
296.862335
 11
230.195007
 21
272.999695
  0
LINE
  8
0
  6
DASHED
 10
225.945007
 20
279.173737
 11
225.945007
 21
289.173737
  0
LINE
  8
0
  6
DASHED
 10
234.445007
 20
279.173737
 11
234.445007
 21
289.173737
  0
LINE
  8
0
  6
CENTER
 10
310.195007
 20
296.862335
 11
310.195007
 21
272.999695
  0
LINE
  8
0
  6
DASHED
 10
314.445007
 20
279.173737
 11
314.445007
 21
289.173737
  0
LINE
  8
0
  6
DASHED
 10
305.945007
 20
279.173737
 11
305.945007
 21
289.173737
  0
TEXT
  8
0
 10
-10.000000
 20
-1.000000
 40
4.000000
 41
1.000000
  1
HFM-18L-80~240-T60
 50
0.000000
  0
ENDSEC
  0
EOF
