  0
SECTION
  2
HEADER
  9
$CLAYER
  8
1
  9
$LTSCALE
 40
3.0
  0
ENDSEC
  0
SECTION
  2
TABLES
  0
TABLE
  2
LTYPE
 70
     4
  0
LTYPE
  2
CONTINUOUS
  3
solid line
 70
    64
 72
    65
 73
     0
 40
0.0
  0
LTYPE
  2
DASHED
  3
__ __ __ __ __ __ __ __ __ __ __ __ __ __ __
 70
    64
 72
    65
 73
     2
 40
0.75
 49
0.5
 49
-0.25
  0
LTYPE
  2
CENTER
  3
____ _ ____ _ ____ _ ____ _ ____ _ ____ _ ____
 70
    64
 72
    65
 73
     4
 40
2.0
 49
1.25
 49
-0.25
 49
0.25
 49
-0.25
  0
LTYPE
  2
PHANTOM
  3
_____ _ _ _____ _ _ _____ _ _ _____ _ _ ____
 70
    64
 72
    65
 73
     6
 40
2.5
 49
1.25
 49
-0.25
 49
0.25
 49
-0.25
 49
0.25
 49
-0.25
  0
ENDTAB
  0
TABLE
  2
LAYER
 70
     1
  0
LAYER
  2
0
 70
    64
 62
     7
  6
CONTINUOUS
  0
ENDTAB
  0
TABLE
  2
STYLE
 70
     1
  0
STYLE
  2
STANDARD
 70
     0
 40
0.000000
 41
1.000000
 50
0.000000
 71
     0
 42
3.000000
  3
txt
  4
BIGFONT
  0
ENDTAB
  0
ENDSEC
  0
SECTION
  2
BLOCKS
  0
ENDSEC
  0
SECTION
  2
ENTITIES
  0
LINE
  8
0
  6
CENTER
 10
58.067501
 20
3.042500
 11
58.067501
 21
160.250626
  0
LINE
  8
0
  6
CONTINUOUS
 10
10.067500
 20
127.742500
 11
10.067500
 21
9.742500
  0
LINE
  8
0
  6
CONTINUOUS
 10
100.067497
 20
106.242493
 11
100.067497
 21
61.242489
  0
LINE
  8
0
  6
CONTINUOUS
 10
95.067497
 20
118.794380
 11
95.067497
 21
18.690580
  0
LINE
  8
0
  6
CENTER
 10
0.755000
 20
83.742500
 11
140.005005
 21
83.742500
  0
LINE
  8
0
  6
CONTINUOUS
 10
97.067520
 20
107.242500
 11
99.067497
 21
107.242500
  0
LINE
  8
0
  6
CONTINUOUS
 10
97.067520
 20
60.242493
 11
99.067497
 21
60.242493
  0
LINE
  8
0
  6
CONTINUOUS
 10
20.067499
 20
36.242512
 11
20.067499
 21
11.242500
  0
LINE
  8
0
  6
CONTINUOUS
 10
18.532850
 20
127.742500
 11
10.067500
 21
127.742500
  0
LINE
  8
0
  6
CONTINUOUS
 10
18.532850
 20
9.742500
 11
10.067500
 21
9.742500
  0
LINE
  8
0
  6
CONTINUOUS
 10
92.119843
 20
121.793930
 11
22.032610
 21
123.017029
  0
LINE
  8
0
  6
CONTINUOUS
 10
92.119858
 20
15.691040
 11
22.032579
 21
14.467420
  0
LINE
  8
0
  6
CONTINUOUS
 10
93.300972
 20
98.242500
 11
23.067520
 21
98.242500
  0
LINE
  8
0
  6
CONTINUOUS
 10
93.300972
 20
39.242500
 11
23.067520
 21
39.242500
  0
ARC
  8
0
  6
CONTINUOUS
 10
92.067520
 20
118.794380
 40
3.000000
 50
0.000000
 51
89.000359
  0
ARC
  8
0
  6
CONTINUOUS
 10
92.067497
 20
18.690580
 40
3.000000
 50
-88.999687
 51
0.000000
  0
ARC
  8
0
  6
CONTINUOUS
 10
23.067520
 20
36.242519
 40
3.000000
 50
90.000000
 51
180.000000
  0
ARC
  8
0
  6
CONTINUOUS
 10
23.067499
 20
101.242500
 40
3.000000
 50
180.000000
 51
270.000000
  0
LINE
  8
0
  6
CENTER
 10
5.005000
 20
18.742500
 11
24.754999
 21
18.742500
  0
LINE
  8
0
  6
CENTER
 10
6.755000
 20
118.742500
 11
23.754999
 21
118.742500
  0
LINE
  8
0
  6
DASHED
 10
10.067500
 20
114.492500
 11
20.067499
 21
114.492500
  0
LINE
  8
0
  6
DASHED
 10
10.067500
 20
122.992500
 11
20.067499
 21
122.992500
  0
LINE
  8
0
  6
DASHED
 10
10.067500
 20
22.992500
 11
20.067499
 21
22.992500
  0
LINE
  8
0
  6
DASHED
 10
10.067500
 20
14.492500
 11
20.067499
 21
14.492500
  0
LINE
  8
0
  6
CONTINUOUS
 10
32.067520
 20
13.042500
 11
84.067490
 21
13.042500
  0
ARC
  8
0
  6
CONTINUOUS
 10
84.067497
 20
16.042500
 40
3.000000
 50
270.000000
 51
351.561890
  0
ARC
  8
0
  6
CONTINUOUS
 10
32.067501
 20
16.042500
 40
3.000000
 50
208.811905
 51
270.000000
  0
ARC
  8
0
  6
CONTINUOUS
 10
97.067497
 20
109.242500
 40
2.000000
 50
180.000000
 51
270.000000
  0
ARC
  8
0
  6
CONTINUOUS
 10
97.067520
 20
58.242504
 40
2.000000
 50
90.000000
 51
180.000000
  0
ARC
  8
0
  6
CONTINUOUS
 10
99.067497
 20
61.242493
 40
1.000000
 50
-90.000000
 51
0.000000
  0
ARC
  8
0
  6
CONTINUOUS
 10
99.067497
 20
106.242493
 40
1.000000
 50
0.000000
 51
90.000000
  0
ARC
  8
0
  6
CONTINUOUS
 10
58.067501
 20
58.042496
 40
45.000000
 50
-34.692108
 51
20.459709
  0
ARC
  8
0
  6
CONTINUOUS
 10
18.567499
 20
11.242500
 40
1.500000
 50
-90.000000
 51
0.000000
  0
LINE
  8
0
  6
CENTER
 10
0.755000
 20
58.042496
 11
112.067497
 21
58.042496
  0
LINE
  8
0
  6
CONTINUOUS
 10
20.067499
 20
125.742493
 11
20.067499
 21
101.242493
  0
ARC
  8
0
  6
CONTINUOUS
 10
18.067511
 20
125.742493
 40
2.000000
 50
0.000000
 51
90.000000
  0
LINE
  8
0
  6
CONTINUOUS
 10
20.464710
 20
126.260139
 11
20.745310
 21
125.212898
  0
ARC
  8
0
  6
CONTINUOUS
 10
18.532860
 20
125.742493
 40
2.000000
 50
15.000470
 51
90.000000
  0
ARC
  8
0
  6
CONTINUOUS
 10
22.067480
 20
125.016739
 40
2.000000
 50
180.000000
 51
269.000610
  0
ARC
  8
0
  6
CONTINUOUS
 10
23.643070
 20
125.989403
 40
3.000000
 50
195.000504
 51
269.000488
  0
LINE
  8
0
  6
CONTINUOUS
 10
20.464701
 20
11.224860
 11
20.745150
 21
12.271530
  0
ARC
  8
0
  6
CONTINUOUS
 10
18.532850
 20
11.742500
 40
2.000000
 50
270.000000
 51
345.000000
  0
ARC
  8
0
  6
CONTINUOUS
 10
22.067520
 20
12.467740
 40
2.000000
 50
91.000641
 51
180.000000
  0
ARC
  8
0
  6
CONTINUOUS
 10
23.642941
 20
11.495080
 40
3.000000
 50
91.000458
 51
165.000198
  0
LINE
  8
0
  6
CONTINUOUS
 10
105.067497
 20
31.941990
 11
105.067497
 21
74.742500
  0
LINE
  8
0
  6
CONTINUOUS
 10
31.966980
 20
11.042500
 11
84.168007
 21
11.042500
  0
LINE
  8
0
  6
CONTINUOUS
 10
27.017250
 20
13.092740
 11
25.580620
 21
14.529350
  0
ARC
  8
0
  6
CONTINUOUS
 10
98.067497
 20
31.941980
 40
7.000000
 50
-44.999882
 51
0.000000
  0
ARC
  8
0
  6
CONTINUOUS
 10
84.168007
 20
18.042500
 40
7.000000
 50
270.000000
 51
315.000000
  0
ARC
  8
0
  6
CONTINUOUS
 10
31.966980
 20
18.042500
 40
7.000000
 50
225.000107
 51
270.000000
  0
LINE
  8
0
  6
CONTINUOUS
 10
89.117752
 20
13.092750
 11
91.708870
 21
15.683880
  0
LINE
  8
0
  6
CONTINUOUS
 10
103.017250
 20
26.992250
 11
95.067497
 21
19.042500
  0
LINE
  8
0
  6
CONTINUOUS
 10
132.067505
 20
74.742500
 11
132.067505
 21
92.742500
  0
LINE
  8
0
  6
CONTINUOUS
 10
102.067497
 20
92.742500
 11
132.067505
 21
92.742500
  0
LINE
  8
0
  6
CONTINUOUS
 10
102.067497
 20
74.742500
 11
132.067505
 21
74.742500
  0
LINE
  8
0
  6
CONTINUOUS
 10
102.067497
 20
93.742500
 11
102.067497
 21
73.742500
  0
LINE
  8
0
  6
CONTINUOUS
 10
100.067497
 20
93.742500
 11
102.067497
 21
93.742500
  0
LINE
  8
0
  6
CONTINUOUS
 10
100.067497
 20
73.742500
 11
102.067497
 21
73.742500
  0
ARC
  8
0
  6
CONTINUOUS
 10
108.067497
 20
83.742500
 40
3.000000
 50
90.000000
 51
270.000000
  0
LINE
  8
0
  6
CONTINUOUS
 10
108.067497
 20
86.742500
 11
132.067505
 21
86.742500
  0
LINE
  8
0
  6
CONTINUOUS
 10
108.067520
 20
80.742500
 11
132.067505
 21
80.742500
  0
LINE
  8
0
  6
CONTINUOUS
 10
381.067505
 20
13.042500
 11
381.067505
 21
103.042503
  0
LINE
  8
0
  6
CENTER
 10
448.264374
 20
58.042496
 11
279.062500
 21
58.042496
  0
LINE
  8
0
  6
CONTINUOUS
 10
207.567505
 20
39.242500
 11
207.567505
 21
98.242500
  0
LINE
  8
0
  6
CONTINUOUS
 10
381.067505
 20
103.042503
 11
301.724915
 21
103.042503
  0
LINE
  8
0
  6
CONTINUOUS
 10
310.567505
 20
13.042500
 11
381.067505
 21
13.042500
  0
LINE
  8
0
  6
CENTER
 10
286.609070
 20
83.742500
 11
222.639999
 21
83.742500
  0
LINE
  8
0
  6
CENTER
 10
258.067505
 20
136.292496
 11
258.067505
 21
0.949150
  0
LINE
  8
0
  6
CONTINUOUS
 10
298.067505
 20
127.742500
 11
218.067505
 21
127.742500
  0
LINE
  8
0
  6
CONTINUOUS
 10
298.067505
 20
9.742500
 11
218.067505
 21
9.742500
  0
LINE
  8
0
  6
CENTER
 10
225.067505
 20
118.742500
 11
211.192505
 21
118.742500
  0
LINE
  8
0
  6
CENTER
 10
218.067505
 20
112.042503
 11
218.067505
 21
125.542503
  0
CIRCLE
  8
0
  6
CONTINUOUS
 10
218.067505
 20
118.742500
 40
4.250000
  0
LINE
  8
0
  6
CENTER
 10
225.067505
 20
18.742500
 11
211.192505
 21
18.742500
  0
LINE
  8
0
  6
CENTER
 10
218.067505
 20
25.442499
 11
218.067505
 21
11.942500
  0
CIRCLE
  8
0
  6
CONTINUOUS
 10
218.067505
 20
18.742500
 40
4.250000
  0
LINE
  8
0
  6
CENTER
 10
291.067505
 20
118.742500
 11
304.942505
 21
118.742500
  0
LINE
  8
0
  6
CENTER
 10
298.067505
 20
112.042503
 11
298.067505
 21
125.542503
  0
CIRCLE
  8
0
  6
CONTINUOUS
 10
298.067505
 20
118.742500
 40
4.250000
  0
LINE
  8
0
  6
CENTER
 10
291.067505
 20
18.742500
 11
304.942505
 21
18.742500
  0
LINE
  8
0
  6
CENTER
 10
298.067505
 20
25.442499
 11
298.067505
 21
11.942500
  0
CIRCLE
  8
0
  6
CONTINUOUS
 10
298.067505
 20
18.742500
 40
4.250000
  0
LINE
  8
0
  6
CONTINUOUS
 10
209.090805
 20
119.389130
 11
207.567505
 21
98.242500
  0
LINE
  8
0
  6
CONTINUOUS
 10
209.090805
 20
18.095940
 11
207.567505
 21
39.242500
  0
ARC
  8
0
  6
CONTINUOUS
 10
218.067505
 20
118.742500
 40
9.000000
 50
90.000000
 51
175.879898
  0
ARC
  8
0
  6
CONTINUOUS
 10
218.067505
 20
18.742500
 40
9.000000
 50
-175.879898
 51
-90.000000
  0
ARC
  8
0
  6
CONTINUOUS
 10
298.067505
 20
118.742500
 40
9.000000
 50
4.120102
 51
90.000000
  0
LINE
  8
0
  6
CONTINUOUS
 10
307.044189
 20
119.389130
 11
308.221710
 21
103.042503
  0
LINE
  8
0
  6
CONTINUOUS
 10
307.044189
 20
18.095940
 11
307.612305
 21
25.981819
  0
ARC
  8
0
  6
CONTINUOUS
 10
298.067505
 20
18.742500
 40
9.000000
 50
270.000000
 51
355.879913
  0
ARC
  8
0
  6
CONTINUOUS
 10
303.567505
 20
23.042530
 40
5.000000
 50
0.000000
 51
90.000000
  0
ARC
  8
0
  6
CONTINUOUS
 10
310.567505
 20
15.042500
 40
2.000000
 50
180.000000
 51
270.000000
  0
LINE
  8
0
  6
CONTINUOUS
 10
308.567505
 20
15.042500
 11
308.567505
 21
23.042530
  0
LINE
  8
0
  6
CONTINUOUS
 10
308.567505
 20
95.642387
 11
308.567505
 21
23.042530
  0
LINE
  8
0
  6
CONTINUOUS
 10
381.067505
 20
92.451797
 11
310.567505
 21
92.451797
  0
LINE
  8
0
  6
CONTINUOUS
 10
381.067505
 20
23.633190
 11
310.067505
 21
23.633190
  0
CIRCLE
  8
0
  6
CONTINUOUS
 10
258.067505
 20
83.742500
 40
23.500000
  0
LINE
  8
0
  6
CONTINUOUS
 10
249.658096
 20
40.742500
 11
246.192505
 21
40.742500
  0
LINE
  8
0
  6
CONTINUOUS
 10
251.570999
 20
46.547470
 11
251.570999
 21
40.742500
  0
LINE
  8
0
  6
CONTINUOUS
 10
254.903000
 20
48.655991
 11
254.903000
 21
50.738495
  0
LINE
  8
0
  6
CONTINUOUS
 10
261.566986
 20
48.655991
 11
261.566986
 21
50.738495
  0
LINE
  8
0
  6
CONTINUOUS
 10
257.584198
 20
49.515022
 11
257.584198
 21
41.835812
  0
LINE
  8
0
  6
CONTINUOUS
 10
258.833710
 20
49.515022
 11
258.833710
 21
41.835812
  0
LINE
  8
0
  6
CONTINUOUS
 10
265.393585
 20
49.515022
 11
265.393585
 21
41.783749
  0
LINE
  8
0
  6
CONTINUOUS
 10
266.538910
 20
45.415100
 11
266.538910
 21
41.783749
  0
LINE
  8
0
  6
CONTINUOUS
 10
249.989899
 20
49.410896
 11
246.778702
 21
49.410896
  0
LINE
  8
0
  6
CONTINUOUS
 10
247.275803
 20
41.913910
 11
246.790802
 21
41.913910
  0
LINE
  8
0
  6
CONTINUOUS
 10
246.778702
 20
49.410896
 11
246.026306
 21
48.477936
  0
LINE
  8
0
  6
CONTINUOUS
 10
246.116806
 20
50.738495
 11
244.906998
 21
49.189316
  0
LINE
  8
0
  6
CONTINUOUS
 10
246.026306
 20
42.719139
 11
246.790802
 21
41.913910
  0
LINE
  8
0
  6
CONTINUOUS
 10
244.906998
 20
42.039600
 11
246.192505
 21
40.742500
  0
LINE
  8
0
  6
CONTINUOUS
 10
244.906998
 20
49.189316
 11
244.906998
 21
42.039600
  0
LINE
  8
0
  6
CONTINUOUS
 10
246.026306
 20
48.477936
 11
246.026306
 21
42.719139
  0
LINE
  8
0
  6
CONTINUOUS
 10
250.607803
 20
48.813553
 11
249.977295
 21
49.410896
  0
LINE
  8
0
  6
CONTINUOUS
 10
250.597794
 20
50.738495
 11
251.570999
 21
49.658516
  0
LINE
  8
0
  6
CONTINUOUS
 10
250.607803
 20
48.655991
 11
251.570999
 21
48.655991
  0
LINE
  8
0
  6
CONTINUOUS
 10
246.116806
 20
50.738495
 11
250.597794
 21
50.738495
  0
LINE
  8
0
  6
CONTINUOUS
 10
248.863693
 20
46.547470
 11
251.570999
 21
46.547470
  0
LINE
  8
0
  6
CONTINUOUS
 10
250.607803
 20
45.454151
 11
248.863693
 21
45.454151
  0
LINE
  8
0
  6
CONTINUOUS
 10
248.108795
 20
41.913910
 11
247.275803
 21
41.913910
  0
LINE
  8
0
  6
CONTINUOUS
 10
250.607803
 20
44.412910
 11
250.607803
 21
45.245899
  0
LINE
  8
0
  6
CONTINUOUS
 10
248.525299
 20
41.913910
 11
248.108795
 21
41.913910
  0
LINE
  8
0
  6
CONTINUOUS
 10
250.607803
 20
43.996399
 11
250.607803
 21
44.412910
  0
LINE
  8
0
  6
CONTINUOUS
 10
250.607803
 20
43.941090
 11
250.607803
 21
43.996399
  0
ARC
  8
0
  6
CONTINUOUS
 10
248.525299
 20
43.996399
 40
2.082500
 50
-89.999786
 51
0.000109
  0
LINE
  8
0
  6
CONTINUOUS
 10
250.607803
 20
41.539322
 11
250.607803
 21
40.742500
  0
LINE
  8
0
  6
CONTINUOUS
 10
251.570999
 20
49.658516
 11
251.570999
 21
48.655991
  0
LINE
  8
0
  6
CONTINUOUS
 10
250.607803
 20
45.454151
 11
250.607803
 21
43.996399
  0
LINE
  8
0
  6
CONTINUOUS
 10
248.863693
 20
46.547470
 11
248.863693
 21
45.454151
  0
LINE
  8
0
  6
CONTINUOUS
 10
250.607803
 20
45.245899
 11
250.607803
 21
45.454151
  0
LINE
  8
0
  6
CONTINUOUS
 10
250.607803
 20
40.742500
 11
251.570999
 21
40.742500
  0
LINE
  8
0
  6
CONTINUOUS
 10
250.607803
 20
41.539322
 11
249.658096
 21
40.742500
  0
LINE
  8
0
  6
CONTINUOUS
 10
258.833710
 20
41.835812
 11
259.250214
 21
41.835812
  0
LINE
  8
0
  6
CONTINUOUS
 10
257.089600
 20
41.835812
 11
257.089600
 21
40.742500
  0
LINE
  8
0
  6
CONTINUOUS
 10
259.250214
 20
41.835812
 11
259.250214
 21
40.742500
  0
LINE
  8
0
  6
CONTINUOUS
 10
260.871887
 20
48.655991
 11
261.566986
 21
48.655991
  0
LINE
  8
0
  6
CONTINUOUS
 10
254.903000
 20
48.655991
 11
255.642700
 21
48.655991
  0
LINE
  8
0
  6
CONTINUOUS
 10
254.903000
 20
50.738495
 11
261.566986
 21
50.738495
  0
LINE
  8
0
  6
CONTINUOUS
 10
257.089600
 20
40.742500
 11
259.250214
 21
40.742500
  0
LINE
  8
0
  6
CONTINUOUS
 10
257.089600
 20
41.835812
 11
257.584198
 21
41.835812
  0
ARC
  8
0
  6
CONTINUOUS
 10
268.894806
 20
48.070290
 40
2.668203
 50
-73.981873
 51
90.003510
  0
ARC
  8
0
  6
CONTINUOUS
 10
268.894806
 20
48.070290
 40
1.627786
 50
-82.585274
 51
62.411850
  0
LINE
  8
0
  6
CONTINUOUS
 10
264.898987
 20
50.738495
 11
268.894806
 21
50.738495
  0
LINE
  8
0
  6
CONTINUOUS
 10
269.104797
 20
46.456120
 11
266.538910
 21
46.456120
  0
LINE
  8
0
  6
CONTINUOUS
 10
264.898987
 20
50.738495
 11
264.898987
 21
49.515022
  0
LINE
  8
0
  6
CONTINUOUS
 10
266.538910
 20
49.515022
 11
266.538910
 21
46.456120
  0
LINE
  8
0
  6
CONTINUOUS
 10
269.631012
 20
45.505680
 11
271.282501
 21
41.783749
  0
LINE
  8
0
  6
CONTINUOUS
 10
268.671814
 20
45.415100
 11
270.234711
 21
41.783749
  0
LINE
  8
0
  6
CONTINUOUS
 10
264.898987
 20
41.783749
 11
265.393585
 21
41.783749
  0
LINE
  8
0
  6
CONTINUOUS
 10
266.538910
 20
41.783749
 11
266.994507
 21
41.783749
  0
LINE
  8
0
  6
CONTINUOUS
 10
266.994507
 20
40.742500
 11
264.898987
 21
40.742500
  0
LINE
  8
0
  6
CONTINUOUS
 10
270.027100
 20
41.783749
 11
270.234711
 21
41.783749
  0
LINE
  8
0
  6
CONTINUOUS
 10
271.282501
 20
41.783749
 11
271.562988
 21
41.783749
  0
LINE
  8
0
  6
CONTINUOUS
 10
270.027100
 20
40.742500
 11
271.562988
 21
40.742500
  0
LINE
  8
0
  6
CONTINUOUS
 10
271.562988
 20
41.783749
 11
271.562988
 21
40.742500
  0
LINE
  8
0
  6
CONTINUOUS
 10
270.027100
 20
41.783749
 11
270.027100
 21
40.742500
  0
LINE
  8
0
  6
CONTINUOUS
 10
266.994507
 20
41.783749
 11
266.994507
 21
40.742500
  0
LINE
  8
0
  6
CONTINUOUS
 10
264.898987
 20
41.783749
 11
264.898987
 21
40.742500
  0
LINE
  8
0
  6
CONTINUOUS
 10
256.000610
 20
49.515022
 11
255.642700
 21
48.655991
  0
LINE
  8
0
  6
CONTINUOUS
 10
260.570007
 20
49.515022
 11
260.871887
 21
48.655991
  0
LINE
  8
0
  6
CONTINUOUS
 10
258.833710
 20
49.515022
 11
260.570007
 21
49.515022
  0
LINE
  8
0
  6
CONTINUOUS
 10
257.584198
 20
49.515022
 11
256.000610
 21
49.515022
  0
LINE
  8
0
  6
CONTINUOUS
 10
266.538910
 20
45.415100
 11
268.671814
 21
45.415100
  0
LINE
  8
0
  6
CONTINUOUS
 10
264.898987
 20
49.515022
 11
265.393585
 21
49.515022
  0
LINE
  8
0
  6
CONTINUOUS
 10
266.538910
 20
49.515022
 11
269.648590
 21
49.513000
  0
LINE
  8
0
  6
CONTINUOUS
 10
250.607803
 20
48.813553
 11
250.607803
 21
48.655991
  0
LINE
  8
0
  6
CONTINUOUS
 10
273.488586
 20
15.742500
 11
242.646393
 21
15.742500
  0
LINE
  8
0
  6
CONTINUOUS
 10
242.646393
 20
121.742500
 11
273.488586
 21
121.742500
  0
LINE
  8
0
  6
CONTINUOUS
 10
276.360107
 20
120.835793
 11
306.438904
 21
99.735687
  0
LINE
  8
0
  6
CONTINUOUS
 10
239.774994
 20
120.835777
 11
207.567505
 21
98.242500
  0
LINE
  8
0
  6
CONTINUOUS
 10
276.360107
 20
16.649200
 11
291.308990
 21
27.135771
  0
LINE
  8
0
  6
CONTINUOUS
 10
239.774902
 20
16.649220
 11
207.567505
 21
39.242500
  0
ARC
  8
0
  6
CONTINUOUS
 10
273.488708
 20
116.742500
 40
5.000000
 50
54.950710
 51
90.000000
  0
ARC
  8
0
  6
CONTINUOUS
 10
242.646393
 20
116.742500
 40
5.000000
 50
90.000000
 51
125.049500
  0
ARC
  8
0
  6
CONTINUOUS
 10
242.646393
 20
20.742500
 40
5.000000
 50
234.950500
 51
270.000000
  0
ARC
  8
0
  6
CONTINUOUS
 10
273.488586
 20
20.742500
 40
5.000000
 50
270.000000
 51
305.049591
  0
LINE
  8
0
  6
CONTINUOUS
 10
294.180389
 20
28.042500
 11
303.567505
 21
28.042500
  0
ARC
  8
0
  6
CONTINUOUS
 10
294.180389
 20
23.042509
 40
5.000000
 50
90.000000
 51
125.049698
  0
ARC
  8
0
  6
CONTINUOUS
 10
303.567505
 20
95.642387
 40
5.000000
 50
0.000000
 51
54.950691
  0
LINE
  8
0
  6
CONTINUOUS
 10
390.567505
 20
103.042503
 11
381.067505
 21
103.042503
  0
LINE
  8
0
  6
CONTINUOUS
 10
381.067505
 20
92.451797
 11
390.567505
 21
92.451797
  0
LINE
  8
0
  6
CONTINUOUS
 10
390.567505
 20
13.042500
 11
381.067505
 21
13.042500
  0
LINE
  8
0
  6
CONTINUOUS
 10
381.067505
 20
23.633190
 11
390.567505
 21
23.633190
  0
LINE
  8
0
  6
CONTINUOUS
 10
390.567505
 20
105.042503
 11
390.567505
 21
11.042500
  0
LINE
  8
0
  6
CONTINUOUS
 10
390.567505
 20
87.042503
 11
434.542511
 21
87.042503
  0
LINE
  8
0
  6
CONTINUOUS
 10
390.567505
 20
29.042500
 11
434.542511
 21
29.042500
  0
LINE
  8
0
  6
CONTINUOUS
 10
433.067505
 20
105.042503
 11
390.567505
 21
105.042503
  0
LINE
  8
0
  6
CONTINUOUS
 10
433.067505
 20
11.042500
 11
390.567505
 21
11.042500
  0
ARC
  8
0
  6
CONTINUOUS
 10
433.067505
 20
100.042526
 40
5.000000
 50
0.000000
 51
90.000000
  0
ARC
  8
0
  6
CONTINUOUS
 10
433.067505
 20
16.042500
 40
5.000000
 50
-90.000000
 51
0.000000
  0
LINE
  8
0
  6
CONTINUOUS
 10
438.067505
 20
100.042511
 11
438.067505
 21
16.042480
  0
LINE
  8
0
  6
CONTINUOUS
 10
252.567505
 20
86.742500
 11
252.567505
 21
80.742500
  0
LINE
  8
0
  6
CONTINUOUS
 10
246.567505
 20
86.742500
 11
246.567505
 21
80.742500
  0
LINE
  8
0
  6
CONTINUOUS
 10
246.567505
 20
86.742500
 11
252.567505
 21
86.742500
  0
LINE
  8
0
  6
CONTINUOUS
 10
246.567505
 20
80.742500
 11
252.567505
 21
80.742500
  0
ARC
  8
0
  6
CONTINUOUS
 10
258.067505
 20
83.742500
 40
9.000000
 50
-160.528793
 51
160.528793
  0
LINE
  8
0
  6
CENTER
 10
258.067505
 20
184.948746
 11
258.067505
 21
330.266571
  0
LINE
  8
0
  6
CENTER
 10
452.236237
 20
265.826263
 11
193.926254
 21
265.826263
  0
LINE
  8
0
  6
CONTINUOUS
 10
211.741623
 20
228.826248
 11
306.619171
 21
228.826248
  0
LINE
  8
0
  6
CONTINUOUS
 10
308.776917
 20
236.823502
 11
308.618500
 21
230.773895
  0
LINE
  8
0
  6
CONTINUOUS
 10
310.725311
 20
220.826248
 11
381.067505
 21
220.826248
  0
LINE
  8
0
  6
CONTINUOUS
 10
381.067505
 20
236.826248
 11
301.724945
 21
236.826248
  0
LINE
  8
0
  6
CONTINUOUS
 10
381.067505
 20
294.826263
 11
310.450623
 21
294.826263
  0
LINE
  8
0
  6
CONTINUOUS
 10
310.594360
 20
310.826263
 11
381.067505
 21
310.826263
  0
LINE
  8
0
  6
CONTINUOUS
 10
309.824432
 20
265.826263
 11
308.567505
 21
313.826263
  0
LINE
  8
0
  6
CONTINUOUS
 10
275.067505
 20
233.826248
 11
275.067505
 21
301.826263
  0
LINE
  8
0
  6
CONTINUOUS
 10
241.067505
 20
233.826248
 11
241.067505
 21
301.826263
  0
LINE
  8
0
  6
CONTINUOUS
 10
301.724945
 20
238.826248
 11
301.724945
 21
302.291260
  0
LINE
  8
0
  6
CONTINUOUS
 10
235.567490
 20
223.826248
 11
280.567505
 21
223.826248
  0
LINE
  8
0
  6
CONTINUOUS
 10
281.567505
 20
224.826248
 11
281.567505
 21
226.826248
  0
LINE
  8
0
  6
CONTINUOUS
 10
234.567490
 20
224.826248
 11
234.567490
 21
226.826248
  0
ARC
  8
0
  6
CONTINUOUS
 10
283.567505
 20
226.826248
 40
2.000000
 50
90.000000
 51
180.000000
  0
ARC
  8
0
  6
CONTINUOUS
 10
232.567505
 20
226.826248
 40
2.000000
 50
0.000000
 51
90.000000
  0
ARC
  8
0
  6
CONTINUOUS
 10
280.567505
 20
224.826248
 40
1.000000
 50
-90.000000
 51
0.000000
  0
ARC
  8
0
  6
CONTINUOUS
 10
235.567490
 20
224.826248
 40
1.000000
 50
180.000000
 51
270.000000
  0
LINE
  8
0
  6
CONTINUOUS
 10
246.567505
 20
191.826248
 11
267.067505
 21
191.826248
  0
LINE
  8
0
  6
CONTINUOUS
 10
267.067505
 20
221.826248
 11
267.067505
 21
191.826248
  0
LINE
  8
0
  6
CONTINUOUS
 10
249.067505
 20
221.826248
 11
249.067505
 21
218.826248
  0
LINE
  8
0
  6
CONTINUOUS
 10
268.067505
 20
221.826248
 11
248.067505
 21
221.826248
  0
LINE
  8
0
  6
CONTINUOUS
 10
268.067505
 20
223.826248
 11
268.067505
 21
221.826248
  0
LINE
  8
0
  6
CONTINUOUS
 10
248.067505
 20
223.826248
 11
248.067505
 21
221.826248
  0
LINE
  8
0
  6
CONTINUOUS
 10
246.567505
 20
191.826248
 11
246.567505
 21
218.826248
  0
LINE
  8
0
  6
CONTINUOUS
 10
246.567505
 20
218.826248
 11
249.582504
 21
218.826248
  0
LINE
  8
0
  6
CONTINUOUS
 10
249.582504
 20
191.826248
 11
249.582504
 21
218.826248
  0
LINE
  8
0
  6
CONTINUOUS
 10
308.567505
 20
313.826263
 11
207.567505
 21
313.826263
  0
LINE
  8
0
  6
CONTINUOUS
 10
209.742310
 20
230.773895
 11
207.567505
 21
313.826263
  0
LINE
  8
0
  6
CONTINUOUS
 10
306.776306
 20
303.826263
 11
209.777679
 21
303.826263
  0
ARC
  8
0
  6
CONTINUOUS
 10
209.777679
 20
305.826263
 40
2.000000
 50
181.500000
 51
270.000000
  0
ARC
  8
0
  6
CONTINUOUS
 10
211.741623
 20
230.826248
 40
2.000000
 50
181.500000
 51
270.000000
  0
ARC
  8
0
  6
CONTINUOUS
 10
239.067505
 20
301.826263
 40
2.000000
 50
0.000000
 51
90.000000
  0
ARC
  8
0
  6
CONTINUOUS
 10
277.067505
 20
301.826263
 40
2.000000
 50
90.000000
 51
180.000000
  0
LINE
  8
0
  6
CONTINUOUS
 10
275.209442
 20
302.566254
 11
240.925568
 21
302.566254
  0
ARC
  8
0
  6
CONTINUOUS
 10
306.776306
 20
305.826263
 40
2.000000
 50
-90.000000
 51
1.500000
  0
ARC
  8
0
  6
CONTINUOUS
 10
310.594360
 20
312.826263
 40
2.000000
 50
181.500000
 51
270.000000
  0
LINE
  8
0
  6
CONTINUOUS
 10
308.725983
 20
222.773895
 11
308.618500
 21
226.878601
  0
ARC
  8
0
  6
CONTINUOUS
 10
310.725311
 20
222.826248
 40
2.000000
 50
181.500000
 51
270.000000
  0
ARC
  8
0
  6
CONTINUOUS
 10
306.619171
 20
226.826248
 40
2.000000
 50
1.500000
 51
90.000000
  0
ARC
  8
0
  6
CONTINUOUS
 10
306.619171
 20
230.826248
 40
2.000000
 50
270.000000
 51
358.500000
  0
LINE
  8
0
  6
CENTER
 10
218.067505
 20
321.514832
 11
218.067505
 21
297.652191
  0
LINE
  8
0
  6
DASHED
 10
213.817505
 20
303.826263
 11
213.817505
 21
313.826263
  0
LINE
  8
0
  6
DASHED
 10
222.317505
 20
303.826263
 11
222.317505
 21
313.826263
  0
LINE
  8
0
  6
CENTER
 10
298.067505
 20
321.514832
 11
298.067505
 21
297.652191
  0
LINE
  8
0
  6
DASHED
 10
302.317505
 20
303.826263
 11
302.317505
 21
313.826263
  0
LINE
  8
0
  6
DASHED
 10
293.817505
 20
303.826263
 11
293.817505
 21
313.826263
  0
LINE
  8
0
  6
CONTINUOUS
 10
390.567505
 20
220.826248
 11
381.067505
 21
220.826248
  0
LINE
  8
0
  6
CONTINUOUS
 10
381.067505
 20
236.826248
 11
390.567505
 21
236.826248
  0
LINE
  8
0
  6
CONTINUOUS
 10
390.567505
 20
310.826263
 11
381.067505
 21
310.826263
  0
LINE
  8
0
  6
CONTINUOUS
 10
381.067505
 20
310.826263
 11
381.067505
 21
290.826263
  0
LINE
  8
0
  6
CONTINUOUS
 10
381.067505
 20
294.826263
 11
390.567505
 21
294.826263
  0
LINE
  8
0
  6
CONTINUOUS
 10
381.067505
 20
240.826263
 11
381.067505
 21
220.826248
  0
LINE
  8
0
  6
CONTINUOUS
 10
390.567505
 20
218.826248
 11
390.567505
 21
265.826263
  0
LINE
  8
0
  6
CONTINUOUS
 10
390.567505
 20
236.826248
 11
434.542542
 21
236.826248
  0
LINE
  8
0
  6
CONTINUOUS
 10
390.567505
 20
294.826263
 11
434.542542
 21
294.826263
  0
LINE
  8
0
  6
CONTINUOUS
 10
433.067505
 20
218.826248
 11
390.567505
 21
218.826248
  0
LINE
  8
0
  6
CONTINUOUS
 10
433.067505
 20
312.826263
 11
390.567505
 21
312.826263
  0
ARC
  8
0
  6
CONTINUOUS
 10
433.067505
 20
223.826248
 40
5.000000
 50
-90.000000
 51
0.000000
  0
ARC
  8
0
  6
CONTINUOUS
 10
433.067505
 20
307.826263
 40
5.000000
 50
0.000000
 51
90.000000
  0
LINE
  8
0
  6
CONTINUOUS
 10
438.067505
 20
223.826248
 11
438.067505
 21
307.826263
  0
LINE
  8
0
  6
CONTINUOUS
 10
390.567505
 20
265.826263
 11
390.567505
 21
312.826263
  0
LINE
  8
0
  6
CONTINUOUS
 10
390.067505
 20
288.826263
 11
390.067505
 21
242.826263
  0
LINE
  8
0
  6
CONTINUOUS
 10
388.067505
 20
240.826263
 11
390.067505
 21
242.826263
  0
LINE
  8
0
  6
CONTINUOUS
 10
388.067505
 20
240.826263
 11
342.067505
 21
240.826263
  0
LINE
  8
0
  6
CONTINUOUS
 10
347.567505
 20
245.326263
 11
347.567505
 21
240.826263
  0
ARC
  8
0
  6
CONTINUOUS
 10
344.567505
 20
245.326263
 40
3.000000
 50
0.000000
 51
90.000000
  0
LINE
  8
0
  6
CONTINUOUS
 10
344.567505
 20
248.326263
 11
340.067505
 21
248.326263
  0
CIRCLE
  8
0
  6
CONTINUOUS
 10
343.567505
 20
244.326263
 40
2.250000
  0
LINE
  8
0
  6
CONTINUOUS
 10
340.067505
 20
288.826263
 11
340.067505
 21
242.826263
  0
LINE
  8
0
  6
CONTINUOUS
 10
342.067505
 20
240.826263
 11
340.067505
 21
242.826263
  0
LINE
  8
0
  6
CONTINUOUS
 10
342.067505
 20
290.826263
 11
340.067505
 21
288.826263
  0
LINE
  8
0
  6
CONTINUOUS
 10
342.067505
 20
290.826263
 11
388.067505
 21
290.826263
  0
LINE
  8
0
  6
CONTINUOUS
 10
390.067505
 20
288.826263
 11
388.067505
 21
290.826263
  0
LINE
  8
0
  6
CONTINUOUS
 10
385.567505
 20
283.326263
 11
390.067505
 21
283.326263
  0
CIRCLE
  8
0
  6
CONTINUOUS
 10
386.567505
 20
287.326263
 40
2.250000
  0
ARC
  8
0
  6
CONTINUOUS
 10
385.567505
 20
286.326263
 40
3.000000
 50
180.000000
 51
270.000000
  0
LINE
  8
0
  6
CONTINUOUS
 10
382.567505
 20
286.326263
 11
382.567505
 21
290.826263
  0
LINE
  8
0
  6
CENTER
 10
365.067505
 20
298.292053
 11
365.067505
 21
234.160019
  0
LINE
  8
0
  6
CONTINUOUS
 10
389.067505
 20
283.326263
 11
389.067505
 21
248.326248
  0
LINE
  8
0
  6
CONTINUOUS
 10
347.567505
 20
241.826248
 11
382.567474
 21
241.826248
  0
LINE
  8
0
  6
CONTINUOUS
 10
341.067505
 20
248.326248
 11
341.067505
 21
283.326263
  0
LINE
  8
0
  6
CONTINUOUS
 10
382.567505
 20
289.826263
 11
347.567505
 21
289.826263
  0
LINE
  8
0
  6
CONTINUOUS
 10
385.567474
 20
248.326248
 11
390.067474
 21
248.326248
  0
ARC
  8
0
  6
CONTINUOUS
 10
385.567474
 20
245.326248
 40
3.000000
 50
90.000000
 51
180.000000
  0
LINE
  8
0
  6
CONTINUOUS
 10
382.567474
 20
245.326248
 11
382.567474
 21
240.826263
  0
CIRCLE
  8
0
  6
CONTINUOUS
 10
386.567474
 20
244.326248
 40
2.250000
  0
LINE
  8
0
  6
CONTINUOUS
 10
344.567505
 20
283.326263
 11
340.067505
 21
283.326263
  0
ARC
  8
0
  6
CONTINUOUS
 10
344.567505
 20
286.326263
 40
3.000000
 50
-90.000000
 51
0.000000
  0
LINE
  8
0
  6
CONTINUOUS
 10
347.567505
 20
286.326263
 11
347.567505
 21
290.826233
  0
CIRCLE
  8
0
  6
CONTINUOUS
 10
343.567505
 20
287.326263
 40
2.250000
  0
LINE
  8
0
  6
CONTINUOUS
 10
388.567505
 20
104.542496
 11
342.067505
 21
104.542496
  0
LINE
  8
0
  6
CONTINUOUS
 10
340.067505
 20
148.542496
 11
340.067505
 21
106.542496
  0
LINE
  8
0
  6
CONTINUOUS
 10
390.067505
 20
148.542496
 11
390.067505
 21
106.542496
  0
LINE
  8
0
  6
CONTINUOUS
 10
390.067505
 20
116.542496
 11
340.067505
 21
116.542496
  0
LINE
  8
0
  6
CONTINUOUS
 10
342.067505
 20
104.542496
 11
340.067505
 21
106.542496
  0
LINE
  8
0
  6
CONTINUOUS
 10
390.067505
 20
106.542496
 11
388.067505
 21
104.542496
  0
LINE
  8
0
  6
CONTINUOUS
 10
390.067505
 20
106.542496
 11
340.067505
 21
106.542496
  0
LINE
  8
0
  6
CONTINUOUS
 10
390.067505
 20
117.542496
 11
340.067505
 21
117.542496
  0
LINE
  8
0
  6
CONTINUOUS
 10
389.067505
 20
149.542496
 11
341.067505
 21
149.542496
  0
LINE
  8
0
  6
CONTINUOUS
 10
341.067505
 20
149.542496
 11
340.067505
 21
148.542496
  0
LINE
  8
0
  6
CONTINUOUS
 10
389.067505
 20
149.542496
 11
390.067505
 21
148.542496
  0
LINE
  8
0
  6
CONTINUOUS
 10
390.067505
 20
148.542496
 11
340.067505
 21
148.542496
  0
LINE
  8
0
  6
CENTER
 10
365.067505
 20
98.152985
 11
365.067505
 21
154.852982
  0
LINE
  8
0
  6
CENTER
 10
392.442505
 20
132.542496
 11
387.817505
 21
132.542496
  0
LINE
  8
0
  6
CONTINUOUS
 10
388.567505
 20
104.542496
 11
388.567505
 21
103.042496
  0
LINE
  8
0
  6
CONTINUOUS
 10
342.567505
 20
104.542496
 11
342.567505
 21
103.042496
  0
LINE
  8
0
  6
CONTINUOUS
 10
390.942505
 20
143.042496
 11
388.942505
 21
143.042496
  0
LINE
  8
0
  6
CONTINUOUS
 10
390.942505
 20
122.042496
 11
388.942505
 21
122.042496
  0
LINE
  8
0
  6
CONTINUOUS
 10
83.067482
 20
148.542496
 11
83.067482
 21
121.951904
  0
LINE
  8
0
  6
CONTINUOUS
 10
33.067501
 20
148.542496
 11
33.067501
 21
122.824455
  0
LINE
  8
0
  6
CONTINUOUS
 10
34.067501
 20
149.542496
 11
82.067482
 21
149.542496
  0
LINE
  8
0
  6
CONTINUOUS
 10
82.067482
 20
149.542496
 11
83.067482
 21
148.542496
  0
LINE
  8
0
  6
CONTINUOUS
 10
34.067501
 20
149.542496
 11
33.067501
 21
148.542496
  0
LINE
  8
0
  6
CONTINUOUS
 10
33.067501
 20
148.542496
 11
83.067482
 21
148.542496
  0
TEXT
  8
0
 10
-41.000000
 20
0.000000
 40
4.000000
 41
1.000000
  1
HFM-18L-10~240-T90WK
 50
0.000000
  0
ENDSEC
  0
EOF
