  0
SECTION
  2
HEADER
  9
$CLAYER
  8
1
  9
$LTSCALE
 40
3.0
  0
ENDSEC
  0
SECTION
  2
TABLES
  0
TABLE
  2
LTYPE
 70
     4
  0
LTYPE
  2
CONTINUOUS
  3
solid line
 70
    64
 72
    65
 73
     0
 40
0.0
  0
LTYPE
  2
DASHED
  3
__ __ __ __ __ __ __ __ __ __ __ __ __ __ __
 70
    64
 72
    65
 73
     2
 40
0.75
 49
0.5
 49
-0.25
  0
LTYPE
  2
CENTER
  3
____ _ ____ _ ____ _ ____ _ ____ _ ____ _ ____
 70
    64
 72
    65
 73
     4
 40
2.0
 49
1.25
 49
-0.25
 49
0.25
 49
-0.25
  0
LTYPE
  2
PHANTOM
  3
_____ _ _ _____ _ _ _____ _ _ _____ _ _ ____
 70
    64
 72
    65
 73
     6
 40
2.5
 49
1.25
 49
-0.25
 49
0.25
 49
-0.25
 49
0.25
 49
-0.25
  0
ENDTAB
  0
TABLE
  2
LAYER
 70
     1
  0
LAYER
  2
0
 70
    64
 62
     7
  6
CONTINUOUS
  0
ENDTAB
  0
TABLE
  2
STYLE
 70
     1
  0
STYLE
  2
STANDARD
 70
     0
 40
0.000000
 41
1.000000
 50
0.000000
 71
     0
 42
3.000000
  3
txt
  4
BIGFONT
  0
ENDTAB
  0
ENDSEC
  0
SECTION
  2
BLOCKS
  0
ENDSEC
  0
SECTION
  2
ENTITIES
  0
LINE
  8
0
  6
CONTINUOUS
 10
4.991250
 20
14.410000
 11
4.991250
 21
84.410004
  0
LINE
  8
0
  6
CONTINUOUS
 10
9.532700
 20
94.410004
 11
25.491249
 21
94.410004
  0
LINE
  8
0
  6
CONTINUOUS
 10
5.491250
 20
91.410004
 11
5.491250
 21
7.410000
  0
LINE
  8
0
  6
CONTINUOUS
 10
25.491249
 20
83.819298
 11
7.241250
 21
83.819298
  0
ARC
  8
0
  6
CONTINUOUS
 10
4.991249
 20
84.910004
 40
0.500000
 50
-90.000000
 51
0.000000
  0
LINE
  8
0
  6
CONTINUOUS
 10
6.068593
 20
92.409988
 11
5.491250
 21
91.410004
  0
ARC
  8
0
  6
CONTINUOUS
 10
9.532710
 20
90.410011
 40
4.000000
 50
90.000000
 51
150.000397
  0
LINE
  8
0
  6
CONTINUOUS
 10
9.532700
 20
4.410000
 11
25.491249
 21
4.410000
  0
LINE
  8
0
  6
CONTINUOUS
 10
25.491249
 20
15.000700
 11
7.241250
 21
15.000700
  0
ARC
  8
0
  6
CONTINUOUS
 10
4.991249
 20
13.910000
 40
0.500000
 50
0.000000
 51
90.000000
  0
LINE
  8
0
  6
CONTINUOUS
 10
6.068593
 20
6.410010
 11
5.491250
 21
7.410000
  0
ARC
  8
0
  6
CONTINUOUS
 10
9.532710
 20
8.409990
 40
4.000000
 50
-150.000397
 51
-90.000000
  0
LINE
  8
0
  6
CONTINUOUS
 10
25.991249
 20
95.910004
 11
25.991249
 21
94.410004
  0
LINE
  8
0
  6
CONTINUOUS
 10
18.991249
 20
95.910004
 11
18.991249
 21
94.410004
  0
LINE
  8
0
  6
CONTINUOUS
 10
18.991249
 20
95.910004
 11
25.991249
 21
95.910004
  0
LINE
  8
0
  6
CONTINUOUS
 10
23.391251
 20
108.910004
 11
23.391251
 21
95.910004
  0
LINE
  8
0
  6
CONTINUOUS
 10
21.591249
 20
109.535004
 11
21.591249
 21
95.910004
  0
LINE
  8
0
  6
CONTINUOUS
 10
19.791250
 20
107.472504
 11
19.791250
 21
95.910004
  0
LINE
  8
0
  6
CONTINUOUS
 10
25.191250
 20
108.285004
 11
25.191250
 21
95.910004
  0
LINE
  8
0
  6
CONTINUOUS
 10
21.591249
 20
109.535004
 11
23.391251
 21
108.910004
  0
LINE
  8
0
  6
CONTINUOUS
 10
19.791250
 20
107.472504
 11
21.591249
 21
108.097504
  0
LINE
  8
0
  6
CONTINUOUS
 10
25.191250
 20
108.285004
 11
23.392260
 21
107.837288
  0
LINE
  8
0
  6
CONTINUOUS
 10
25.491249
 20
4.410000
 11
25.491249
 21
94.410004
  0
LINE
  8
0
  6
CENTER
 10
-6.752500
 20
49.410000
 11
120.377953
 21
49.410000
  0
LINE
  8
0
  6
CONTINUOUS
 10
198.991257
 20
30.610001
 11
198.991257
 21
89.610001
  0
LINE
  8
0
  6
CONTINUOUS
 10
25.491249
 20
94.410004
 11
98.337013
 21
94.410004
  0
LINE
  8
0
  6
CONTINUOUS
 10
95.991249
 20
4.410000
 11
25.491249
 21
4.410000
  0
LINE
  8
0
  6
CENTER
 10
112.714996
 20
75.110001
 11
184.799057
 21
75.110001
  0
LINE
  8
0
  6
CENTER
 10
148.491257
 20
127.660004
 11
148.491257
 21
-8.330300
  0
LINE
  8
0
  6
CONTINUOUS
 10
108.491249
 20
119.110001
 11
188.491257
 21
119.110001
  0
LINE
  8
0
  6
CONTINUOUS
 10
108.491249
 20
1.110000
 11
188.491257
 21
1.110000
  0
LINE
  8
0
  6
CENTER
 10
181.491257
 20
110.110001
 11
195.366257
 21
110.110001
  0
LINE
  8
0
  6
CENTER
 10
188.491257
 20
103.410004
 11
188.491257
 21
116.910004
  0
CIRCLE
  8
0
  6
CONTINUOUS
 10
188.491257
 20
110.110001
 40
4.250000
  0
LINE
  8
0
  6
CENTER
 10
181.491257
 20
10.110000
 11
195.366257
 21
10.110000
  0
LINE
  8
0
  6
CENTER
 10
188.491257
 20
16.809999
 11
188.491257
 21
3.310000
  0
CIRCLE
  8
0
  6
CONTINUOUS
 10
188.491257
 20
10.110000
 40
4.250000
  0
LINE
  8
0
  6
CENTER
 10
115.491249
 20
110.110001
 11
101.616249
 21
110.110001
  0
LINE
  8
0
  6
CENTER
 10
108.491249
 20
103.410004
 11
108.491249
 21
116.910004
  0
CIRCLE
  8
0
  6
CONTINUOUS
 10
108.491249
 20
110.110001
 40
4.250000
  0
LINE
  8
0
  6
CENTER
 10
115.491249
 20
10.110000
 11
101.616249
 21
10.110000
  0
LINE
  8
0
  6
CENTER
 10
108.491249
 20
16.809999
 11
108.491249
 21
3.310000
  0
CIRCLE
  8
0
  6
CONTINUOUS
 10
108.491249
 20
10.110000
 40
4.250000
  0
LINE
  8
0
  6
CONTINUOUS
 10
197.467957
 20
110.756630
 11
198.991257
 21
89.610001
  0
LINE
  8
0
  6
CONTINUOUS
 10
197.467957
 20
9.463440
 11
198.991257
 21
30.610001
  0
LINE
  8
0
  6
CONTINUOUS
 10
122.491249
 20
115.110001
 11
174.491257
 21
115.110001
  0
LINE
  8
0
  6
CONTINUOUS
 10
174.491257
 20
5.110000
 11
122.491249
 21
5.110000
  0
LINE
  8
0
  6
CONTINUOUS
 10
100.491249
 20
75.802193
 11
100.491249
 21
44.417480
  0
ARC
  8
0
  6
CONTINUOUS
 10
148.491257
 20
60.110001
 40
50.500000
 50
18.103800
 51
161.896194
  0
ARC
  8
0
  6
CONTINUOUS
 10
148.491257
 20
60.110001
 40
50.500000
 50
198.103806
 51
341.896210
  0
LINE
  8
0
  6
CONTINUOUS
 10
196.491257
 20
75.802361
 11
196.491257
 21
44.417965
  0
ARC
  8
0
  6
CONTINUOUS
 10
174.491257
 20
110.110001
 40
5.000000
 50
0.000000
 51
90.000000
  0
ARC
  8
0
  6
CONTINUOUS
 10
189.497147
 20
96.146179
 40
5.000000
 50
4.120544
 51
94.120201
  0
ARC
  8
0
  6
CONTINUOUS
 10
188.491257
 20
110.110001
 40
9.000000
 50
180.000000
 51
274.120697
  0
ARC
  8
0
  6
CONTINUOUS
 10
188.491257
 20
110.110001
 40
9.000000
 50
4.120065
 51
90.000000
  0
ARC
  8
0
  6
CONTINUOUS
 10
174.491257
 20
10.110000
 40
5.000000
 50
-90.000000
 51
0.000000
  0
ARC
  8
0
  6
CONTINUOUS
 10
189.497147
 20
24.073820
 40
5.000000
 50
265.879791
 51
355.879486
  0
ARC
  8
0
  6
CONTINUOUS
 10
188.491257
 20
10.110000
 40
9.000000
 50
270.000000
 51
355.879913
  0
ARC
  8
0
  6
CONTINUOUS
 10
188.491257
 20
10.110000
 40
9.000000
 50
85.879837
 51
180.000000
  0
LINE
  8
0
  6
CONTINUOUS
 10
194.484146
 20
96.505463
 11
196.491257
 21
75.802361
  0
LINE
  8
0
  6
CONTINUOUS
 10
194.484146
 20
23.714581
 11
196.491348
 21
44.417961
  0
ARC
  8
0
  6
CONTINUOUS
 10
122.491249
 20
110.110001
 40
5.000000
 50
90.000000
 51
180.000000
  0
ARC
  8
0
  6
CONTINUOUS
 10
108.491249
 20
110.110001
 40
9.000000
 50
-94.120667
 51
0.000000
  0
ARC
  8
0
  6
CONTINUOUS
 10
107.485352
 20
96.146179
 40
5.000000
 50
85.879799
 51
175.879501
  0
LINE
  8
0
  6
CONTINUOUS
 10
102.498352
 20
96.505463
 11
100.491249
 21
75.802361
  0
ARC
  8
0
  6
CONTINUOUS
 10
107.485352
 20
24.073820
 40
5.000000
 50
-175.879501
 51
-85.879791
  0
ARC
  8
0
  6
CONTINUOUS
 10
108.491249
 20
10.110000
 40
9.000000
 50
0.000000
 51
94.120163
  0
ARC
  8
0
  6
CONTINUOUS
 10
122.491249
 20
10.110000
 40
5.000000
 50
180.000000
 51
270.000000
  0
LINE
  8
0
  6
CONTINUOUS
 10
102.498352
 20
23.714581
 11
100.491150
 21
44.417961
  0
ARC
  8
0
  6
CONTINUOUS
 10
108.491249
 20
110.110001
 40
9.000000
 50
90.000000
 51
175.879898
  0
LINE
  8
0
  6
CONTINUOUS
 10
99.514450
 20
110.756630
 11
97.991249
 21
89.610001
  0
LINE
  8
0
  6
CONTINUOUS
 10
99.514450
 20
9.463440
 11
97.991249
 21
30.610001
  0
ARC
  8
0
  6
CONTINUOUS
 10
108.491249
 20
10.110000
 40
9.000000
 50
-175.879898
 51
-90.000000
  0
ARC
  8
0
  6
CONTINUOUS
 10
102.991249
 20
14.410030
 40
5.000000
 50
143.994797
 51
180.000000
  0
ARC
  8
0
  6
CONTINUOUS
 10
95.991249
 20
6.410000
 40
2.000000
 50
-90.000000
 51
0.000000
  0
LINE
  8
0
  6
CONTINUOUS
 10
97.991249
 20
6.410000
 11
97.991249
 21
14.410030
  0
LINE
  8
0
  6
CONTINUOUS
 10
97.991249
 20
89.610001
 11
97.991249
 21
30.609989
  0
LINE
  8
0
  6
CONTINUOUS
 10
25.491249
 20
83.819298
 11
95.991249
 21
83.819298
  0
LINE
  8
0
  6
CONTINUOUS
 10
25.491249
 20
15.000690
 11
96.491249
 21
15.000690
  0
CIRCLE
  8
0
  6
CONTINUOUS
 10
148.491257
 20
75.110001
 40
23.500000
  0
LINE
  8
0
  6
CONTINUOUS
 10
142.116257
 20
37.663231
 11
142.116257
 21
32.110001
  0
LINE
  8
0
  6
CONTINUOUS
 10
145.303757
 20
39.680317
 11
145.303757
 21
41.672504
  0
LINE
  8
0
  6
CONTINUOUS
 10
151.678757
 20
39.680317
 11
151.678757
 21
41.672504
  0
LINE
  8
0
  6
CONTINUOUS
 10
147.868652
 20
40.502094
 11
147.868652
 21
33.155899
  0
LINE
  8
0
  6
CONTINUOUS
 10
149.064056
 20
40.502094
 11
149.064056
 21
33.155899
  0
LINE
  8
0
  6
CONTINUOUS
 10
155.339355
 20
40.502094
 11
155.339355
 21
33.106098
  0
LINE
  8
0
  6
CONTINUOUS
 10
156.435043
 20
36.579979
 11
156.435043
 21
33.106098
  0
LINE
  8
0
  6
CONTINUOUS
 10
140.603745
 20
40.402485
 11
137.531845
 21
40.402485
  0
LINE
  8
0
  6
CONTINUOUS
 10
137.531845
 20
40.402485
 11
136.812057
 21
39.509991
  0
LINE
  8
0
  6
CONTINUOUS
 10
136.898651
 20
41.672504
 11
135.741257
 21
40.190510
  0
LINE
  8
0
  6
CONTINUOUS
 10
136.812057
 20
34.000931
 11
137.543350
 21
33.230610
  0
LINE
  8
0
  6
CONTINUOUS
 10
135.741257
 20
33.350861
 11
136.971054
 21
32.110001
  0
LINE
  8
0
  6
CONTINUOUS
 10
135.741257
 20
40.190510
 11
135.741257
 21
33.350861
  0
LINE
  8
0
  6
CONTINUOUS
 10
136.812057
 20
39.509991
 11
136.812057
 21
34.000931
  0
LINE
  8
0
  6
CONTINUOUS
 10
141.194855
 20
39.831043
 11
140.591644
 21
40.402485
  0
LINE
  8
0
  6
CONTINUOUS
 10
141.185257
 20
41.672504
 11
142.116257
 21
40.639362
  0
LINE
  8
0
  6
CONTINUOUS
 10
141.194855
 20
39.680317
 11
142.116257
 21
39.680317
  0
LINE
  8
0
  6
CONTINUOUS
 10
136.898651
 20
41.672504
 11
141.185257
 21
41.672504
  0
LINE
  8
0
  6
CONTINUOUS
 10
141.194855
 20
36.617329
 11
139.526443
 21
36.617329
  0
LINE
  8
0
  6
CONTINUOUS
 10
141.194855
 20
35.621239
 11
141.194855
 21
36.418110
  0
LINE
  8
0
  6
CONTINUOUS
 10
139.202652
 20
33.230610
 11
137.543350
 21
33.230610
  0
ARC
  8
0
  6
CONTINUOUS
 10
139.202652
 20
35.222801
 40
1.992187
 50
-89.999786
 51
0.000109
  0
LINE
  8
0
  6
CONTINUOUS
 10
141.194855
 20
32.872269
 11
141.194855
 21
32.110001
  0
LINE
  8
0
  6
CONTINUOUS
 10
142.116257
 20
40.639362
 11
142.116257
 21
39.680317
  0
LINE
  8
0
  6
CONTINUOUS
 10
141.194855
 20
36.617329
 11
141.194855
 21
35.222801
  0
LINE
  8
0
  6
CONTINUOUS
 10
139.526443
 20
37.663231
 11
139.526443
 21
36.617329
  0
LINE
  8
0
  6
CONTINUOUS
 10
141.194855
 20
32.110001
 11
142.116257
 21
32.110001
  0
LINE
  8
0
  6
CONTINUOUS
 10
141.194855
 20
32.872269
 11
140.286346
 21
32.110001
  0
LINE
  8
0
  6
CONTINUOUS
 10
149.064056
 20
33.155899
 11
149.462448
 21
33.155899
  0
LINE
  8
0
  6
CONTINUOUS
 10
147.395554
 20
33.155899
 11
147.395554
 21
32.110001
  0
LINE
  8
0
  6
CONTINUOUS
 10
149.462448
 20
33.155899
 11
149.462448
 21
32.110001
  0
LINE
  8
0
  6
CONTINUOUS
 10
151.013748
 20
39.680317
 11
151.678757
 21
39.680317
  0
LINE
  8
0
  6
CONTINUOUS
 10
145.303757
 20
39.680317
 11
146.011353
 21
39.680317
  0
LINE
  8
0
  6
CONTINUOUS
 10
145.303757
 20
41.672504
 11
151.678757
 21
41.672504
  0
LINE
  8
0
  6
CONTINUOUS
 10
147.395554
 20
32.110001
 11
149.462448
 21
32.110001
  0
LINE
  8
0
  6
CONTINUOUS
 10
147.395554
 20
33.155899
 11
147.868652
 21
33.155899
  0
ARC
  8
0
  6
CONTINUOUS
 10
158.688751
 20
39.120010
 40
2.552490
 50
-73.981873
 51
90.003510
  0
ARC
  8
0
  6
CONTINUOUS
 10
158.688751
 20
39.120010
 40
1.557193
 50
-82.585274
 51
62.411850
  0
LINE
  8
0
  6
CONTINUOUS
 10
154.866257
 20
41.672504
 11
158.688751
 21
41.672504
  0
LINE
  8
0
  6
CONTINUOUS
 10
154.866257
 20
41.672504
 11
154.866257
 21
40.502094
  0
LINE
  8
0
  6
CONTINUOUS
 10
156.435043
 20
40.502094
 11
156.435043
 21
37.575840
  0
LINE
  8
0
  6
CONTINUOUS
 10
159.393143
 20
36.666630
 11
160.972946
 21
33.106098
  0
LINE
  8
0
  6
CONTINUOUS
 10
158.475555
 20
36.579979
 11
159.970657
 21
33.106098
  0
LINE
  8
0
  6
CONTINUOUS
 10
154.866257
 20
33.106098
 11
155.339355
 21
33.106098
  0
LINE
  8
0
  6
CONTINUOUS
 10
156.435043
 20
33.106098
 11
156.870850
 21
33.106098
  0
LINE
  8
0
  6
CONTINUOUS
 10
156.870850
 20
32.110001
 11
154.866257
 21
32.110001
  0
LINE
  8
0
  6
CONTINUOUS
 10
159.772049
 20
33.106098
 11
159.970657
 21
33.106098
  0
LINE
  8
0
  6
CONTINUOUS
 10
160.972946
 20
33.106098
 11
161.241257
 21
33.106098
  0
LINE
  8
0
  6
CONTINUOUS
 10
159.772049
 20
32.110001
 11
161.241257
 21
32.110001
  0
LINE
  8
0
  6
CONTINUOUS
 10
161.241257
 20
33.106098
 11
161.241257
 21
32.110001
  0
LINE
  8
0
  6
CONTINUOUS
 10
159.772049
 20
33.106098
 11
159.772049
 21
32.110001
  0
LINE
  8
0
  6
CONTINUOUS
 10
156.870850
 20
33.106098
 11
156.870850
 21
32.110001
  0
LINE
  8
0
  6
CONTINUOUS
 10
154.866257
 20
33.106098
 11
154.866257
 21
32.110001
  0
LINE
  8
0
  6
CONTINUOUS
 10
146.353745
 20
40.502094
 11
146.011353
 21
39.680317
  0
LINE
  8
0
  6
CONTINUOUS
 10
150.725052
 20
40.502094
 11
151.013748
 21
39.680317
  0
LINE
  8
0
  6
CONTINUOUS
 10
149.064056
 20
40.502094
 11
150.725052
 21
40.502094
  0
LINE
  8
0
  6
CONTINUOUS
 10
147.868652
 20
40.502094
 11
146.353745
 21
40.502094
  0
LINE
  8
0
  6
CONTINUOUS
 10
154.866257
 20
40.502094
 11
155.339355
 21
40.502094
  0
LINE
  8
0
  6
CONTINUOUS
 10
156.435043
 20
40.502094
 11
159.409943
 21
40.500156
  0
LINE
  8
0
  6
CONTINUOUS
 10
141.194855
 20
39.831043
 11
141.194855
 21
39.680317
  0
LINE
  8
0
  6
CONTINUOUS
 10
136.971054
 20
32.110001
 11
140.286346
 21
32.110001
  0
LINE
  8
0
  6
CONTINUOUS
 10
156.435043
 20
37.575840
 11
158.889755
 21
37.575840
  0
LINE
  8
0
  6
CONTINUOUS
 10
156.435043
 20
36.579979
 11
158.475555
 21
36.579979
  0
LINE
  8
0
  6
CONTINUOUS
 10
139.526443
 20
37.663231
 11
142.116257
 21
37.663231
  0
LINE
  8
0
  6
CONTINUOUS
 10
134.491257
 20
114.178802
 11
134.491257
 21
108.630608
  0
LINE
  8
0
  6
CONTINUOUS
 10
162.491257
 20
114.178802
 11
162.491257
 21
108.630623
  0
LINE
  8
0
  6
CONTINUOUS
 10
134.491257
 20
11.589390
 11
134.491257
 21
6.315370
  0
LINE
  8
0
  6
CONTINUOUS
 10
162.491257
 20
11.589390
 11
162.491257
 21
6.315370
  0
LINE
  8
0
  6
CENTER
 10
348.491241
 20
-5.590000
 11
348.491241
 21
124.910004
  0
LINE
  8
0
  6
CONTINUOUS
 10
306.491241
 20
97.609993
 11
306.491241
 21
52.609993
  0
LINE
  8
0
  6
CONTINUOUS
 10
385.491241
 20
110.161880
 11
385.491241
 21
10.058080
  0
LINE
  8
0
  6
CENTER
 10
266.991241
 20
75.110001
 11
401.024353
 21
75.110001
  0
LINE
  8
0
  6
CONTINUOUS
 10
310.491241
 20
98.610001
 11
307.491241
 21
98.610001
  0
LINE
  8
0
  6
CONTINUOUS
 10
310.491241
 20
51.609997
 11
307.491241
 21
51.609997
  0
LINE
  8
0
  6
CONTINUOUS
 10
308.956665
 20
119.110001
 11
300.491241
 21
119.110001
  0
LINE
  8
0
  6
CONTINUOUS
 10
308.956665
 20
1.110010
 11
300.491241
 21
1.110000
  0
LINE
  8
0
  6
CONTINUOUS
 10
382.543549
 20
113.161438
 11
312.456360
 21
114.384529
  0
LINE
  8
0
  6
CONTINUOUS
 10
312.456360
 20
5.834920
 11
382.543640
 21
7.058550
  0
LINE
  8
0
  6
CONTINUOUS
 10
383.805756
 20
89.610001
 11
315.657043
 21
89.610001
  0
LINE
  8
0
  6
CONTINUOUS
 10
383.805756
 20
30.610001
 11
313.491241
 21
30.610001
  0
ARC
  8
0
  6
CONTINUOUS
 10
382.491241
 20
110.161880
 40
3.000000
 50
0.000000
 51
89.000359
  0
ARC
  8
0
  6
CONTINUOUS
 10
382.491241
 20
10.058080
 40
3.000000
 50
-88.999687
 51
0.000000
  0
ARC
  8
0
  6
CONTINUOUS
 10
313.491241
 20
27.610020
 40
3.000000
 50
90.000000
 51
180.000000
  0
LINE
  8
0
  6
CENTER
 10
295.428741
 20
10.110000
 11
315.178741
 21
10.110000
  0
LINE
  8
0
  6
CENTER
 10
297.178741
 20
110.110001
 11
314.178741
 21
110.110001
  0
LINE
  8
0
  6
DASHED
 10
300.491241
 20
105.860001
 11
310.491241
 21
105.860001
  0
LINE
  8
0
  6
DASHED
 10
300.491241
 20
114.360001
 11
310.491241
 21
114.360001
  0
LINE
  8
0
  6
DASHED
 10
300.491241
 20
14.360000
 11
310.491241
 21
14.360000
  0
LINE
  8
0
  6
DASHED
 10
300.491241
 20
5.860000
 11
310.491241
 21
5.860000
  0
LINE
  8
0
  6
CONTINUOUS
 10
322.491241
 20
4.410000
 11
374.491241
 21
4.410000
  0
ARC
  8
0
  6
CONTINUOUS
 10
374.491241
 20
7.410000
 40
3.000000
 50
270.000000
 51
351.561890
  0
ARC
  8
0
  6
CONTINUOUS
 10
322.491241
 20
7.410000
 40
3.000000
 50
208.811905
 51
270.000000
  0
ARC
  8
0
  6
CONTINUOUS
 10
307.491241
 20
52.609997
 40
1.000000
 50
180.000000
 51
270.000000
  0
ARC
  8
0
  6
CONTINUOUS
 10
307.491241
 20
97.609993
 40
1.000000
 50
90.000000
 51
180.000000
  0
ARC
  8
0
  6
CONTINUOUS
 10
348.491241
 20
49.410000
 40
45.000000
 50
-34.692108
 51
21.039440
  0
ARC
  8
0
  6
CONTINUOUS
 10
308.991241
 20
2.610000
 40
1.500000
 50
270.000000
 51
292.656891
  0
LINE
  8
0
  6
CONTINUOUS
 10
390.491241
 20
97.609993
 11
390.491241
 21
52.609993
  0
LINE
  8
0
  6
CONTINUOUS
 10
387.491241
 20
98.610001
 11
389.491241
 21
98.610001
  0
LINE
  8
0
  6
CONTINUOUS
 10
387.491241
 20
51.609997
 11
389.491241
 21
51.609997
  0
ARC
  8
0
  6
CONTINUOUS
 10
387.491241
 20
100.610001
 40
2.000000
 50
180.000000
 51
270.000000
  0
ARC
  8
0
  6
CONTINUOUS
 10
387.491241
 20
49.610008
 40
2.000000
 50
90.000000
 51
180.000000
  0
ARC
  8
0
  6
CONTINUOUS
 10
389.491241
 20
52.609997
 40
1.000000
 50
-90.000000
 51
0.000000
  0
ARC
  8
0
  6
CONTINUOUS
 10
389.491241
 20
97.609993
 40
1.000000
 50
0.000000
 51
90.000000
  0
LINE
  8
0
  6
CONTINUOUS
 10
300.491241
 20
102.826118
 11
307.928741
 21
101.847504
  0
LINE
  8
0
  6
CONTINUOUS
 10
307.928741
 20
101.847504
 11
312.928741
 21
98.597504
  0
LINE
  8
0
  6
CONTINUOUS
 10
315.842865
 20
89.182503
 11
317.303741
 21
88.222504
  0
LINE
  8
0
  6
CONTINUOUS
 10
317.303741
 20
88.222504
 11
316.803741
 21
82.222504
  0
LINE
  8
0
  6
CONTINUOUS
 10
316.803741
 20
82.222504
 11
314.803741
 21
78.722504
  0
LINE
  8
0
  6
CONTINUOUS
 10
314.803741
 20
78.722504
 11
316.678741
 21
73.222504
  0
LINE
  8
0
  6
CONTINUOUS
 10
316.678741
 20
73.222504
 11
316.053741
 21
67.472504
  0
LINE
  8
0
  6
CONTINUOUS
 10
316.053741
 20
67.472504
 11
315.428741
 21
61.222500
  0
LINE
  8
0
  6
CONTINUOUS
 10
315.428741
 20
61.222500
 11
316.553741
 21
56.597500
  0
LINE
  8
0
  6
CONTINUOUS
 10
316.553741
 20
56.597500
 11
315.428741
 21
52.347500
  0
LINE
  8
0
  6
CONTINUOUS
 10
315.428741
 20
52.347500
 11
312.178741
 21
47.472500
  0
LINE
  8
0
  6
CONTINUOUS
 10
312.178741
 20
47.472500
 11
307.678741
 21
45.472500
  0
LINE
  8
0
  6
CONTINUOUS
 10
307.678741
 20
45.472500
 11
303.428741
 21
42.847500
  0
LINE
  8
0
  6
CONTINUOUS
 10
303.428741
 20
42.847500
 11
300.491241
 21
42.450542
  0
LINE
  8
0
  6
CONTINUOUS
 10
312.928741
 20
98.597504
 11
313.678741
 21
94.160004
  0
LINE
  8
0
  6
CONTINUOUS
 10
313.678741
 20
94.160004
 11
315.842865
 21
89.182503
  0
LINE
  8
0
  6
CONTINUOUS
 10
310.491241
 20
117.110001
 11
310.491241
 21
46.722500
  0
LINE
  8
0
  6
CONTINUOUS
 10
310.491241
 20
27.610010
 11
310.491241
 21
3.110000
  0
LINE
  8
0
  6
CONTINUOUS
 10
300.491241
 20
119.110001
 11
300.491241
 21
84.110001
  0
LINE
  8
0
  6
CONTINUOUS
 10
300.491241
 20
1.110000
 11
300.491241
 21
66.110001
  0
LINE
  8
0
  6
CENTER
 10
290.583130
 20
49.410000
 11
403.141235
 21
49.410000
  0
LINE
  8
0
  6
CONTINUOUS
 10
310.888458
 20
117.627640
 11
311.169037
 21
116.580399
  0
ARC
  8
0
  6
CONTINUOUS
 10
308.491241
 20
117.109993
 40
2.000000
 50
0.000000
 51
90.000000
  0
ARC
  8
0
  6
CONTINUOUS
 10
308.956665
 20
117.109993
 40
2.000000
 50
15.000500
 51
90.000000
  0
ARC
  8
0
  6
CONTINUOUS
 10
312.491241
 20
116.384239
 40
2.000000
 50
180.000000
 51
269.000610
  0
ARC
  8
0
  6
CONTINUOUS
 10
314.066864
 20
117.356903
 40
3.000000
 50
195.000504
 51
269.000488
  0
LINE
  8
0
  6
CONTINUOUS
 10
310.888458
 20
2.592370
 11
311.168854
 21
3.639030
  0
ARC
  8
0
  6
CONTINUOUS
 10
308.491241
 20
3.110000
 40
2.000000
 50
-90.000000
 51
0.000000
  0
ARC
  8
0
  6
CONTINUOUS
 10
308.956665
 20
3.110010
 40
2.000000
 50
270.000000
 51
345.000000
  0
ARC
  8
0
  6
CONTINUOUS
 10
312.491241
 20
3.835230
 40
2.000000
 50
91.000412
 51
180.000000
  0
ARC
  8
0
  6
CONTINUOUS
 10
314.066650
 20
2.862590
 40
3.000000
 50
91.000458
 51
165.000198
  0
LINE
  8
0
  6
CONTINUOUS
 10
153.991257
 20
72.110023
 11
153.991257
 21
78.110023
  0
LINE
  8
0
  6
CONTINUOUS
 10
159.991257
 20
72.110039
 11
159.991257
 21
78.110039
  0
LINE
  8
0
  6
CONTINUOUS
 10
159.991257
 20
72.110039
 11
153.991257
 21
72.110023
  0
LINE
  8
0
  6
CONTINUOUS
 10
159.991257
 20
78.110039
 11
153.991257
 21
78.110023
  0
ARC
  8
0
  6
CONTINUOUS
 10
148.491257
 20
75.110001
 40
9.000000
 50
19.471210
 51
340.528809
  0
LINE
  8
0
  6
CONTINUOUS
 10
274.491241
 20
66.110001
 11
274.491241
 21
84.110001
  0
LINE
  8
0
  6
CONTINUOUS
 10
304.491241
 20
84.110001
 11
274.491241
 21
84.110001
  0
LINE
  8
0
  6
CONTINUOUS
 10
304.491241
 20
66.110001
 11
274.491241
 21
66.110001
  0
LINE
  8
0
  6
CONTINUOUS
 10
304.491241
 20
85.110001
 11
304.491241
 21
65.110001
  0
LINE
  8
0
  6
CONTINUOUS
 10
306.491241
 20
85.110001
 11
304.491241
 21
85.110001
  0
LINE
  8
0
  6
CONTINUOUS
 10
306.491241
 20
65.110001
 11
304.491241
 21
65.110001
  0
ARC
  8
0
  6
CONTINUOUS
 10
298.491241
 20
75.110001
 40
3.000000
 50
-90.000000
 51
90.000000
  0
LINE
  8
0
  6
CONTINUOUS
 10
298.491241
 20
78.110001
 11
274.491241
 21
78.110001
  0
LINE
  8
0
  6
CONTINUOUS
 10
298.491241
 20
72.110001
 11
274.491241
 21
72.110001
  0
LINE
  8
0
  6
CONTINUOUS
 10
18.991249
 20
228.818756
 11
18.991249
 21
240.818756
  0
LINE
  8
0
  6
CONTINUOUS
 10
25.991249
 20
228.818756
 11
25.991249
 21
240.818756
  0
LINE
  8
0
  6
CONTINUOUS
 10
19.991249
 20
241.818756
 11
24.991249
 21
241.818756
  0
LINE
  8
0
  6
CONTINUOUS
 10
24.991249
 20
227.818756
 11
19.991249
 21
227.818756
  0
ARC
  8
0
  6
CONTINUOUS
 10
24.991249
 20
240.818756
 40
1.000000
 50
0.000000
 51
90.000000
  0
ARC
  8
0
  6
CONTINUOUS
 10
19.991249
 20
240.818756
 40
1.000000
 50
90.000000
 51
180.000000
  0
ARC
  8
0
  6
CONTINUOUS
 10
19.991249
 20
228.818756
 40
1.000000
 50
180.000000
 51
270.000000
  0
ARC
  8
0
  6
CONTINUOUS
 10
24.991249
 20
228.818756
 40
1.000000
 50
-90.000000
 51
0.000000
  0
LINE
  8
0
  6
CONTINUOUS
 10
23.491249
 20
231.318756
 11
23.491249
 21
238.318756
  0
LINE
  8
0
  6
CONTINUOUS
 10
21.491249
 20
231.318756
 11
21.491249
 21
238.318756
  0
ARC
  8
0
  6
CONTINUOUS
 10
22.491249
 20
238.318756
 40
1.000000
 50
90.000000
 51
180.000000
  0
ARC
  8
0
  6
CONTINUOUS
 10
22.491249
 20
238.318756
 40
1.000000
 50
0.000000
 51
90.000000
  0
ARC
  8
0
  6
CONTINUOUS
 10
22.491249
 20
231.318756
 40
1.000000
 50
180.000000
 51
270.000000
  0
ARC
  8
0
  6
CONTINUOUS
 10
22.491249
 20
231.318756
 40
1.000000
 50
-90.000000
 51
0.000000
  0
LINE
  8
0
  6
CENTER
 10
148.491257
 20
289.988129
 11
148.491257
 21
154.525620
  0
LINE
  8
0
  6
CENTER
 10
-8.495000
 20
234.818756
 11
212.632507
 21
234.818756
  0
LINE
  8
0
  6
CONTINUOUS
 10
194.817139
 20
271.818756
 11
99.939568
 21
271.818756
  0
LINE
  8
0
  6
CONTINUOUS
 10
4.991250
 20
199.818756
 11
4.991250
 21
269.818756
  0
LINE
  8
0
  6
CONTINUOUS
 10
9.532699
 20
279.818756
 11
25.491249
 21
279.818756
  0
LINE
  8
0
  6
CONTINUOUS
 10
5.491250
 20
276.818756
 11
5.491250
 21
192.818756
  0
LINE
  8
0
  6
CONTINUOUS
 10
25.491249
 20
263.818756
 11
7.241250
 21
263.818756
  0
ARC
  8
0
  6
CONTINUOUS
 10
4.991249
 20
270.318756
 40
0.500000
 50
-90.000000
 51
0.000000
  0
LINE
  8
0
  6
CONTINUOUS
 10
6.068593
 20
277.818726
 11
5.491250
 21
276.818756
  0
ARC
  8
0
  6
CONTINUOUS
 10
9.532713
 20
275.818756
 40
4.000000
 50
90.000000
 51
150.000397
  0
LINE
  8
0
  6
CONTINUOUS
 10
9.532699
 20
189.818756
 11
25.491249
 21
189.818756
  0
ARC
  8
0
  6
CONTINUOUS
 10
4.991249
 20
199.318756
 40
0.500000
 50
0.000000
 51
90.000000
  0
LINE
  8
0
  6
CONTINUOUS
 10
6.068593
 20
191.818756
 11
5.491250
 21
192.818756
  0
ARC
  8
0
  6
CONTINUOUS
 10
9.532713
 20
193.818741
 40
4.000000
 50
-150.000397
 51
-90.000000
  0
LINE
  8
0
  6
CONTINUOUS
 10
25.491249
 20
189.818756
 11
25.491249
 21
227.952728
  0
LINE
  8
0
  6
CONTINUOUS
 10
97.781837
 20
263.821503
 11
97.940247
 21
269.871094
  0
LINE
  8
0
  6
CONTINUOUS
 10
95.833450
 20
279.818756
 11
25.491249
 21
279.818756
  0
LINE
  8
0
  6
CONTINUOUS
 10
25.491249
 20
263.818756
 11
104.833801
 21
263.818756
  0
LINE
  8
0
  6
CONTINUOUS
 10
25.491249
 20
205.818756
 11
7.241250
 21
205.818756
  0
LINE
  8
0
  6
CONTINUOUS
 10
25.491249
 20
205.818756
 11
96.108124
 21
205.818756
  0
LINE
  8
0
  6
CONTINUOUS
 10
95.964378
 20
189.818756
 11
25.491249
 21
189.818756
  0
LINE
  8
0
  6
CONTINUOUS
 10
96.734329
 20
234.818756
 11
97.991249
 21
186.818756
  0
LINE
  8
0
  6
CONTINUOUS
 10
131.491257
 20
266.818756
 11
131.491257
 21
198.818756
  0
LINE
  8
0
  6
CONTINUOUS
 10
165.491257
 20
266.818756
 11
165.491257
 21
198.818756
  0
LINE
  8
0
  6
CONTINUOUS
 10
104.833801
 20
261.818756
 11
104.833801
 21
198.353745
  0
LINE
  8
0
  6
CONTINUOUS
 10
170.991257
 20
276.818756
 11
125.991249
 21
276.818756
  0
LINE
  8
0
  6
CONTINUOUS
 10
124.991249
 20
275.818756
 11
124.991249
 21
273.818756
  0
LINE
  8
0
  6
CONTINUOUS
 10
171.991257
 20
275.818756
 11
171.991257
 21
273.818756
  0
ARC
  8
0
  6
CONTINUOUS
 10
122.991249
 20
273.818756
 40
2.000000
 50
-90.000000
 51
0.000000
  0
ARC
  8
0
  6
CONTINUOUS
 10
173.991241
 20
273.818756
 40
2.000000
 50
180.000000
 51
270.000000
  0
ARC
  8
0
  6
CONTINUOUS
 10
125.991257
 20
275.818756
 40
1.000000
 50
90.000000
 51
180.000000
  0
ARC
  8
0
  6
CONTINUOUS
 10
170.991257
 20
275.818756
 40
1.000000
 50
0.000000
 51
90.000000
  0
LINE
  8
0
  6
CONTINUOUS
 10
159.991257
 20
160.818756
 11
139.491257
 21
160.818756
  0
LINE
  8
0
  6
CONTINUOUS
 10
139.491257
 20
186.818756
 11
139.491257
 21
160.818756
  0
LINE
  8
0
  6
CONTINUOUS
 10
159.991257
 20
160.818756
 11
159.991257
 21
186.818756
  0
LINE
  8
0
  6
CONTINUOUS
 10
156.976257
 20
160.818756
 11
156.976257
 21
186.818756
  0
LINE
  8
0
  6
CONTINUOUS
 10
25.491249
 20
241.684769
 11
25.491249
 21
279.818756
  0
LINE
  8
0
  6
CONTINUOUS
 10
97.991249
 20
186.818756
 11
198.991257
 21
186.818756
  0
LINE
  8
0
  6
CONTINUOUS
 10
196.816452
 20
269.871094
 11
198.991257
 21
186.818756
  0
LINE
  8
0
  6
CONTINUOUS
 10
99.782448
 20
196.818756
 11
196.781082
 21
196.818756
  0
ARC
  8
0
  6
CONTINUOUS
 10
196.781082
 20
194.818756
 40
2.000000
 50
1.500000
 51
90.000000
  0
ARC
  8
0
  6
CONTINUOUS
 10
194.817139
 20
269.818756
 40
2.000000
 50
1.500000
 51
90.000000
  0
ARC
  8
0
  6
CONTINUOUS
 10
167.491257
 20
198.818756
 40
2.000000
 50
180.000000
 51
270.000000
  0
ARC
  8
0
  6
CONTINUOUS
 10
129.491257
 20
198.818756
 40
2.000000
 50
-90.000000
 51
0.000000
  0
LINE
  8
0
  6
CONTINUOUS
 10
131.349319
 20
198.078751
 11
165.633179
 21
198.078751
  0
ARC
  8
0
  6
CONTINUOUS
 10
99.782448
 20
194.818756
 40
2.000000
 50
90.000000
 51
181.500000
  0
ARC
  8
0
  6
CONTINUOUS
 10
95.964378
 20
187.818756
 40
2.000000
 50
1.500000
 51
90.000000
  0
LINE
  8
0
  6
CONTINUOUS
 10
97.832764
 20
277.871094
 11
97.940247
 21
273.766388
  0
ARC
  8
0
  6
CONTINUOUS
 10
95.833450
 20
277.818756
 40
2.000000
 50
1.500000
 51
90.000000
  0
ARC
  8
0
  6
CONTINUOUS
 10
99.939568
 20
273.818756
 40
2.000000
 50
181.500000
 51
270.000000
  0
ARC
  8
0
  6
CONTINUOUS
 10
99.939568
 20
269.818756
 40
2.000000
 50
90.000000
 51
178.500000
  0
LINE
  8
0
  6
CENTER
 10
188.491257
 20
179.130157
 11
188.491257
 21
202.992813
  0
LINE
  8
0
  6
DASHED
 10
192.741257
 20
196.818756
 11
192.741257
 21
186.818756
  0
LINE
  8
0
  6
DASHED
 10
184.241257
 20
196.818756
 11
184.241257
 21
186.818756
  0
LINE
  8
0
  6
CENTER
 10
108.491249
 20
179.130157
 11
108.491249
 21
202.992813
  0
LINE
  8
0
  6
DASHED
 10
104.241249
 20
196.818756
 11
104.241249
 21
186.818756
  0
LINE
  8
0
  6
DASHED
 10
112.741249
 20
196.818756
 11
112.741249
 21
186.818756
  0
TEXT
  8
0
 10
-8.000000
 20
-8.000000
 40
4.000000
 41
1.000000
  1
HFM-18R-160~240-S40W
 50
0.000000
  0
ENDSEC
  0
EOF
