  0
SECTION
  2
HEADER
  9
$CLAYER
  8
1
  9
$LTSCALE
 40
3.0
  0
ENDSEC
  0
SECTION
  2
TABLES
  0
TABLE
  2
LTYPE
 70
     4
  0
LTYPE
  2
CONTINUOUS
  3
solid line
 70
    64
 72
    65
 73
     0
 40
0.0
  0
LTYPE
  2
DASHED
  3
__ __ __ __ __ __ __ __ __ __ __ __ __ __ __
 70
    64
 72
    65
 73
     2
 40
0.75
 49
0.5
 49
-0.25
  0
LTYPE
  2
CENTER
  3
____ _ ____ _ ____ _ ____ _ ____ _ ____ _ ____
 70
    64
 72
    65
 73
     4
 40
2.0
 49
1.25
 49
-0.25
 49
0.25
 49
-0.25
  0
LTYPE
  2
PHANTOM
  3
_____ _ _ _____ _ _ _____ _ _ _____ _ _ ____
 70
    64
 72
    65
 73
     6
 40
2.5
 49
1.25
 49
-0.25
 49
0.25
 49
-0.25
 49
0.25
 49
-0.25
  0
ENDTAB
  0
TABLE
  2
LAYER
 70
     1
  0
LAYER
  2
0
 70
    64
 62
     7
  6
CONTINUOUS
  0
ENDTAB
  0
TABLE
  2
STYLE
 70
     1
  0
STYLE
  2
STANDARD
 70
     0
 40
0.000000
 41
1.000000
 50
0.000000
 71
     0
 42
3.000000
  3
txt
  4
BIGFONT
  0
ENDTAB
  0
ENDSEC
  0
SECTION
  2
BLOCKS
  0
ENDSEC
  0
SECTION
  2
ENTITIES
  0
LINE
  8
0
  6
CONTINUOUS
 10
2.801250
 20
16.160000
 11
2.801250
 21
86.160004
  0
LINE
  8
0
  6
CONTINUOUS
 10
7.342700
 20
96.160004
 11
23.301250
 21
96.160004
  0
LINE
  8
0
  6
CONTINUOUS
 10
3.301250
 20
93.160004
 11
3.301250
 21
9.160000
  0
LINE
  8
0
  6
CONTINUOUS
 10
23.301250
 20
85.569298
 11
5.051250
 21
85.569298
  0
ARC
  8
0
  6
CONTINUOUS
 10
2.801249
 20
86.660004
 40
0.500000
 50
-90.000000
 51
0.000000
  0
LINE
  8
0
  6
CONTINUOUS
 10
3.878593
 20
94.159988
 11
3.301250
 21
93.160004
  0
ARC
  8
0
  6
CONTINUOUS
 10
7.342710
 20
92.160011
 40
4.000000
 50
90.000000
 51
150.000397
  0
LINE
  8
0
  6
CONTINUOUS
 10
7.342700
 20
6.160000
 11
23.301250
 21
6.160000
  0
LINE
  8
0
  6
CONTINUOUS
 10
23.301250
 20
16.750700
 11
5.051250
 21
16.750700
  0
ARC
  8
0
  6
CONTINUOUS
 10
2.801249
 20
15.660000
 40
0.500000
 50
0.000000
 51
90.000000
  0
LINE
  8
0
  6
CONTINUOUS
 10
3.878593
 20
8.160010
 11
3.301250
 21
9.160000
  0
ARC
  8
0
  6
CONTINUOUS
 10
7.342710
 20
10.159990
 40
4.000000
 50
-150.000397
 51
-90.000000
  0
LINE
  8
0
  6
CONTINUOUS
 10
23.301250
 20
6.160000
 11
23.301250
 21
96.160004
  0
LINE
  8
0
  6
CENTER
 10
-8.942500
 20
51.160000
 11
118.187950
 21
51.160000
  0
LINE
  8
0
  6
CONTINUOUS
 10
196.801254
 20
32.360001
 11
196.801254
 21
91.360001
  0
LINE
  8
0
  6
CONTINUOUS
 10
23.301250
 20
96.160004
 11
96.147011
 21
96.160004
  0
LINE
  8
0
  6
CONTINUOUS
 10
93.801247
 20
6.160000
 11
23.301250
 21
6.160000
  0
LINE
  8
0
  6
CENTER
 10
108.301247
 20
76.860001
 11
175.763153
 21
76.860001
  0
LINE
  8
0
  6
CENTER
 10
146.301254
 20
129.410004
 11
146.301254
 21
-6.580300
  0
LINE
  8
0
  6
CONTINUOUS
 10
106.301247
 20
120.860001
 11
186.301254
 21
120.860001
  0
LINE
  8
0
  6
CONTINUOUS
 10
106.301247
 20
2.860000
 11
186.301254
 21
2.860000
  0
LINE
  8
0
  6
CENTER
 10
179.301254
 20
111.860001
 11
193.176254
 21
111.860001
  0
LINE
  8
0
  6
CENTER
 10
186.301254
 20
105.160004
 11
186.301254
 21
118.660004
  0
CIRCLE
  8
0
  6
CONTINUOUS
 10
186.301254
 20
111.860001
 40
4.250000
  0
LINE
  8
0
  6
CENTER
 10
179.301254
 20
11.860000
 11
193.176254
 21
11.860000
  0
LINE
  8
0
  6
CENTER
 10
186.301254
 20
18.559999
 11
186.301254
 21
5.060000
  0
CIRCLE
  8
0
  6
CONTINUOUS
 10
186.301254
 20
11.860000
 40
4.250000
  0
LINE
  8
0
  6
CENTER
 10
113.301247
 20
111.860001
 11
99.426247
 21
111.860001
  0
LINE
  8
0
  6
CENTER
 10
106.301247
 20
105.160004
 11
106.301247
 21
118.660004
  0
CIRCLE
  8
0
  6
CONTINUOUS
 10
106.301247
 20
111.860001
 40
4.250000
  0
LINE
  8
0
  6
CENTER
 10
113.301247
 20
11.860000
 11
99.426247
 21
11.860000
  0
LINE
  8
0
  6
CENTER
 10
106.301247
 20
18.559999
 11
106.301247
 21
5.060000
  0
CIRCLE
  8
0
  6
CONTINUOUS
 10
106.301247
 20
11.860000
 40
4.250000
  0
LINE
  8
0
  6
CONTINUOUS
 10
195.277954
 20
112.506630
 11
196.801254
 21
91.360001
  0
LINE
  8
0
  6
CONTINUOUS
 10
195.277954
 20
11.213440
 11
196.801254
 21
32.360001
  0
LINE
  8
0
  6
CONTINUOUS
 10
120.301247
 20
116.860001
 11
172.301254
 21
116.860001
  0
LINE
  8
0
  6
CONTINUOUS
 10
172.301254
 20
6.860000
 11
120.301247
 21
6.860000
  0
LINE
  8
0
  6
CONTINUOUS
 10
98.301247
 20
77.552193
 11
98.301247
 21
46.167480
  0
ARC
  8
0
  6
CONTINUOUS
 10
146.301254
 20
61.860001
 40
50.500000
 50
18.103800
 51
161.896194
  0
ARC
  8
0
  6
CONTINUOUS
 10
146.301254
 20
61.860001
 40
50.500000
 50
198.103806
 51
341.896210
  0
LINE
  8
0
  6
CONTINUOUS
 10
194.301254
 20
77.552361
 11
194.301254
 21
46.167965
  0
ARC
  8
0
  6
CONTINUOUS
 10
172.301254
 20
111.860001
 40
5.000000
 50
0.000000
 51
90.000000
  0
ARC
  8
0
  6
CONTINUOUS
 10
187.307144
 20
97.896179
 40
5.000000
 50
4.120544
 51
94.120201
  0
ARC
  8
0
  6
CONTINUOUS
 10
186.301254
 20
111.860001
 40
9.000000
 50
180.000000
 51
274.120697
  0
ARC
  8
0
  6
CONTINUOUS
 10
186.301254
 20
111.860001
 40
9.000000
 50
4.120065
 51
90.000000
  0
ARC
  8
0
  6
CONTINUOUS
 10
172.301254
 20
11.860000
 40
5.000000
 50
-90.000000
 51
0.000000
  0
ARC
  8
0
  6
CONTINUOUS
 10
187.307144
 20
25.823820
 40
5.000000
 50
265.879791
 51
355.879486
  0
ARC
  8
0
  6
CONTINUOUS
 10
186.301254
 20
11.860000
 40
9.000000
 50
270.000000
 51
355.879913
  0
ARC
  8
0
  6
CONTINUOUS
 10
186.301254
 20
11.860000
 40
9.000000
 50
85.879837
 51
180.000000
  0
LINE
  8
0
  6
CONTINUOUS
 10
192.294144
 20
98.255463
 11
194.301254
 21
77.552361
  0
LINE
  8
0
  6
CONTINUOUS
 10
192.294144
 20
25.464581
 11
194.301346
 21
46.167961
  0
ARC
  8
0
  6
CONTINUOUS
 10
120.301247
 20
111.860001
 40
5.000000
 50
90.000000
 51
180.000000
  0
ARC
  8
0
  6
CONTINUOUS
 10
106.301247
 20
111.860001
 40
9.000000
 50
-94.120667
 51
0.000000
  0
ARC
  8
0
  6
CONTINUOUS
 10
105.295349
 20
97.896179
 40
5.000000
 50
85.879799
 51
175.879501
  0
LINE
  8
0
  6
CONTINUOUS
 10
100.308350
 20
98.255463
 11
98.301247
 21
77.552361
  0
ARC
  8
0
  6
CONTINUOUS
 10
105.295349
 20
25.823820
 40
5.000000
 50
-175.879501
 51
-85.879791
  0
ARC
  8
0
  6
CONTINUOUS
 10
106.301247
 20
11.860000
 40
9.000000
 50
0.000000
 51
94.120163
  0
ARC
  8
0
  6
CONTINUOUS
 10
120.301247
 20
11.860000
 40
5.000000
 50
180.000000
 51
270.000000
  0
LINE
  8
0
  6
CONTINUOUS
 10
100.308350
 20
25.464581
 11
98.301147
 21
46.167961
  0
ARC
  8
0
  6
CONTINUOUS
 10
106.301247
 20
111.860001
 40
9.000000
 50
90.000000
 51
175.879898
  0
LINE
  8
0
  6
CONTINUOUS
 10
97.324448
 20
112.506630
 11
95.801247
 21
91.360001
  0
LINE
  8
0
  6
CONTINUOUS
 10
97.324448
 20
11.213440
 11
95.801247
 21
32.360001
  0
ARC
  8
0
  6
CONTINUOUS
 10
106.301247
 20
11.860000
 40
9.000000
 50
-175.879898
 51
-90.000000
  0
ARC
  8
0
  6
CONTINUOUS
 10
100.801247
 20
16.160030
 40
5.000000
 50
143.994797
 51
180.000000
  0
ARC
  8
0
  6
CONTINUOUS
 10
93.801247
 20
8.160000
 40
2.000000
 50
-90.000000
 51
0.000000
  0
LINE
  8
0
  6
CONTINUOUS
 10
95.801247
 20
8.160000
 11
95.801247
 21
16.160030
  0
LINE
  8
0
  6
CONTINUOUS
 10
95.801247
 20
91.360001
 11
95.801247
 21
32.359989
  0
LINE
  8
0
  6
CONTINUOUS
 10
23.301250
 20
85.569298
 11
93.801247
 21
85.569298
  0
LINE
  8
0
  6
CONTINUOUS
 10
23.301250
 20
16.750690
 11
94.301247
 21
16.750690
  0
CIRCLE
  8
0
  6
CONTINUOUS
 10
146.301254
 20
76.860001
 40
23.500000
  0
LINE
  8
0
  6
CONTINUOUS
 10
139.926254
 20
39.413231
 11
139.926254
 21
33.860001
  0
LINE
  8
0
  6
CONTINUOUS
 10
143.113754
 20
41.430317
 11
143.113754
 21
43.422504
  0
LINE
  8
0
  6
CONTINUOUS
 10
149.488754
 20
41.430317
 11
149.488754
 21
43.422504
  0
LINE
  8
0
  6
CONTINUOUS
 10
145.678650
 20
42.252094
 11
145.678650
 21
34.905899
  0
LINE
  8
0
  6
CONTINUOUS
 10
146.874054
 20
42.252094
 11
146.874054
 21
34.905899
  0
LINE
  8
0
  6
CONTINUOUS
 10
153.149353
 20
42.252094
 11
153.149353
 21
34.856098
  0
LINE
  8
0
  6
CONTINUOUS
 10
154.245056
 20
38.329979
 11
154.245056
 21
34.856098
  0
LINE
  8
0
  6
CONTINUOUS
 10
138.413757
 20
42.152485
 11
135.341843
 21
42.152485
  0
LINE
  8
0
  6
CONTINUOUS
 10
135.341843
 20
42.152485
 11
134.622055
 21
41.259991
  0
LINE
  8
0
  6
CONTINUOUS
 10
134.708649
 20
43.422504
 11
133.551254
 21
41.940510
  0
LINE
  8
0
  6
CONTINUOUS
 10
134.622055
 20
35.750931
 11
135.353348
 21
34.980610
  0
LINE
  8
0
  6
CONTINUOUS
 10
133.551254
 20
35.100861
 11
134.781052
 21
33.860001
  0
LINE
  8
0
  6
CONTINUOUS
 10
133.551254
 20
41.940510
 11
133.551254
 21
35.100861
  0
LINE
  8
0
  6
CONTINUOUS
 10
134.622055
 20
41.259991
 11
134.622055
 21
35.750931
  0
LINE
  8
0
  6
CONTINUOUS
 10
139.004852
 20
41.581043
 11
138.401657
 21
42.152485
  0
LINE
  8
0
  6
CONTINUOUS
 10
138.995255
 20
43.422504
 11
139.926254
 21
42.389362
  0
LINE
  8
0
  6
CONTINUOUS
 10
139.004852
 20
41.430317
 11
139.926254
 21
41.430317
  0
LINE
  8
0
  6
CONTINUOUS
 10
134.708649
 20
43.422504
 11
138.995255
 21
43.422504
  0
LINE
  8
0
  6
CONTINUOUS
 10
139.004852
 20
38.367329
 11
137.336456
 21
38.367329
  0
LINE
  8
0
  6
CONTINUOUS
 10
139.004852
 20
37.371239
 11
139.004852
 21
38.168110
  0
LINE
  8
0
  6
CONTINUOUS
 10
137.012650
 20
34.980610
 11
135.353348
 21
34.980610
  0
ARC
  8
0
  6
CONTINUOUS
 10
137.012650
 20
36.972801
 40
1.992187
 50
-89.999786
 51
0.000109
  0
LINE
  8
0
  6
CONTINUOUS
 10
139.004852
 20
34.622269
 11
139.004852
 21
33.860001
  0
LINE
  8
0
  6
CONTINUOUS
 10
139.926254
 20
42.389362
 11
139.926254
 21
41.430317
  0
LINE
  8
0
  6
CONTINUOUS
 10
139.004852
 20
38.367329
 11
139.004852
 21
36.972801
  0
LINE
  8
0
  6
CONTINUOUS
 10
137.336456
 20
39.413231
 11
137.336456
 21
38.367329
  0
LINE
  8
0
  6
CONTINUOUS
 10
139.004852
 20
33.860001
 11
139.926254
 21
33.860001
  0
LINE
  8
0
  6
CONTINUOUS
 10
139.004852
 20
34.622269
 11
138.096344
 21
33.860001
  0
LINE
  8
0
  6
CONTINUOUS
 10
146.874054
 20
34.905899
 11
147.272446
 21
34.905899
  0
LINE
  8
0
  6
CONTINUOUS
 10
145.205551
 20
34.905899
 11
145.205551
 21
33.860001
  0
LINE
  8
0
  6
CONTINUOUS
 10
147.272446
 20
34.905899
 11
147.272446
 21
33.860001
  0
LINE
  8
0
  6
CONTINUOUS
 10
148.823746
 20
41.430317
 11
149.488754
 21
41.430317
  0
LINE
  8
0
  6
CONTINUOUS
 10
143.113754
 20
41.430317
 11
143.821350
 21
41.430317
  0
LINE
  8
0
  6
CONTINUOUS
 10
143.113754
 20
43.422504
 11
149.488754
 21
43.422504
  0
LINE
  8
0
  6
CONTINUOUS
 10
145.205551
 20
33.860001
 11
147.272446
 21
33.860001
  0
LINE
  8
0
  6
CONTINUOUS
 10
145.205551
 20
34.905899
 11
145.678650
 21
34.905899
  0
ARC
  8
0
  6
CONTINUOUS
 10
156.498749
 20
40.870010
 40
2.552490
 50
-73.981873
 51
90.003510
  0
ARC
  8
0
  6
CONTINUOUS
 10
156.498749
 20
40.870010
 40
1.557193
 50
-82.585274
 51
62.411850
  0
LINE
  8
0
  6
CONTINUOUS
 10
152.676254
 20
43.422504
 11
156.498749
 21
43.422504
  0
LINE
  8
0
  6
CONTINUOUS
 10
152.676254
 20
43.422504
 11
152.676254
 21
42.252094
  0
LINE
  8
0
  6
CONTINUOUS
 10
154.245056
 20
42.252094
 11
154.245056
 21
39.325840
  0
LINE
  8
0
  6
CONTINUOUS
 10
157.203156
 20
38.416630
 11
158.782944
 21
34.856098
  0
LINE
  8
0
  6
CONTINUOUS
 10
156.285553
 20
38.329979
 11
157.780655
 21
34.856098
  0
LINE
  8
0
  6
CONTINUOUS
 10
152.676254
 20
34.856098
 11
153.149353
 21
34.856098
  0
LINE
  8
0
  6
CONTINUOUS
 10
154.245056
 20
34.856098
 11
154.680847
 21
34.856098
  0
LINE
  8
0
  6
CONTINUOUS
 10
154.680847
 20
33.860001
 11
152.676254
 21
33.860001
  0
LINE
  8
0
  6
CONTINUOUS
 10
157.582047
 20
34.856098
 11
157.780655
 21
34.856098
  0
LINE
  8
0
  6
CONTINUOUS
 10
158.782944
 20
34.856098
 11
159.051254
 21
34.856098
  0
LINE
  8
0
  6
CONTINUOUS
 10
157.582047
 20
33.860001
 11
159.051254
 21
33.860001
  0
LINE
  8
0
  6
CONTINUOUS
 10
159.051254
 20
34.856098
 11
159.051254
 21
33.860001
  0
LINE
  8
0
  6
CONTINUOUS
 10
157.582047
 20
34.856098
 11
157.582047
 21
33.860001
  0
LINE
  8
0
  6
CONTINUOUS
 10
154.680847
 20
34.856098
 11
154.680847
 21
33.860001
  0
LINE
  8
0
  6
CONTINUOUS
 10
152.676254
 20
34.856098
 11
152.676254
 21
33.860001
  0
LINE
  8
0
  6
CONTINUOUS
 10
144.163757
 20
42.252094
 11
143.821350
 21
41.430317
  0
LINE
  8
0
  6
CONTINUOUS
 10
148.535049
 20
42.252094
 11
148.823746
 21
41.430317
  0
LINE
  8
0
  6
CONTINUOUS
 10
146.874054
 20
42.252094
 11
148.535049
 21
42.252094
  0
LINE
  8
0
  6
CONTINUOUS
 10
145.678650
 20
42.252094
 11
144.163757
 21
42.252094
  0
LINE
  8
0
  6
CONTINUOUS
 10
152.676254
 20
42.252094
 11
153.149353
 21
42.252094
  0
LINE
  8
0
  6
CONTINUOUS
 10
154.245056
 20
42.252094
 11
157.219955
 21
42.250156
  0
LINE
  8
0
  6
CONTINUOUS
 10
139.004852
 20
41.581043
 11
139.004852
 21
41.430317
  0
LINE
  8
0
  6
CONTINUOUS
 10
134.781052
 20
33.860001
 11
138.096344
 21
33.860001
  0
LINE
  8
0
  6
CONTINUOUS
 10
154.245056
 20
39.325840
 11
156.699753
 21
39.325840
  0
LINE
  8
0
  6
CONTINUOUS
 10
154.245056
 20
38.329979
 11
156.285553
 21
38.329979
  0
LINE
  8
0
  6
CONTINUOUS
 10
137.336456
 20
39.413231
 11
139.926254
 21
39.413231
  0
LINE
  8
0
  6
CONTINUOUS
 10
132.301254
 20
115.928802
 11
132.301254
 21
110.380608
  0
LINE
  8
0
  6
CONTINUOUS
 10
160.301254
 20
115.928802
 11
160.301254
 21
110.380623
  0
LINE
  8
0
  6
CONTINUOUS
 10
132.301254
 20
13.339390
 11
132.301254
 21
8.065370
  0
LINE
  8
0
  6
CONTINUOUS
 10
160.301254
 20
13.339390
 11
160.301254
 21
8.065370
  0
LINE
  8
0
  6
CENTER
 10
346.301239
 20
-3.840000
 11
346.301239
 21
150.923279
  0
LINE
  8
0
  6
CONTINUOUS
 10
304.301239
 20
99.359993
 11
304.301239
 21
54.359993
  0
LINE
  8
0
  6
CONTINUOUS
 10
383.301239
 20
111.911880
 11
383.301239
 21
11.808080
  0
LINE
  8
0
  6
CENTER
 10
264.801239
 20
76.860001
 11
398.834351
 21
76.860001
  0
LINE
  8
0
  6
CONTINUOUS
 10
308.301239
 20
100.360001
 11
305.301239
 21
100.360001
  0
LINE
  8
0
  6
CONTINUOUS
 10
308.301239
 20
53.359997
 11
305.301239
 21
53.359997
  0
LINE
  8
0
  6
CONTINUOUS
 10
306.766663
 20
120.860001
 11
298.301239
 21
120.860001
  0
LINE
  8
0
  6
CONTINUOUS
 10
306.766663
 20
2.860010
 11
298.301239
 21
2.860000
  0
LINE
  8
0
  6
CONTINUOUS
 10
380.353546
 20
114.911438
 11
310.266357
 21
116.134529
  0
LINE
  8
0
  6
CONTINUOUS
 10
310.266357
 20
7.584920
 11
380.353638
 21
8.808550
  0
LINE
  8
0
  6
CONTINUOUS
 10
381.615753
 20
91.360001
 11
313.467041
 21
91.360001
  0
LINE
  8
0
  6
CONTINUOUS
 10
381.615753
 20
32.360001
 11
311.301239
 21
32.360001
  0
ARC
  8
0
  6
CONTINUOUS
 10
380.301239
 20
111.911880
 40
3.000000
 50
0.000000
 51
89.000359
  0
ARC
  8
0
  6
CONTINUOUS
 10
380.301239
 20
11.808080
 40
3.000000
 50
-88.999687
 51
0.000000
  0
ARC
  8
0
  6
CONTINUOUS
 10
311.301239
 20
29.360020
 40
3.000000
 50
90.000000
 51
180.000000
  0
LINE
  8
0
  6
CENTER
 10
293.238739
 20
11.860000
 11
312.988739
 21
11.860000
  0
LINE
  8
0
  6
CENTER
 10
294.988739
 20
111.860001
 11
311.988739
 21
111.860001
  0
LINE
  8
0
  6
DASHED
 10
298.301239
 20
107.610001
 11
308.301239
 21
107.610001
  0
LINE
  8
0
  6
DASHED
 10
298.301239
 20
116.110001
 11
308.301239
 21
116.110001
  0
LINE
  8
0
  6
DASHED
 10
298.301239
 20
16.110001
 11
308.301239
 21
16.110001
  0
LINE
  8
0
  6
DASHED
 10
298.301239
 20
7.610000
 11
308.301239
 21
7.610000
  0
LINE
  8
0
  6
CONTINUOUS
 10
320.301239
 20
6.160000
 11
372.301239
 21
6.160000
  0
ARC
  8
0
  6
CONTINUOUS
 10
372.301239
 20
9.160000
 40
3.000000
 50
270.000000
 51
351.561890
  0
ARC
  8
0
  6
CONTINUOUS
 10
320.301239
 20
9.160000
 40
3.000000
 50
208.811905
 51
270.000000
  0
ARC
  8
0
  6
CONTINUOUS
 10
305.301239
 20
54.359997
 40
1.000000
 50
180.000000
 51
270.000000
  0
ARC
  8
0
  6
CONTINUOUS
 10
305.301239
 20
99.359993
 40
1.000000
 50
90.000000
 51
180.000000
  0
ARC
  8
0
  6
CONTINUOUS
 10
346.301239
 20
51.160000
 40
45.000000
 50
-34.692108
 51
21.039440
  0
ARC
  8
0
  6
CONTINUOUS
 10
306.801239
 20
4.360000
 40
1.500000
 50
270.000000
 51
292.656891
  0
LINE
  8
0
  6
CONTINUOUS
 10
388.301239
 20
99.359993
 11
388.301239
 21
54.359993
  0
LINE
  8
0
  6
CONTINUOUS
 10
385.301239
 20
100.360001
 11
387.301239
 21
100.360001
  0
LINE
  8
0
  6
CONTINUOUS
 10
385.301239
 20
53.359997
 11
387.301239
 21
53.359997
  0
ARC
  8
0
  6
CONTINUOUS
 10
385.301239
 20
102.360001
 40
2.000000
 50
180.000000
 51
270.000000
  0
ARC
  8
0
  6
CONTINUOUS
 10
385.301239
 20
51.360008
 40
2.000000
 50
90.000000
 51
180.000000
  0
ARC
  8
0
  6
CONTINUOUS
 10
387.301239
 20
54.359997
 40
1.000000
 50
-90.000000
 51
0.000000
  0
ARC
  8
0
  6
CONTINUOUS
 10
387.301239
 20
99.359993
 40
1.000000
 50
0.000000
 51
90.000000
  0
LINE
  8
0
  6
CONTINUOUS
 10
298.301239
 20
104.576118
 11
305.738739
 21
103.597504
  0
LINE
  8
0
  6
CONTINUOUS
 10
305.738739
 20
103.597504
 11
310.738739
 21
100.347504
  0
LINE
  8
0
  6
CONTINUOUS
 10
313.652863
 20
90.932503
 11
315.113739
 21
89.972504
  0
LINE
  8
0
  6
CONTINUOUS
 10
315.113739
 20
89.972504
 11
314.613739
 21
83.972504
  0
LINE
  8
0
  6
CONTINUOUS
 10
314.613739
 20
83.972504
 11
312.613739
 21
80.472504
  0
LINE
  8
0
  6
CONTINUOUS
 10
312.613739
 20
80.472504
 11
314.488739
 21
74.972504
  0
LINE
  8
0
  6
CONTINUOUS
 10
314.488739
 20
74.972504
 11
313.863739
 21
69.222504
  0
LINE
  8
0
  6
CONTINUOUS
 10
313.863739
 20
69.222504
 11
313.238739
 21
62.972500
  0
LINE
  8
0
  6
CONTINUOUS
 10
313.238739
 20
62.972500
 11
314.363739
 21
58.347500
  0
LINE
  8
0
  6
CONTINUOUS
 10
314.363739
 20
58.347500
 11
313.238739
 21
54.097500
  0
LINE
  8
0
  6
CONTINUOUS
 10
313.238739
 20
54.097500
 11
309.988739
 21
49.222500
  0
LINE
  8
0
  6
CONTINUOUS
 10
309.988739
 20
49.222500
 11
305.488739
 21
47.222500
  0
LINE
  8
0
  6
CONTINUOUS
 10
305.488739
 20
47.222500
 11
301.238739
 21
44.597500
  0
LINE
  8
0
  6
CONTINUOUS
 10
301.238739
 20
44.597500
 11
298.301239
 21
44.200542
  0
LINE
  8
0
  6
CONTINUOUS
 10
310.738739
 20
100.347504
 11
311.488739
 21
95.910004
  0
LINE
  8
0
  6
CONTINUOUS
 10
311.488739
 20
95.910004
 11
313.652863
 21
90.932503
  0
LINE
  8
0
  6
CONTINUOUS
 10
308.301239
 20
118.860001
 11
308.301239
 21
48.472500
  0
LINE
  8
0
  6
CONTINUOUS
 10
308.301239
 20
29.360010
 11
308.301239
 21
4.860000
  0
LINE
  8
0
  6
CONTINUOUS
 10
298.301239
 20
120.860001
 11
298.301239
 21
85.860001
  0
LINE
  8
0
  6
CONTINUOUS
 10
298.301239
 20
2.860000
 11
298.301239
 21
67.860001
  0
LINE
  8
0
  6
CENTER
 10
288.393127
 20
51.160000
 11
400.951263
 21
51.160000
  0
LINE
  8
0
  6
CONTINUOUS
 10
308.698456
 20
119.377640
 11
308.979065
 21
118.330399
  0
ARC
  8
0
  6
CONTINUOUS
 10
306.301239
 20
118.859993
 40
2.000000
 50
0.000000
 51
90.000000
  0
ARC
  8
0
  6
CONTINUOUS
 10
306.766663
 20
118.859993
 40
2.000000
 50
15.000500
 51
90.000000
  0
ARC
  8
0
  6
CONTINUOUS
 10
310.301239
 20
118.134239
 40
2.000000
 50
180.000000
 51
269.000610
  0
ARC
  8
0
  6
CONTINUOUS
 10
311.876862
 20
119.106903
 40
3.000000
 50
195.000504
 51
269.000488
  0
LINE
  8
0
  6
CONTINUOUS
 10
308.698456
 20
4.342370
 11
308.978851
 21
5.389030
  0
ARC
  8
0
  6
CONTINUOUS
 10
306.301239
 20
4.860000
 40
2.000000
 50
-90.000000
 51
0.000000
  0
ARC
  8
0
  6
CONTINUOUS
 10
306.766663
 20
4.860010
 40
2.000000
 50
270.000000
 51
345.000000
  0
ARC
  8
0
  6
CONTINUOUS
 10
310.301239
 20
5.585230
 40
2.000000
 50
91.000412
 51
180.000000
  0
ARC
  8
0
  6
CONTINUOUS
 10
311.876648
 20
4.612590
 40
3.000000
 50
91.000458
 51
165.000198
  0
LINE
  8
0
  6
CONTINUOUS
 10
151.801254
 20
73.860023
 11
151.801254
 21
79.860023
  0
LINE
  8
0
  6
CONTINUOUS
 10
157.801254
 20
73.860039
 11
157.801254
 21
79.860039
  0
LINE
  8
0
  6
CONTINUOUS
 10
157.801254
 20
73.860039
 11
151.801254
 21
73.860023
  0
LINE
  8
0
  6
CONTINUOUS
 10
157.801254
 20
79.860039
 11
151.801254
 21
79.860023
  0
ARC
  8
0
  6
CONTINUOUS
 10
146.301254
 20
76.860001
 40
9.000000
 50
19.471210
 51
340.528809
  0
LINE
  8
0
  6
CONTINUOUS
 10
272.301239
 20
67.860001
 11
272.301239
 21
85.860001
  0
LINE
  8
0
  6
CONTINUOUS
 10
302.301239
 20
85.860001
 11
272.301239
 21
85.860001
  0
LINE
  8
0
  6
CONTINUOUS
 10
302.301239
 20
67.860001
 11
272.301239
 21
67.860001
  0
LINE
  8
0
  6
CONTINUOUS
 10
302.301239
 20
86.860001
 11
302.301239
 21
66.860001
  0
LINE
  8
0
  6
CONTINUOUS
 10
304.301239
 20
86.860001
 11
302.301239
 21
86.860001
  0
LINE
  8
0
  6
CONTINUOUS
 10
304.301239
 20
66.860001
 11
302.301239
 21
66.860001
  0
ARC
  8
0
  6
CONTINUOUS
 10
296.301239
 20
76.860001
 40
3.000000
 50
-90.000000
 51
90.000000
  0
LINE
  8
0
  6
CONTINUOUS
 10
296.301239
 20
79.860001
 11
272.301239
 21
79.860001
  0
LINE
  8
0
  6
CONTINUOUS
 10
296.301239
 20
73.860001
 11
272.301239
 21
73.860001
  0
LINE
  8
0
  6
CENTER
 10
146.301254
 20
323.863739
 11
146.301254
 21
188.401245
  0
LINE
  8
0
  6
CENTER
 10
-10.685000
 20
268.694366
 11
210.442505
 21
268.694366
  0
LINE
  8
0
  6
CONTINUOUS
 10
192.627136
 20
305.694366
 11
97.749565
 21
305.694366
  0
LINE
  8
0
  6
CONTINUOUS
 10
2.801250
 20
233.694382
 11
2.801250
 21
303.694366
  0
LINE
  8
0
  6
CONTINUOUS
 10
7.342699
 20
313.694366
 11
23.301250
 21
313.694366
  0
LINE
  8
0
  6
CONTINUOUS
 10
3.301250
 20
310.694366
 11
3.301250
 21
226.694382
  0
LINE
  8
0
  6
CONTINUOUS
 10
23.301250
 20
297.694366
 11
5.051250
 21
297.694366
  0
ARC
  8
0
  6
CONTINUOUS
 10
2.801249
 20
304.194366
 40
0.500000
 50
-90.000000
 51
0.000000
  0
LINE
  8
0
  6
CONTINUOUS
 10
3.878593
 20
311.694366
 11
3.301250
 21
310.694366
  0
ARC
  8
0
  6
CONTINUOUS
 10
7.342713
 20
309.694397
 40
4.000000
 50
90.000000
 51
150.000397
  0
LINE
  8
0
  6
CONTINUOUS
 10
7.342699
 20
223.694382
 11
23.301250
 21
223.694382
  0
ARC
  8
0
  6
CONTINUOUS
 10
2.801249
 20
233.194382
 40
0.500000
 50
0.000000
 51
90.000000
  0
LINE
  8
0
  6
CONTINUOUS
 10
3.878593
 20
225.694382
 11
3.301250
 21
226.694382
  0
ARC
  8
0
  6
CONTINUOUS
 10
7.342713
 20
227.694366
 40
4.000000
 50
-150.000397
 51
-90.000000
  0
LINE
  8
0
  6
CONTINUOUS
 10
23.301250
 20
223.694382
 11
23.301250
 21
243.694351
  0
LINE
  8
0
  6
CONTINUOUS
 10
95.591835
 20
297.697113
 11
95.750252
 21
303.746735
  0
LINE
  8
0
  6
CONTINUOUS
 10
93.643448
 20
313.694366
 11
23.301250
 21
313.694366
  0
LINE
  8
0
  6
CONTINUOUS
 10
23.301250
 20
297.694366
 11
102.643799
 21
297.694366
  0
LINE
  8
0
  6
CONTINUOUS
 10
23.301250
 20
239.694382
 11
5.051250
 21
239.694382
  0
LINE
  8
0
  6
CONTINUOUS
 10
23.301250
 20
239.694382
 11
93.918121
 21
239.694382
  0
LINE
  8
0
  6
CONTINUOUS
 10
93.774376
 20
223.694382
 11
23.301250
 21
223.694382
  0
LINE
  8
0
  6
CONTINUOUS
 10
94.544327
 20
268.694366
 11
95.801247
 21
220.694382
  0
LINE
  8
0
  6
CONTINUOUS
 10
129.301254
 20
300.694366
 11
129.301254
 21
232.694382
  0
LINE
  8
0
  6
CONTINUOUS
 10
163.301254
 20
300.694366
 11
163.301254
 21
232.694382
  0
LINE
  8
0
  6
CONTINUOUS
 10
102.643799
 20
295.694366
 11
102.643799
 21
232.229370
  0
LINE
  8
0
  6
CONTINUOUS
 10
168.801254
 20
310.694366
 11
123.801247
 21
310.694366
  0
LINE
  8
0
  6
CONTINUOUS
 10
122.801247
 20
309.694366
 11
122.801247
 21
307.694366
  0
LINE
  8
0
  6
CONTINUOUS
 10
169.801254
 20
309.694366
 11
169.801254
 21
307.694366
  0
ARC
  8
0
  6
CONTINUOUS
 10
120.801247
 20
307.694366
 40
2.000000
 50
-90.000000
 51
0.000000
  0
ARC
  8
0
  6
CONTINUOUS
 10
171.801239
 20
307.694366
 40
2.000000
 50
180.000000
 51
270.000000
  0
ARC
  8
0
  6
CONTINUOUS
 10
123.801262
 20
309.694366
 40
1.000000
 50
90.000000
 51
180.000000
  0
ARC
  8
0
  6
CONTINUOUS
 10
168.801254
 20
309.694366
 40
1.000000
 50
0.000000
 51
90.000000
  0
LINE
  8
0
  6
CONTINUOUS
 10
157.801254
 20
194.694382
 11
137.301254
 21
194.694382
  0
LINE
  8
0
  6
CONTINUOUS
 10
137.301254
 20
220.694382
 11
137.301254
 21
194.694382
  0
LINE
  8
0
  6
CONTINUOUS
 10
157.801254
 20
194.694382
 11
157.801254
 21
220.694382
  0
LINE
  8
0
  6
CONTINUOUS
 10
154.786255
 20
194.694382
 11
154.786255
 21
220.694382
  0
LINE
  8
0
  6
CONTINUOUS
 10
23.301250
 20
293.694366
 11
23.301250
 21
313.694366
  0
LINE
  8
0
  6
CONTINUOUS
 10
95.801247
 20
220.694382
 11
196.801254
 21
220.694382
  0
LINE
  8
0
  6
CONTINUOUS
 10
194.626450
 20
303.746735
 11
196.801254
 21
220.694382
  0
LINE
  8
0
  6
CONTINUOUS
 10
97.592445
 20
230.694382
 11
194.591080
 21
230.694382
  0
ARC
  8
0
  6
CONTINUOUS
 10
194.591080
 20
228.694382
 40
2.000000
 50
1.500000
 51
90.000000
  0
ARC
  8
0
  6
CONTINUOUS
 10
192.627136
 20
303.694366
 40
2.000000
 50
1.500000
 51
90.000000
  0
ARC
  8
0
  6
CONTINUOUS
 10
165.301254
 20
232.694382
 40
2.000000
 50
180.000000
 51
270.000000
  0
ARC
  8
0
  6
CONTINUOUS
 10
127.301247
 20
232.694382
 40
2.000000
 50
-90.000000
 51
0.000000
  0
LINE
  8
0
  6
CONTINUOUS
 10
129.159317
 20
231.954376
 11
163.443192
 21
231.954376
  0
ARC
  8
0
  6
CONTINUOUS
 10
97.592445
 20
228.694382
 40
2.000000
 50
90.000000
 51
181.500000
  0
ARC
  8
0
  6
CONTINUOUS
 10
93.774376
 20
221.694382
 40
2.000000
 50
1.500000
 51
90.000000
  0
LINE
  8
0
  6
CONTINUOUS
 10
95.642761
 20
311.746735
 11
95.750252
 21
307.642029
  0
ARC
  8
0
  6
CONTINUOUS
 10
93.643448
 20
311.694366
 40
2.000000
 50
1.500000
 51
90.000000
  0
ARC
  8
0
  6
CONTINUOUS
 10
97.749565
 20
307.694366
 40
2.000000
 50
181.500000
 51
270.000000
  0
ARC
  8
0
  6
CONTINUOUS
 10
97.749565
 20
303.694366
 40
2.000000
 50
90.000000
 51
178.500000
  0
LINE
  8
0
  6
CENTER
 10
186.301254
 20
213.005783
 11
186.301254
 21
236.868439
  0
LINE
  8
0
  6
DASHED
 10
190.551254
 20
230.694382
 11
190.551254
 21
220.694382
  0
LINE
  8
0
  6
DASHED
 10
182.051254
 20
230.694382
 11
182.051254
 21
220.694382
  0
LINE
  8
0
  6
CENTER
 10
106.301247
 20
213.005783
 11
106.301247
 21
236.868439
  0
LINE
  8
0
  6
DASHED
 10
102.051247
 20
230.694382
 11
102.051247
 21
220.694382
  0
LINE
  8
0
  6
DASHED
 10
110.551247
 20
230.694382
 11
110.551247
 21
220.694382
  0
LINE
  8
0
  6
CONTINUOUS
 10
14.301250
 20
245.694351
 11
14.301250
 21
291.694366
  0
LINE
  8
0
  6
CONTINUOUS
 10
16.301250
 20
293.694366
 11
14.301250
 21
291.694366
  0
LINE
  8
0
  6
CONTINUOUS
 10
16.301250
 20
293.694366
 11
62.301239
 21
293.694366
  0
LINE
  8
0
  6
CONTINUOUS
 10
56.801250
 20
289.194366
 11
56.801250
 21
293.694366
  0
ARC
  8
0
  6
CONTINUOUS
 10
59.801250
 20
289.194366
 40
3.000000
 50
180.000000
 51
270.000000
  0
LINE
  8
0
  6
CONTINUOUS
 10
59.801250
 20
286.194366
 11
64.301239
 21
286.194366
  0
CIRCLE
  8
0
  6
CONTINUOUS
 10
60.801250
 20
290.194366
 40
2.250000
  0
LINE
  8
0
  6
CONTINUOUS
 10
64.301247
 20
245.694351
 11
64.301239
 21
291.694366
  0
LINE
  8
0
  6
CONTINUOUS
 10
62.301239
 20
293.694366
 11
64.301239
 21
291.694366
  0
LINE
  8
0
  6
CONTINUOUS
 10
62.301243
 20
243.694351
 11
64.301247
 21
245.694351
  0
LINE
  8
0
  6
CONTINUOUS
 10
62.301243
 20
243.694351
 11
16.301250
 21
243.694351
  0
LINE
  8
0
  6
CONTINUOUS
 10
14.301250
 20
245.694351
 11
16.301250
 21
243.694351
  0
LINE
  8
0
  6
CONTINUOUS
 10
18.801250
 20
251.194351
 11
14.301260
 21
251.194351
  0
CIRCLE
  8
0
  6
CONTINUOUS
 10
17.801250
 20
247.194351
 40
2.250000
  0
ARC
  8
0
  6
CONTINUOUS
 10
18.801250
 20
248.194351
 40
3.000000
 50
0.000000
 51
90.000000
  0
LINE
  8
0
  6
CONTINUOUS
 10
21.801250
 20
248.194351
 11
21.801250
 21
243.694351
  0
LINE
  8
0
  6
CENTER
 10
39.301250
 20
236.228577
 11
39.301250
 21
300.360596
  0
LINE
  8
0
  6
CONTINUOUS
 10
15.301256
 20
251.194382
 11
15.301256
 21
286.194366
  0
LINE
  8
0
  6
CONTINUOUS
 10
56.801250
 20
292.694366
 11
21.801270
 21
292.694366
  0
LINE
  8
0
  6
CONTINUOUS
 10
63.301243
 20
286.194366
 11
63.301243
 21
251.194382
  0
LINE
  8
0
  6
CONTINUOUS
 10
21.801250
 20
244.694382
 11
56.801231
 21
244.694382
  0
LINE
  8
0
  6
CONTINUOUS
 10
18.801270
 20
286.194366
 11
14.301270
 21
286.194366
  0
ARC
  8
0
  6
CONTINUOUS
 10
18.801270
 20
289.194366
 40
3.000000
 50
-90.000000
 51
0.000000
  0
LINE
  8
0
  6
CONTINUOUS
 10
21.801270
 20
289.194366
 11
21.801270
 21
293.694366
  0
CIRCLE
  8
0
  6
CONTINUOUS
 10
17.801270
 20
290.194366
 40
2.250000
  0
LINE
  8
0
  6
CONTINUOUS
 10
59.801231
 20
251.194382
 11
64.301231
 21
251.194382
  0
ARC
  8
0
  6
CONTINUOUS
 10
59.801231
 20
248.194382
 40
3.000000
 50
90.000000
 51
180.000000
  0
LINE
  8
0
  6
CONTINUOUS
 10
56.801231
 20
248.194382
 11
56.801231
 21
243.694382
  0
CIRCLE
  8
0
  6
CONTINUOUS
 10
60.801231
 20
247.194382
 40
2.250000
  0
LINE
  8
0
  6
CONTINUOUS
 10
15.801250
 20
97.660004
 11
62.301250
 21
97.660004
  0
LINE
  8
0
  6
CONTINUOUS
 10
64.301231
 20
141.660004
 11
64.301247
 21
99.660004
  0
LINE
  8
0
  6
CONTINUOUS
 10
14.301250
 20
141.660004
 11
14.301250
 21
99.660004
  0
LINE
  8
0
  6
CONTINUOUS
 10
14.301250
 20
109.660004
 11
64.301247
 21
109.660004
  0
LINE
  8
0
  6
CONTINUOUS
 10
62.301250
 20
97.660004
 11
64.301247
 21
99.660004
  0
LINE
  8
0
  6
CONTINUOUS
 10
14.301250
 20
99.660004
 11
16.301250
 21
97.660004
  0
LINE
  8
0
  6
CONTINUOUS
 10
14.301250
 20
99.660004
 11
64.301247
 21
99.660004
  0
LINE
  8
0
  6
CONTINUOUS
 10
14.301250
 20
110.660004
 11
64.301239
 21
110.660004
  0
LINE
  8
0
  6
CONTINUOUS
 10
15.301250
 20
142.660004
 11
63.301231
 21
142.660004
  0
LINE
  8
0
  6
CONTINUOUS
 10
63.301231
 20
142.660004
 11
64.301231
 21
141.660004
  0
LINE
  8
0
  6
CONTINUOUS
 10
15.301250
 20
142.660004
 11
14.301250
 21
141.660004
  0
LINE
  8
0
  6
CONTINUOUS
 10
14.301250
 20
141.660004
 11
64.301231
 21
141.660004
  0
LINE
  8
0
  6
CENTER
 10
39.301250
 20
91.270493
 11
39.301250
 21
147.970490
  0
LINE
  8
0
  6
CENTER
 10
11.926250
 20
125.660004
 11
16.551250
 21
125.660004
  0
LINE
  8
0
  6
CONTINUOUS
 10
15.801250
 20
97.660004
 11
15.801250
 21
96.160004
  0
LINE
  8
0
  6
CONTINUOUS
 10
61.801250
 20
97.660004
 11
61.801250
 21
96.160004
  0
LINE
  8
0
  6
CONTINUOUS
 10
13.426250
 20
136.160004
 11
15.426250
 21
136.160004
  0
LINE
  8
0
  6
CONTINUOUS
 10
13.426250
 20
115.160004
 11
15.426250
 21
115.160004
  0
LINE
  8
0
  6
CONTINUOUS
 10
371.301239
 20
141.660004
 11
371.301239
 21
115.069412
  0
LINE
  8
0
  6
CONTINUOUS
 10
321.301239
 20
141.660004
 11
321.301239
 21
115.941963
  0
LINE
  8
0
  6
CONTINUOUS
 10
322.301239
 20
142.660004
 11
370.301239
 21
142.660004
  0
LINE
  8
0
  6
CONTINUOUS
 10
370.301239
 20
142.660004
 11
371.301239
 21
141.660004
  0
LINE
  8
0
  6
CONTINUOUS
 10
322.301239
 20
142.660004
 11
321.301239
 21
141.660004
  0
LINE
  8
0
  6
CONTINUOUS
 10
321.301239
 20
141.660004
 11
371.301239
 21
141.660004
  0
TEXT
  8
0
 10
-10.000000
 20
-6.000000
 40
4.000000
 41
1.000000
  1
HFM-18R-160~240-S40WK
 50
0.000000
  0
ENDSEC
  0
EOF
