  0
SECTION
  2
HEADER
  9
$CLAYER
  8
1
  9
$LTSCALE
 40
3.0
  0
ENDSEC
  0
SECTION
  2
TABLES
  0
TABLE
  2
LTYPE
 70
     4
  0
LTYPE
  2
CONTINUOUS
  3
solid line
 70
    64
 72
    65
 73
     0
 40
0.0
  0
LTYPE
  2
DASHED
  3
__ __ __ __ __ __ __ __ __ __ __ __ __ __ __
 70
    64
 72
    65
 73
     2
 40
0.75
 49
0.5
 49
-0.25
  0
LTYPE
  2
CENTER
  3
____ _ ____ _ ____ _ ____ _ ____ _ ____ _ ____
 70
    64
 72
    65
 73
     4
 40
2.0
 49
1.25
 49
-0.25
 49
0.25
 49
-0.25
  0
LTYPE
  2
PHANTOM
  3
_____ _ _ _____ _ _ _____ _ _ _____ _ _ ____
 70
    64
 72
    65
 73
     6
 40
2.5
 49
1.25
 49
-0.25
 49
0.25
 49
-0.25
 49
0.25
 49
-0.25
  0
ENDTAB
  0
TABLE
  2
LAYER
 70
     1
  0
LAYER
  2
0
 70
    64
 62
     7
  6
CONTINUOUS
  0
ENDTAB
  0
TABLE
  2
STYLE
 70
     1
  0
STYLE
  2
STANDARD
 70
     0
 40
0.000000
 41
1.000000
 50
0.000000
 71
     0
 42
3.000000
  3
txt
  4
BIGFONT
  0
ENDTAB
  0
ENDSEC
  0
SECTION
  2
BLOCKS
  0
ENDSEC
  0
SECTION
  2
ENTITIES
  0
LINE
  8
0
  6
CONTINUOUS
 10
2.556250
 20
19.600000
 11
2.556250
 21
89.599998
  0
LINE
  8
0
  6
CONTINUOUS
 10
7.097700
 20
99.599998
 11
23.056250
 21
99.599998
  0
LINE
  8
0
  6
CONTINUOUS
 10
3.056250
 20
96.599998
 11
3.056250
 21
12.600000
  0
LINE
  8
0
  6
CONTINUOUS
 10
23.056250
 20
89.009300
 11
4.806250
 21
89.009300
  0
ARC
  8
0
  6
CONTINUOUS
 10
2.556249
 20
90.099998
 40
0.500000
 50
-90.000000
 51
0.000000
  0
LINE
  8
0
  6
CONTINUOUS
 10
3.633593
 20
97.599991
 11
3.056250
 21
96.599998
  0
ARC
  8
0
  6
CONTINUOUS
 10
7.097710
 20
95.600014
 40
4.000000
 50
90.000000
 51
150.000397
  0
LINE
  8
0
  6
CONTINUOUS
 10
7.097700
 20
9.600000
 11
23.056250
 21
9.600000
  0
LINE
  8
0
  6
CONTINUOUS
 10
23.056250
 20
20.190701
 11
4.806250
 21
20.190701
  0
ARC
  8
0
  6
CONTINUOUS
 10
2.556249
 20
19.100000
 40
0.500000
 50
0.000000
 51
90.000000
  0
LINE
  8
0
  6
CONTINUOUS
 10
3.633593
 20
11.600010
 11
3.056250
 21
12.600000
  0
ARC
  8
0
  6
CONTINUOUS
 10
7.097710
 20
13.599990
 40
4.000000
 50
-150.000397
 51
-90.000000
  0
LINE
  8
0
  6
CONTINUOUS
 10
23.056250
 20
9.600000
 11
23.056250
 21
99.599998
  0
LINE
  8
0
  6
CENTER
 10
-9.187500
 20
54.599998
 11
117.942947
 21
54.599998
  0
LINE
  8
0
  6
CONTINUOUS
 10
196.556244
 20
35.799999
 11
196.556244
 21
94.800003
  0
LINE
  8
0
  6
CONTINUOUS
 10
23.056250
 20
99.599998
 11
95.902008
 21
99.599998
  0
LINE
  8
0
  6
CONTINUOUS
 10
93.556252
 20
9.600000
 11
23.056250
 21
9.600000
  0
LINE
  8
0
  6
CENTER
 10
108.056252
 20
80.300003
 11
180.928131
 21
80.300003
  0
LINE
  8
0
  6
CENTER
 10
146.056244
 20
132.850006
 11
146.056244
 21
-3.140300
  0
LINE
  8
0
  6
CONTINUOUS
 10
106.056252
 20
124.300003
 11
186.056244
 21
124.300003
  0
LINE
  8
0
  6
CONTINUOUS
 10
106.056252
 20
6.300000
 11
186.056244
 21
6.300000
  0
LINE
  8
0
  6
CENTER
 10
179.056244
 20
115.300003
 11
192.931244
 21
115.300003
  0
LINE
  8
0
  6
CENTER
 10
186.056244
 20
108.599998
 11
186.056244
 21
122.099998
  0
CIRCLE
  8
0
  6
CONTINUOUS
 10
186.056244
 20
115.300003
 40
4.250000
  0
LINE
  8
0
  6
CENTER
 10
179.056244
 20
15.300000
 11
192.931244
 21
15.300000
  0
LINE
  8
0
  6
CENTER
 10
186.056244
 20
22.000000
 11
186.056244
 21
8.500000
  0
CIRCLE
  8
0
  6
CONTINUOUS
 10
186.056244
 20
15.300000
 40
4.250000
  0
LINE
  8
0
  6
CENTER
 10
113.056252
 20
115.300003
 11
99.181252
 21
115.300003
  0
LINE
  8
0
  6
CENTER
 10
106.056252
 20
108.599998
 11
106.056252
 21
122.099998
  0
CIRCLE
  8
0
  6
CONTINUOUS
 10
106.056252
 20
115.300003
 40
4.250000
  0
LINE
  8
0
  6
CENTER
 10
113.056252
 20
15.300000
 11
99.181252
 21
15.300000
  0
LINE
  8
0
  6
CENTER
 10
106.056252
 20
22.000000
 11
106.056252
 21
8.500000
  0
CIRCLE
  8
0
  6
CONTINUOUS
 10
106.056252
 20
15.300000
 40
4.250000
  0
LINE
  8
0
  6
CONTINUOUS
 10
195.032944
 20
115.946632
 11
196.556244
 21
94.800003
  0
LINE
  8
0
  6
CONTINUOUS
 10
195.032944
 20
14.653440
 11
196.556244
 21
35.799999
  0
LINE
  8
0
  6
CONTINUOUS
 10
120.056252
 20
120.300003
 11
172.056244
 21
120.300003
  0
LINE
  8
0
  6
CONTINUOUS
 10
172.056244
 20
10.300000
 11
120.056252
 21
10.300000
  0
LINE
  8
0
  6
CONTINUOUS
 10
98.056252
 20
80.992188
 11
98.056252
 21
49.607479
  0
ARC
  8
0
  6
CONTINUOUS
 10
146.056244
 20
65.300003
 40
50.500000
 50
18.103800
 51
161.896194
  0
ARC
  8
0
  6
CONTINUOUS
 10
146.056244
 20
65.300003
 40
50.500000
 50
198.103806
 51
341.896210
  0
LINE
  8
0
  6
CONTINUOUS
 10
194.056244
 20
80.992363
 11
194.056244
 21
49.607964
  0
ARC
  8
0
  6
CONTINUOUS
 10
172.056244
 20
115.300003
 40
5.000000
 50
0.000000
 51
90.000000
  0
ARC
  8
0
  6
CONTINUOUS
 10
187.062149
 20
101.336182
 40
5.000000
 50
4.120544
 51
94.120201
  0
ARC
  8
0
  6
CONTINUOUS
 10
186.056244
 20
115.300003
 40
9.000000
 50
180.000000
 51
274.120697
  0
ARC
  8
0
  6
CONTINUOUS
 10
186.056244
 20
115.300003
 40
9.000000
 50
4.120065
 51
90.000000
  0
ARC
  8
0
  6
CONTINUOUS
 10
172.056244
 20
15.300000
 40
5.000000
 50
-90.000000
 51
0.000000
  0
ARC
  8
0
  6
CONTINUOUS
 10
187.062149
 20
29.263821
 40
5.000000
 50
265.879791
 51
355.879486
  0
ARC
  8
0
  6
CONTINUOUS
 10
186.056244
 20
15.300000
 40
9.000000
 50
270.000000
 51
355.879913
  0
ARC
  8
0
  6
CONTINUOUS
 10
186.056244
 20
15.300000
 40
9.000000
 50
85.879837
 51
180.000000
  0
LINE
  8
0
  6
CONTINUOUS
 10
192.049149
 20
101.695457
 11
194.056244
 21
80.992363
  0
LINE
  8
0
  6
CONTINUOUS
 10
192.049149
 20
28.904579
 11
194.056351
 21
49.607964
  0
ARC
  8
0
  6
CONTINUOUS
 10
120.056252
 20
115.300003
 40
5.000000
 50
90.000000
 51
180.000000
  0
ARC
  8
0
  6
CONTINUOUS
 10
106.056252
 20
115.300003
 40
9.000000
 50
-94.120667
 51
0.000000
  0
ARC
  8
0
  6
CONTINUOUS
 10
105.050346
 20
101.336182
 40
5.000000
 50
85.879799
 51
175.879501
  0
LINE
  8
0
  6
CONTINUOUS
 10
100.063347
 20
101.695457
 11
98.056252
 21
80.992363
  0
ARC
  8
0
  6
CONTINUOUS
 10
105.050346
 20
29.263821
 40
5.000000
 50
-175.879501
 51
-85.879791
  0
ARC
  8
0
  6
CONTINUOUS
 10
106.056252
 20
15.300000
 40
9.000000
 50
0.000000
 51
94.120163
  0
ARC
  8
0
  6
CONTINUOUS
 10
120.056252
 20
15.300000
 40
5.000000
 50
180.000000
 51
270.000000
  0
LINE
  8
0
  6
CONTINUOUS
 10
100.063347
 20
28.904579
 11
98.056152
 21
49.607964
  0
ARC
  8
0
  6
CONTINUOUS
 10
106.056252
 20
115.300003
 40
9.000000
 50
90.000000
 51
175.879898
  0
LINE
  8
0
  6
CONTINUOUS
 10
97.079453
 20
115.946632
 11
95.556252
 21
94.800003
  0
LINE
  8
0
  6
CONTINUOUS
 10
97.079453
 20
14.653440
 11
95.556252
 21
35.799999
  0
ARC
  8
0
  6
CONTINUOUS
 10
106.056252
 20
15.300000
 40
9.000000
 50
-175.879898
 51
-90.000000
  0
ARC
  8
0
  6
CONTINUOUS
 10
100.556252
 20
19.600031
 40
5.000000
 50
143.994797
 51
180.000000
  0
ARC
  8
0
  6
CONTINUOUS
 10
93.556252
 20
11.600000
 40
2.000000
 50
-90.000000
 51
0.000000
  0
LINE
  8
0
  6
CONTINUOUS
 10
95.556252
 20
11.600000
 11
95.556252
 21
19.600031
  0
LINE
  8
0
  6
CONTINUOUS
 10
95.556252
 20
94.800003
 11
95.556252
 21
35.799992
  0
LINE
  8
0
  6
CONTINUOUS
 10
23.056250
 20
89.009300
 11
93.556252
 21
89.009300
  0
LINE
  8
0
  6
CONTINUOUS
 10
23.056250
 20
20.190689
 11
94.056252
 21
20.190689
  0
CIRCLE
  8
0
  6
CONTINUOUS
 10
146.056244
 20
80.300003
 40
23.500000
  0
LINE
  8
0
  6
CONTINUOUS
 10
139.681244
 20
42.853230
 11
139.681244
 21
37.299999
  0
LINE
  8
0
  6
CONTINUOUS
 10
142.868744
 20
44.870316
 11
142.868744
 21
46.862507
  0
LINE
  8
0
  6
CONTINUOUS
 10
149.243744
 20
44.870316
 11
149.243744
 21
46.862507
  0
LINE
  8
0
  6
CONTINUOUS
 10
145.433655
 20
45.692093
 11
145.433655
 21
38.345901
  0
LINE
  8
0
  6
CONTINUOUS
 10
146.629044
 20
45.692093
 11
146.629044
 21
38.345901
  0
LINE
  8
0
  6
CONTINUOUS
 10
152.904343
 20
45.692093
 11
152.904343
 21
38.296101
  0
LINE
  8
0
  6
CONTINUOUS
 10
154.000046
 20
41.769981
 11
154.000046
 21
38.296101
  0
LINE
  8
0
  6
CONTINUOUS
 10
138.168747
 20
45.592484
 11
135.096848
 21
45.592484
  0
LINE
  8
0
  6
CONTINUOUS
 10
135.096848
 20
45.592484
 11
134.377045
 21
44.699989
  0
LINE
  8
0
  6
CONTINUOUS
 10
134.463654
 20
46.862507
 11
133.306244
 21
45.380508
  0
LINE
  8
0
  6
CONTINUOUS
 10
134.377045
 20
39.190929
 11
135.108353
 21
38.420609
  0
LINE
  8
0
  6
CONTINUOUS
 10
133.306244
 20
38.540859
 11
134.536057
 21
37.299999
  0
LINE
  8
0
  6
CONTINUOUS
 10
133.306244
 20
45.380508
 11
133.306244
 21
38.540859
  0
LINE
  8
0
  6
CONTINUOUS
 10
134.377045
 20
44.699989
 11
134.377045
 21
39.190929
  0
LINE
  8
0
  6
CONTINUOUS
 10
138.759857
 20
45.021042
 11
138.156647
 21
45.592484
  0
LINE
  8
0
  6
CONTINUOUS
 10
138.750244
 20
46.862507
 11
139.681244
 21
45.829361
  0
LINE
  8
0
  6
CONTINUOUS
 10
138.759857
 20
44.870316
 11
139.681244
 21
44.870316
  0
LINE
  8
0
  6
CONTINUOUS
 10
134.463654
 20
46.862507
 11
138.750244
 21
46.862507
  0
LINE
  8
0
  6
CONTINUOUS
 10
138.759857
 20
41.807331
 11
137.091446
 21
41.807331
  0
LINE
  8
0
  6
CONTINUOUS
 10
138.759857
 20
40.811241
 11
138.759857
 21
41.608109
  0
LINE
  8
0
  6
CONTINUOUS
 10
136.767654
 20
38.420609
 11
135.108353
 21
38.420609
  0
ARC
  8
0
  6
CONTINUOUS
 10
136.767654
 20
40.412800
 40
1.992187
 50
-89.999786
 51
0.000109
  0
LINE
  8
0
  6
CONTINUOUS
 10
138.759857
 20
38.062271
 11
138.759857
 21
37.299999
  0
LINE
  8
0
  6
CONTINUOUS
 10
139.681244
 20
45.829361
 11
139.681244
 21
44.870316
  0
LINE
  8
0
  6
CONTINUOUS
 10
138.759857
 20
41.807331
 11
138.759857
 21
40.412800
  0
LINE
  8
0
  6
CONTINUOUS
 10
137.091446
 20
42.853230
 11
137.091446
 21
41.807331
  0
LINE
  8
0
  6
CONTINUOUS
 10
138.759857
 20
37.299999
 11
139.681244
 21
37.299999
  0
LINE
  8
0
  6
CONTINUOUS
 10
138.759857
 20
38.062271
 11
137.851349
 21
37.299999
  0
LINE
  8
0
  6
CONTINUOUS
 10
146.629044
 20
38.345901
 11
147.027451
 21
38.345901
  0
LINE
  8
0
  6
CONTINUOUS
 10
144.960556
 20
38.345901
 11
144.960556
 21
37.299999
  0
LINE
  8
0
  6
CONTINUOUS
 10
147.027451
 20
38.345901
 11
147.027451
 21
37.299999
  0
LINE
  8
0
  6
CONTINUOUS
 10
148.578751
 20
44.870316
 11
149.243744
 21
44.870316
  0
LINE
  8
0
  6
CONTINUOUS
 10
142.868744
 20
44.870316
 11
143.576355
 21
44.870316
  0
LINE
  8
0
  6
CONTINUOUS
 10
142.868744
 20
46.862507
 11
149.243744
 21
46.862507
  0
LINE
  8
0
  6
CONTINUOUS
 10
144.960556
 20
37.299999
 11
147.027451
 21
37.299999
  0
LINE
  8
0
  6
CONTINUOUS
 10
144.960556
 20
38.345901
 11
145.433655
 21
38.345901
  0
ARC
  8
0
  6
CONTINUOUS
 10
156.253754
 20
44.310009
 40
2.552490
 50
-73.981873
 51
90.003510
  0
ARC
  8
0
  6
CONTINUOUS
 10
156.253754
 20
44.310009
 40
1.557193
 50
-82.585274
 51
62.411850
  0
LINE
  8
0
  6
CONTINUOUS
 10
152.431244
 20
46.862507
 11
156.253754
 21
46.862507
  0
LINE
  8
0
  6
CONTINUOUS
 10
152.431244
 20
46.862507
 11
152.431244
 21
45.692093
  0
LINE
  8
0
  6
CONTINUOUS
 10
154.000046
 20
45.692093
 11
154.000046
 21
42.765839
  0
LINE
  8
0
  6
CONTINUOUS
 10
156.958145
 20
41.856628
 11
158.537949
 21
38.296101
  0
LINE
  8
0
  6
CONTINUOUS
 10
156.040543
 20
41.769981
 11
157.535645
 21
38.296101
  0
LINE
  8
0
  6
CONTINUOUS
 10
152.431244
 20
38.296101
 11
152.904343
 21
38.296101
  0
LINE
  8
0
  6
CONTINUOUS
 10
154.000046
 20
38.296101
 11
154.435852
 21
38.296101
  0
LINE
  8
0
  6
CONTINUOUS
 10
154.435852
 20
37.299999
 11
152.431244
 21
37.299999
  0
LINE
  8
0
  6
CONTINUOUS
 10
157.337051
 20
38.296101
 11
157.535645
 21
38.296101
  0
LINE
  8
0
  6
CONTINUOUS
 10
158.537949
 20
38.296101
 11
158.806244
 21
38.296101
  0
LINE
  8
0
  6
CONTINUOUS
 10
157.337051
 20
37.299999
 11
158.806244
 21
37.299999
  0
LINE
  8
0
  6
CONTINUOUS
 10
158.806244
 20
38.296101
 11
158.806244
 21
37.299999
  0
LINE
  8
0
  6
CONTINUOUS
 10
157.337051
 20
38.296101
 11
157.337051
 21
37.299999
  0
LINE
  8
0
  6
CONTINUOUS
 10
154.435852
 20
38.296101
 11
154.435852
 21
37.299999
  0
LINE
  8
0
  6
CONTINUOUS
 10
152.431244
 20
38.296101
 11
152.431244
 21
37.299999
  0
LINE
  8
0
  6
CONTINUOUS
 10
143.918747
 20
45.692093
 11
143.576355
 21
44.870316
  0
LINE
  8
0
  6
CONTINUOUS
 10
148.290054
 20
45.692093
 11
148.578751
 21
44.870316
  0
LINE
  8
0
  6
CONTINUOUS
 10
146.629044
 20
45.692093
 11
148.290054
 21
45.692093
  0
LINE
  8
0
  6
CONTINUOUS
 10
145.433655
 20
45.692093
 11
143.918747
 21
45.692093
  0
LINE
  8
0
  6
CONTINUOUS
 10
152.431244
 20
45.692093
 11
152.904343
 21
45.692093
  0
LINE
  8
0
  6
CONTINUOUS
 10
154.000046
 20
45.692093
 11
156.974945
 21
45.690159
  0
LINE
  8
0
  6
CONTINUOUS
 10
138.759857
 20
45.021042
 11
138.759857
 21
44.870316
  0
LINE
  8
0
  6
CONTINUOUS
 10
134.536057
 20
37.299999
 11
137.851349
 21
37.299999
  0
LINE
  8
0
  6
CONTINUOUS
 10
154.000046
 20
42.765839
 11
156.454742
 21
42.765839
  0
LINE
  8
0
  6
CONTINUOUS
 10
154.000046
 20
41.769981
 11
156.040543
 21
41.769981
  0
LINE
  8
0
  6
CONTINUOUS
 10
137.091446
 20
42.853230
 11
139.681244
 21
42.853230
  0
LINE
  8
0
  6
CONTINUOUS
 10
132.056244
 20
119.368797
 11
132.056244
 21
113.820610
  0
LINE
  8
0
  6
CONTINUOUS
 10
160.056244
 20
119.368797
 11
160.056244
 21
113.820618
  0
LINE
  8
0
  6
CONTINUOUS
 10
132.056244
 20
16.779390
 11
132.056244
 21
11.505370
  0
LINE
  8
0
  6
CONTINUOUS
 10
160.056244
 20
16.779390
 11
160.056244
 21
11.505370
  0
LINE
  8
0
  6
CENTER
 10
346.056244
 20
-0.400000
 11
346.056244
 21
143.593750
  0
LINE
  8
0
  6
CONTINUOUS
 10
304.056244
 20
102.799988
 11
304.056244
 21
57.799992
  0
LINE
  8
0
  6
CONTINUOUS
 10
383.056244
 20
115.351883
 11
383.056244
 21
15.248080
  0
LINE
  8
0
  6
CENTER
 10
264.556244
 20
80.300003
 11
398.589355
 21
80.300003
  0
LINE
  8
0
  6
CONTINUOUS
 10
308.056244
 20
103.800003
 11
305.056244
 21
103.800003
  0
LINE
  8
0
  6
CONTINUOUS
 10
308.056244
 20
56.799995
 11
305.056244
 21
56.799995
  0
LINE
  8
0
  6
CONTINUOUS
 10
306.521637
 20
124.300003
 11
298.056244
 21
124.300003
  0
LINE
  8
0
  6
CONTINUOUS
 10
306.521637
 20
6.300010
 11
298.056244
 21
6.300000
  0
LINE
  8
0
  6
CONTINUOUS
 10
380.108551
 20
118.351440
 11
310.021362
 21
119.574532
  0
LINE
  8
0
  6
CONTINUOUS
 10
310.021362
 20
11.024920
 11
380.108643
 21
12.248550
  0
LINE
  8
0
  6
CONTINUOUS
 10
381.370758
 20
94.800003
 11
313.222046
 21
94.800003
  0
LINE
  8
0
  6
CONTINUOUS
 10
381.370758
 20
35.799999
 11
311.056244
 21
35.799999
  0
ARC
  8
0
  6
CONTINUOUS
 10
380.056244
 20
115.351883
 40
3.000000
 50
0.000000
 51
89.000359
  0
ARC
  8
0
  6
CONTINUOUS
 10
380.056244
 20
15.248080
 40
3.000000
 50
-88.999687
 51
0.000000
  0
ARC
  8
0
  6
CONTINUOUS
 10
311.056244
 20
32.800018
 40
3.000000
 50
90.000000
 51
180.000000
  0
LINE
  8
0
  6
CENTER
 10
292.993744
 20
15.300000
 11
312.743744
 21
15.300000
  0
LINE
  8
0
  6
CENTER
 10
294.743744
 20
115.300003
 11
311.743744
 21
115.300003
  0
LINE
  8
0
  6
DASHED
 10
298.056244
 20
111.050003
 11
308.056244
 21
111.050003
  0
LINE
  8
0
  6
DASHED
 10
298.056244
 20
119.550003
 11
308.056244
 21
119.550003
  0
LINE
  8
0
  6
DASHED
 10
298.056244
 20
19.549999
 11
308.056244
 21
19.549999
  0
LINE
  8
0
  6
DASHED
 10
298.056244
 20
11.050000
 11
308.056244
 21
11.050000
  0
LINE
  8
0
  6
CONTINUOUS
 10
320.056244
 20
9.600000
 11
372.056244
 21
9.600000
  0
ARC
  8
0
  6
CONTINUOUS
 10
372.056244
 20
12.600000
 40
3.000000
 50
270.000000
 51
351.561890
  0
ARC
  8
0
  6
CONTINUOUS
 10
320.056244
 20
12.600000
 40
3.000000
 50
208.811905
 51
270.000000
  0
ARC
  8
0
  6
CONTINUOUS
 10
305.056244
 20
57.799995
 40
1.000000
 50
180.000000
 51
270.000000
  0
ARC
  8
0
  6
CONTINUOUS
 10
305.056244
 20
102.799988
 40
1.000000
 50
90.000000
 51
180.000000
  0
ARC
  8
0
  6
CONTINUOUS
 10
346.056244
 20
54.599998
 40
45.000000
 50
-34.692108
 51
21.039440
  0
ARC
  8
0
  6
CONTINUOUS
 10
306.556244
 20
7.800000
 40
1.500000
 50
270.000000
 51
292.656891
  0
LINE
  8
0
  6
CONTINUOUS
 10
388.056244
 20
102.799988
 11
388.056244
 21
57.799992
  0
LINE
  8
0
  6
CONTINUOUS
 10
385.056244
 20
103.800003
 11
387.056244
 21
103.800003
  0
LINE
  8
0
  6
CONTINUOUS
 10
385.056244
 20
56.799995
 11
387.056244
 21
56.799995
  0
ARC
  8
0
  6
CONTINUOUS
 10
385.056244
 20
105.800003
 40
2.000000
 50
180.000000
 51
270.000000
  0
ARC
  8
0
  6
CONTINUOUS
 10
385.056244
 20
54.800007
 40
2.000000
 50
90.000000
 51
180.000000
  0
ARC
  8
0
  6
CONTINUOUS
 10
387.056244
 20
57.799995
 40
1.000000
 50
-90.000000
 51
0.000000
  0
ARC
  8
0
  6
CONTINUOUS
 10
387.056244
 20
102.799988
 40
1.000000
 50
0.000000
 51
90.000000
  0
LINE
  8
0
  6
CONTINUOUS
 10
298.056244
 20
108.016121
 11
305.493744
 21
107.037498
  0
LINE
  8
0
  6
CONTINUOUS
 10
305.493744
 20
107.037498
 11
310.493744
 21
103.787498
  0
LINE
  8
0
  6
CONTINUOUS
 10
313.407837
 20
94.372498
 11
314.868744
 21
93.412498
  0
LINE
  8
0
  6
CONTINUOUS
 10
314.868744
 20
93.412498
 11
314.368744
 21
87.412498
  0
LINE
  8
0
  6
CONTINUOUS
 10
314.368744
 20
87.412498
 11
312.368744
 21
83.912498
  0
LINE
  8
0
  6
CONTINUOUS
 10
312.368744
 20
83.912498
 11
314.243744
 21
78.412498
  0
LINE
  8
0
  6
CONTINUOUS
 10
314.243744
 20
78.412498
 11
313.618744
 21
72.662498
  0
LINE
  8
0
  6
CONTINUOUS
 10
313.618744
 20
72.662498
 11
312.993744
 21
66.412498
  0
LINE
  8
0
  6
CONTINUOUS
 10
312.993744
 20
66.412498
 11
314.118744
 21
61.787498
  0
LINE
  8
0
  6
CONTINUOUS
 10
314.118744
 20
61.787498
 11
312.993744
 21
57.537498
  0
LINE
  8
0
  6
CONTINUOUS
 10
312.993744
 20
57.537498
 11
309.743744
 21
52.662498
  0
LINE
  8
0
  6
CONTINUOUS
 10
309.743744
 20
52.662498
 11
305.243744
 21
50.662498
  0
LINE
  8
0
  6
CONTINUOUS
 10
305.243744
 20
50.662498
 11
300.993744
 21
48.037498
  0
LINE
  8
0
  6
CONTINUOUS
 10
300.993744
 20
48.037498
 11
298.056244
 21
47.640541
  0
LINE
  8
0
  6
CONTINUOUS
 10
310.493744
 20
103.787498
 11
311.243744
 21
99.349998
  0
LINE
  8
0
  6
CONTINUOUS
 10
311.243744
 20
99.349998
 11
313.407837
 21
94.372498
  0
LINE
  8
0
  6
CONTINUOUS
 10
308.056244
 20
122.300003
 11
308.056244
 21
51.912498
  0
LINE
  8
0
  6
CONTINUOUS
 10
308.056244
 20
32.800011
 11
308.056244
 21
8.300000
  0
LINE
  8
0
  6
CONTINUOUS
 10
298.056244
 20
124.300003
 11
298.056244
 21
89.300003
  0
LINE
  8
0
  6
CONTINUOUS
 10
298.056244
 20
6.300000
 11
298.056244
 21
71.300003
  0
LINE
  8
0
  6
CENTER
 10
288.148132
 20
54.599998
 11
400.706238
 21
54.599998
  0
LINE
  8
0
  6
CONTINUOUS
 10
308.453461
 20
122.817642
 11
308.734039
 21
121.770401
  0
ARC
  8
0
  6
CONTINUOUS
 10
306.056244
 20
122.299988
 40
2.000000
 50
0.000000
 51
90.000000
  0
ARC
  8
0
  6
CONTINUOUS
 10
306.521637
 20
122.299988
 40
2.000000
 50
15.000500
 51
90.000000
  0
ARC
  8
0
  6
CONTINUOUS
 10
310.056244
 20
121.574242
 40
2.000000
 50
180.000000
 51
269.000610
  0
ARC
  8
0
  6
CONTINUOUS
 10
311.631836
 20
122.546898
 40
3.000000
 50
195.000504
 51
269.000488
  0
LINE
  8
0
  6
CONTINUOUS
 10
308.453461
 20
7.782370
 11
308.733856
 21
8.829030
  0
ARC
  8
0
  6
CONTINUOUS
 10
306.056244
 20
8.300000
 40
2.000000
 50
-90.000000
 51
0.000000
  0
ARC
  8
0
  6
CONTINUOUS
 10
306.521637
 20
8.300010
 40
2.000000
 50
270.000000
 51
345.000000
  0
ARC
  8
0
  6
CONTINUOUS
 10
310.056244
 20
9.025230
 40
2.000000
 50
91.000412
 51
180.000000
  0
ARC
  8
0
  6
CONTINUOUS
 10
311.631653
 20
8.052590
 40
3.000000
 50
91.000458
 51
165.000198
  0
LINE
  8
0
  6
CONTINUOUS
 10
151.556244
 20
77.300018
 11
151.556244
 21
83.300018
  0
LINE
  8
0
  6
CONTINUOUS
 10
157.556244
 20
77.300041
 11
157.556244
 21
83.300041
  0
LINE
  8
0
  6
CONTINUOUS
 10
157.556244
 20
77.300041
 11
151.556244
 21
77.300018
  0
LINE
  8
0
  6
CONTINUOUS
 10
157.556244
 20
83.300041
 11
151.556244
 21
83.300018
  0
ARC
  8
0
  6
CONTINUOUS
 10
146.056244
 20
80.300003
 40
9.000000
 50
19.471210
 51
340.528809
  0
LINE
  8
0
  6
CONTINUOUS
 10
272.056244
 20
71.300003
 11
272.056244
 21
89.300003
  0
LINE
  8
0
  6
CONTINUOUS
 10
302.056244
 20
89.300003
 11
272.056244
 21
89.300003
  0
LINE
  8
0
  6
CONTINUOUS
 10
302.056244
 20
71.300003
 11
272.056244
 21
71.300003
  0
LINE
  8
0
  6
CONTINUOUS
 10
302.056244
 20
90.300003
 11
302.056244
 21
70.300003
  0
LINE
  8
0
  6
CONTINUOUS
 10
304.056244
 20
90.300003
 11
302.056244
 21
90.300003
  0
LINE
  8
0
  6
CONTINUOUS
 10
304.056244
 20
70.300003
 11
302.056244
 21
70.300003
  0
ARC
  8
0
  6
CONTINUOUS
 10
296.056244
 20
80.300003
 40
3.000000
 50
-90.000000
 51
90.000000
  0
LINE
  8
0
  6
CONTINUOUS
 10
296.056244
 20
83.300003
 11
272.056244
 21
83.300003
  0
LINE
  8
0
  6
CONTINUOUS
 10
296.056244
 20
77.300003
 11
272.056244
 21
77.300003
  0
LINE
  8
0
  6
CENTER
 10
146.056244
 20
321.559998
 11
146.056244
 21
186.097504
  0
LINE
  8
0
  6
CENTER
 10
-10.930000
 20
266.390625
 11
210.197495
 21
266.390625
  0
LINE
  8
0
  6
CONTINUOUS
 10
192.382126
 20
303.390625
 11
97.504562
 21
303.390625
  0
LINE
  8
0
  6
CONTINUOUS
 10
2.556250
 20
231.390625
 11
2.556250
 21
301.390625
  0
LINE
  8
0
  6
CONTINUOUS
 10
7.097699
 20
311.390625
 11
23.056250
 21
311.390625
  0
LINE
  8
0
  6
CONTINUOUS
 10
3.056250
 20
308.390625
 11
3.056250
 21
224.390625
  0
LINE
  8
0
  6
CONTINUOUS
 10
23.056250
 20
295.390625
 11
4.806250
 21
295.390625
  0
ARC
  8
0
  6
CONTINUOUS
 10
2.556249
 20
301.890625
 40
0.500000
 50
-90.000000
 51
0.000000
  0
LINE
  8
0
  6
CONTINUOUS
 10
3.633593
 20
309.390625
 11
3.056250
 21
308.390625
  0
ARC
  8
0
  6
CONTINUOUS
 10
7.097713
 20
307.390625
 40
4.000000
 50
90.000000
 51
150.000397
  0
LINE
  8
0
  6
CONTINUOUS
 10
7.097699
 20
221.390625
 11
23.056250
 21
221.390625
  0
ARC
  8
0
  6
CONTINUOUS
 10
2.556249
 20
230.890625
 40
0.500000
 50
0.000000
 51
90.000000
  0
LINE
  8
0
  6
CONTINUOUS
 10
3.633593
 20
223.390640
 11
3.056250
 21
224.390625
  0
ARC
  8
0
  6
CONTINUOUS
 10
7.097713
 20
225.390610
 40
4.000000
 50
-150.000397
 51
-90.000000
  0
LINE
  8
0
  6
CONTINUOUS
 10
23.056250
 20
221.390625
 11
23.056250
 21
241.390610
  0
LINE
  8
0
  6
CONTINUOUS
 10
95.346832
 20
295.393372
 11
95.505249
 21
301.442993
  0
LINE
  8
0
  6
CONTINUOUS
 10
93.398453
 20
311.390625
 11
23.056250
 21
311.390625
  0
LINE
  8
0
  6
CONTINUOUS
 10
23.056250
 20
295.390625
 11
102.398804
 21
295.390625
  0
LINE
  8
0
  6
CONTINUOUS
 10
23.056250
 20
237.390625
 11
4.806250
 21
237.390625
  0
LINE
  8
0
  6
CONTINUOUS
 10
23.056250
 20
237.390625
 11
93.673126
 21
237.390625
  0
LINE
  8
0
  6
CONTINUOUS
 10
93.529381
 20
221.390625
 11
23.056250
 21
221.390625
  0
LINE
  8
0
  6
CONTINUOUS
 10
94.299324
 20
266.390625
 11
95.556252
 21
218.390625
  0
LINE
  8
0
  6
CONTINUOUS
 10
129.056244
 20
298.390625
 11
129.056244
 21
230.390625
  0
LINE
  8
0
  6
CONTINUOUS
 10
163.056244
 20
298.390625
 11
163.056244
 21
230.390625
  0
LINE
  8
0
  6
CONTINUOUS
 10
102.398804
 20
293.390625
 11
102.398804
 21
229.925629
  0
LINE
  8
0
  6
CONTINUOUS
 10
168.556259
 20
308.390625
 11
123.556252
 21
308.390625
  0
LINE
  8
0
  6
CONTINUOUS
 10
122.556252
 20
307.390625
 11
122.556252
 21
305.390625
  0
LINE
  8
0
  6
CONTINUOUS
 10
169.556259
 20
307.390625
 11
169.556259
 21
305.390625
  0
ARC
  8
0
  6
CONTINUOUS
 10
120.556252
 20
305.390625
 40
2.000000
 50
-90.000000
 51
0.000000
  0
ARC
  8
0
  6
CONTINUOUS
 10
171.556244
 20
305.390625
 40
2.000000
 50
180.000000
 51
270.000000
  0
ARC
  8
0
  6
CONTINUOUS
 10
123.556259
 20
307.390625
 40
1.000000
 50
90.000000
 51
180.000000
  0
ARC
  8
0
  6
CONTINUOUS
 10
168.556259
 20
307.390625
 40
1.000000
 50
0.000000
 51
90.000000
  0
LINE
  8
0
  6
CONTINUOUS
 10
157.556244
 20
192.390625
 11
137.056244
 21
192.390625
  0
LINE
  8
0
  6
CONTINUOUS
 10
137.056244
 20
218.390625
 11
137.056244
 21
192.390625
  0
LINE
  8
0
  6
CONTINUOUS
 10
157.556244
 20
192.390625
 11
157.556244
 21
218.390625
  0
LINE
  8
0
  6
CONTINUOUS
 10
154.541245
 20
192.390625
 11
154.541245
 21
218.390625
  0
LINE
  8
0
  6
CONTINUOUS
 10
23.056250
 20
291.390594
 11
23.056250
 21
311.390625
  0
LINE
  8
0
  6
CONTINUOUS
 10
95.556252
 20
218.390625
 11
196.556244
 21
218.390625
  0
LINE
  8
0
  6
CONTINUOUS
 10
194.381454
 20
301.442993
 11
196.556244
 21
218.390625
  0
LINE
  8
0
  6
CONTINUOUS
 10
97.347450
 20
228.390625
 11
194.346085
 21
228.390625
  0
ARC
  8
0
  6
CONTINUOUS
 10
194.346085
 20
226.390625
 40
2.000000
 50
1.500000
 51
90.000000
  0
ARC
  8
0
  6
CONTINUOUS
 10
192.382126
 20
301.390625
 40
2.000000
 50
1.500000
 51
90.000000
  0
ARC
  8
0
  6
CONTINUOUS
 10
165.056244
 20
230.390625
 40
2.000000
 50
180.000000
 51
270.000000
  0
ARC
  8
0
  6
CONTINUOUS
 10
127.056252
 20
230.390625
 40
2.000000
 50
-90.000000
 51
0.000000
  0
LINE
  8
0
  6
CONTINUOUS
 10
128.914307
 20
229.650620
 11
163.198181
 21
229.650620
  0
ARC
  8
0
  6
CONTINUOUS
 10
97.347450
 20
226.390625
 40
2.000000
 50
90.000000
 51
181.500000
  0
ARC
  8
0
  6
CONTINUOUS
 10
93.529381
 20
219.390625
 40
2.000000
 50
1.500000
 51
90.000000
  0
LINE
  8
0
  6
CONTINUOUS
 10
95.397766
 20
309.442993
 11
95.505249
 21
305.338257
  0
ARC
  8
0
  6
CONTINUOUS
 10
93.398453
 20
309.390625
 40
2.000000
 50
1.500000
 51
90.000000
  0
ARC
  8
0
  6
CONTINUOUS
 10
97.504562
 20
305.390625
 40
2.000000
 50
181.500000
 51
270.000000
  0
ARC
  8
0
  6
CONTINUOUS
 10
97.504562
 20
301.390625
 40
2.000000
 50
90.000000
 51
178.500000
  0
LINE
  8
0
  6
CENTER
 10
186.056244
 20
210.702026
 11
186.056244
 21
234.564682
  0
LINE
  8
0
  6
DASHED
 10
190.306244
 20
228.390625
 11
190.306244
 21
218.390625
  0
LINE
  8
0
  6
DASHED
 10
181.806244
 20
228.390625
 11
181.806244
 21
218.390625
  0
LINE
  8
0
  6
CENTER
 10
106.056252
 20
210.702026
 11
106.056252
 21
234.564682
  0
LINE
  8
0
  6
DASHED
 10
101.806252
 20
228.390625
 11
101.806252
 21
218.390625
  0
LINE
  8
0
  6
DASHED
 10
110.306252
 20
228.390625
 11
110.306252
 21
218.390625
  0
LINE
  8
0
  6
CONTINUOUS
 10
13.056250
 20
273.890594
 11
14.056250
 21
273.890594
  0
ARC
  8
0
  6
CONTINUOUS
 10
13.056270
 20
272.890594
 40
1.000000
 50
90.000000
 51
180.000000
  0
LINE
  8
0
  6
CONTINUOUS
 10
8.556265
 20
270.390594
 11
8.556265
 21
262.390594
  0
LINE
  8
0
  6
CONTINUOUS
 10
8.556265
 20
270.390594
 11
12.056265
 21
271.890594
  0
LINE
  8
0
  6
CONTINUOUS
 10
8.556250
 20
262.390594
 11
12.056250
 21
260.890594
  0
LINE
  8
0
  6
CONTINUOUS
 10
12.056265
 20
272.890594
 11
12.056265
 21
259.890594
  0
LINE
  8
0
  6
CONTINUOUS
 10
13.056250
 20
258.890594
 11
14.056250
 21
258.890594
  0
ARC
  8
0
  6
CONTINUOUS
 10
13.056270
 20
259.890594
 40
1.000000
 50
-180.000000
 51
-90.000000
  0
LINE
  8
0
  6
CONTINUOUS
 10
14.056250
 20
243.390610
 11
14.056250
 21
289.390594
  0
LINE
  8
0
  6
CONTINUOUS
 10
16.056250
 20
291.390594
 11
14.056250
 21
289.390594
  0
LINE
  8
0
  6
CONTINUOUS
 10
16.056250
 20
291.390594
 11
62.056240
 21
291.390594
  0
LINE
  8
0
  6
CONTINUOUS
 10
56.556252
 20
286.890594
 11
56.556252
 21
291.390594
  0
ARC
  8
0
  6
CONTINUOUS
 10
59.556252
 20
286.890594
 40
3.000000
 50
180.000000
 51
270.000000
  0
LINE
  8
0
  6
CONTINUOUS
 10
59.556252
 20
283.890594
 11
64.056236
 21
283.890594
  0
CIRCLE
  8
0
  6
CONTINUOUS
 10
60.556252
 20
287.890594
 40
2.250000
  0
LINE
  8
0
  6
CONTINUOUS
 10
64.056244
 20
243.390610
 11
64.056236
 21
289.390594
  0
LINE
  8
0
  6
CONTINUOUS
 10
62.056240
 20
291.390594
 11
64.056236
 21
289.390594
  0
LINE
  8
0
  6
CONTINUOUS
 10
62.056244
 20
241.390610
 11
64.056244
 21
243.390610
  0
LINE
  8
0
  6
CONTINUOUS
 10
62.056244
 20
241.390610
 11
16.056250
 21
241.390610
  0
LINE
  8
0
  6
CONTINUOUS
 10
14.056250
 20
243.390610
 11
16.056250
 21
241.390610
  0
LINE
  8
0
  6
CONTINUOUS
 10
18.556250
 20
248.890610
 11
14.056260
 21
248.890610
  0
CIRCLE
  8
0
  6
CONTINUOUS
 10
17.556250
 20
244.890610
 40
2.250000
  0
ARC
  8
0
  6
CONTINUOUS
 10
18.556250
 20
245.890610
 40
3.000000
 50
0.000000
 51
90.000000
  0
LINE
  8
0
  6
CONTINUOUS
 10
21.556250
 20
245.890610
 11
21.556250
 21
241.390610
  0
LINE
  8
0
  6
CENTER
 10
39.056252
 20
233.924820
 11
39.056252
 21
298.056854
  0
LINE
  8
0
  6
CONTINUOUS
 10
16.470469
 20
290.390625
 11
15.056256
 21
288.976410
  0
LINE
  8
0
  6
CONTINUOUS
 10
15.056256
 20
248.890625
 11
15.056256
 21
288.976410
  0
LINE
  8
0
  6
CONTINUOUS
 10
56.556252
 20
290.390625
 11
16.470469
 21
290.390625
  0
LINE
  8
0
  6
CONTINUOUS
 10
63.056244
 20
283.890625
 11
63.056244
 21
243.804840
  0
LINE
  8
0
  6
CONTINUOUS
 10
21.556250
 20
242.390625
 11
61.642033
 21
242.390625
  0
LINE
  8
0
  6
CONTINUOUS
 10
61.642033
 20
242.390625
 11
63.056244
 21
243.804840
  0
LINE
  8
0
  6
CONTINUOUS
 10
15.556250
 20
101.099998
 11
62.056252
 21
101.099998
  0
LINE
  8
0
  6
CONTINUOUS
 10
64.056236
 20
131.100006
 11
64.056252
 21
103.099998
  0
LINE
  8
0
  6
CONTINUOUS
 10
14.056250
 20
131.100006
 11
14.056250
 21
103.099998
  0
LINE
  8
0
  6
CONTINUOUS
 10
12.056250
 20
113.099998
 11
64.056252
 21
113.099998
  0
LINE
  8
0
  6
CONTINUOUS
 10
62.056252
 20
101.099998
 11
64.056252
 21
103.099998
  0
LINE
  8
0
  6
CONTINUOUS
 10
14.056250
 20
103.099998
 11
16.056250
 21
101.099998
  0
LINE
  8
0
  6
CONTINUOUS
 10
14.056250
 20
103.099998
 11
64.056252
 21
103.099998
  0
LINE
  8
0
  6
CONTINUOUS
 10
15.056250
 20
132.100006
 11
63.056240
 21
132.100006
  0
LINE
  8
0
  6
CONTINUOUS
 10
63.056240
 20
132.100006
 11
64.056236
 21
131.100006
  0
LINE
  8
0
  6
CONTINUOUS
 10
15.056250
 20
132.100006
 11
14.056250
 21
131.100006
  0
LINE
  8
0
  6
CONTINUOUS
 10
14.056250
 20
131.100006
 11
64.056236
 21
131.100006
  0
LINE
  8
0
  6
CENTER
 10
6.112502
 20
122.599998
 11
18.187500
 21
122.599998
  0
LINE
  8
0
  6
CONTINUOUS
 10
12.056258
 20
129.100006
 11
12.056250
 21
113.099998
  0
LINE
  8
0
  6
CONTINUOUS
 10
13.056250
 20
130.100006
 11
14.056250
 21
130.100006
  0
ARC
  8
0
  6
CONTINUOUS
 10
13.056260
 20
129.100006
 40
1.000000
 50
90.000000
 51
180.000000
  0
LINE
  8
0
  6
CONTINUOUS
 10
8.556258
 20
126.599998
 11
8.556258
 21
118.599998
  0
LINE
  8
0
  6
CONTINUOUS
 10
8.556258
 20
126.599998
 11
12.056258
 21
128.100006
  0
LINE
  8
0
  6
CONTINUOUS
 10
8.556250
 20
118.599998
 11
12.056250
 21
117.099998
  0
LINE
  8
0
  6
CENTER
 10
39.056252
 20
96.406250
 11
39.056252
 21
137.487503
  0
LINE
  8
0
  6
CONTINUOUS
 10
15.556250
 20
101.099998
 11
15.556250
 21
99.599998
  0
LINE
  8
0
  6
CONTINUOUS
 10
61.556252
 20
101.099998
 11
61.556252
 21
99.599998
  0
LINE
  8
0
  6
CONTINUOUS
 10
371.056244
 20
131.100006
 11
371.056244
 21
118.509415
  0
LINE
  8
0
  6
CONTINUOUS
 10
321.056244
 20
131.100006
 11
321.056244
 21
119.381958
  0
LINE
  8
0
  6
CONTINUOUS
 10
322.056244
 20
132.100006
 11
370.056244
 21
132.100006
  0
LINE
  8
0
  6
CONTINUOUS
 10
370.056244
 20
132.100006
 11
371.056244
 21
131.100006
  0
LINE
  8
0
  6
CONTINUOUS
 10
322.056244
 20
132.100006
 11
321.056244
 21
131.100006
  0
LINE
  8
0
  6
CONTINUOUS
 10
321.056244
 20
131.100006
 11
371.056244
 21
131.100006
  0
TEXT
  8
0
 10
-10.000000
 20
-3.000000
 40
4.000000
 41
1.000000
  1
HFM-18R-160~240-S40WT
 50
0.000000
  0
ENDSEC
  0
EOF
