  0
SECTION
  2
HEADER
  9
$CLAYER
  8
1
  9
$LTSCALE
 40
3.0
  0
ENDSEC
  0
SECTION
  2
TABLES
  0
TABLE
  2
LTYPE
 70
     4
  0
LTYPE
  2
CONTINUOUS
  3
solid line
 70
    64
 72
    65
 73
     0
 40
0.0
  0
LTYPE
  2
DASHED
  3
__ __ __ __ __ __ __ __ __ __ __ __ __ __ __
 70
    64
 72
    65
 73
     2
 40
0.75
 49
0.5
 49
-0.25
  0
LTYPE
  2
CENTER
  3
____ _ ____ _ ____ _ ____ _ ____ _ ____ _ ____
 70
    64
 72
    65
 73
     4
 40
2.0
 49
1.25
 49
-0.25
 49
0.25
 49
-0.25
  0
LTYPE
  2
PHANTOM
  3
_____ _ _ _____ _ _ _____ _ _ _____ _ _ ____
 70
    64
 72
    65
 73
     6
 40
2.5
 49
1.25
 49
-0.25
 49
0.25
 49
-0.25
 49
0.25
 49
-0.25
  0
ENDTAB
  0
TABLE
  2
LAYER
 70
     1
  0
LAYER
  2
0
 70
    64
 62
     7
  6
CONTINUOUS
  0
ENDTAB
  0
TABLE
  2
STYLE
 70
     1
  0
STYLE
  2
STANDARD
 70
     0
 40
0.000000
 41
1.000000
 50
0.000000
 71
     0
 42
3.000000
  3
txt
  4
BIGFONT
  0
ENDTAB
  0
ENDSEC
  0
SECTION
  2
BLOCKS
  0
ENDSEC
  0
SECTION
  2
ENTITIES
  0
LINE
  8
0
  6
CONTINUOUS
 10
54.911240
 20
99.596245
 11
64.411240
 21
99.596245
  0
LINE
  8
0
  6
CONTINUOUS
 10
64.411240
 20
89.005547
 11
54.911240
 21
89.005547
  0
LINE
  8
0
  6
CONTINUOUS
 10
54.911240
 20
9.596246
 11
64.411240
 21
9.596246
  0
LINE
  8
0
  6
CONTINUOUS
 10
64.411240
 20
20.186947
 11
54.911240
 21
20.186947
  0
LINE
  8
0
  6
CONTINUOUS
 10
54.911240
 20
101.596245
 11
54.911240
 21
7.596246
  0
LINE
  8
0
  6
CONTINUOUS
 10
54.911240
 20
83.596245
 11
10.936240
 21
83.596245
  0
LINE
  8
0
  6
CONTINUOUS
 10
54.911240
 20
25.596247
 11
10.936239
 21
25.596247
  0
LINE
  8
0
  6
CONTINUOUS
 10
12.411238
 20
101.596245
 11
54.911240
 21
101.596245
  0
LINE
  8
0
  6
CONTINUOUS
 10
12.411238
 20
7.596246
 11
54.911240
 21
7.596246
  0
ARC
  8
0
  6
CONTINUOUS
 10
12.411263
 20
96.596275
 40
5.000000
 50
90.000000
 51
180.000000
  0
ARC
  8
0
  6
CONTINUOUS
 10
12.411237
 20
12.596246
 40
5.000000
 50
180.000000
 51
270.000000
  0
LINE
  8
0
  6
CONTINUOUS
 10
7.411263
 20
96.596252
 11
7.411238
 21
12.596236
  0
LINE
  8
0
  6
CONTINUOUS
 10
64.411240
 20
9.596246
 11
64.411240
 21
99.596245
  0
LINE
  8
0
  6
CENTER
 10
-4.659688
 20
54.596245
 11
164.740784
 21
54.596245
  0
LINE
  8
0
  6
CONTINUOUS
 10
237.911255
 20
35.796246
 11
237.911255
 21
94.796249
  0
LINE
  8
0
  6
CONTINUOUS
 10
64.411240
 20
99.596245
 11
137.256943
 21
99.596245
  0
LINE
  8
0
  6
CONTINUOUS
 10
134.911255
 20
9.596246
 11
64.411240
 21
9.596246
  0
LINE
  8
0
  6
CENTER
 10
154.823746
 20
80.296249
 11
219.166870
 21
80.296249
  0
LINE
  8
0
  6
CENTER
 10
187.411255
 20
132.846252
 11
187.411255
 21
-3.144054
  0
LINE
  8
0
  6
CONTINUOUS
 10
147.411255
 20
124.296249
 11
227.411255
 21
124.296249
  0
LINE
  8
0
  6
CONTINUOUS
 10
147.411255
 20
6.296246
 11
227.411255
 21
6.296246
  0
LINE
  8
0
  6
CENTER
 10
220.411255
 20
115.296249
 11
234.286255
 21
115.296249
  0
LINE
  8
0
  6
CENTER
 10
227.411255
 20
108.596245
 11
227.411255
 21
122.096245
  0
CIRCLE
  8
0
  6
CONTINUOUS
 10
227.411255
 20
115.296249
 40
4.250000
  0
LINE
  8
0
  6
CENTER
 10
220.411255
 20
15.296246
 11
234.286255
 21
15.296246
  0
LINE
  8
0
  6
CENTER
 10
227.411255
 20
21.996246
 11
227.411255
 21
8.496246
  0
CIRCLE
  8
0
  6
CONTINUOUS
 10
227.411255
 20
15.296246
 40
4.250000
  0
LINE
  8
0
  6
CENTER
 10
154.411255
 20
115.296249
 11
140.536255
 21
115.296249
  0
LINE
  8
0
  6
CENTER
 10
147.411255
 20
108.596245
 11
147.411255
 21
122.096245
  0
CIRCLE
  8
0
  6
CONTINUOUS
 10
147.411255
 20
115.296249
 40
4.250000
  0
LINE
  8
0
  6
CENTER
 10
154.411255
 20
15.296246
 11
140.536255
 21
15.296246
  0
LINE
  8
0
  6
CENTER
 10
147.411255
 20
21.996246
 11
147.411255
 21
8.496246
  0
CIRCLE
  8
0
  6
CONTINUOUS
 10
147.411255
 20
15.296246
 40
4.250000
  0
LINE
  8
0
  6
CONTINUOUS
 10
236.387955
 20
115.942879
 11
237.911255
 21
94.796249
  0
LINE
  8
0
  6
CONTINUOUS
 10
236.387955
 20
14.649686
 11
237.911255
 21
35.796246
  0
LINE
  8
0
  6
CONTINUOUS
 10
161.411255
 20
120.296249
 11
213.411255
 21
120.296249
  0
LINE
  8
0
  6
CONTINUOUS
 10
213.411255
 20
10.296246
 11
161.411255
 21
10.296246
  0
LINE
  8
0
  6
CONTINUOUS
 10
139.411255
 20
80.988434
 11
139.411255
 21
49.603725
  0
ARC
  8
0
  6
CONTINUOUS
 10
187.411255
 20
65.296249
 40
50.500000
 50
18.103800
 51
161.896194
  0
ARC
  8
0
  6
CONTINUOUS
 10
187.411255
 20
65.296249
 40
50.500000
 50
198.103806
 51
341.896210
  0
LINE
  8
0
  6
CONTINUOUS
 10
235.411255
 20
80.988609
 11
235.411255
 21
49.604210
  0
ARC
  8
0
  6
CONTINUOUS
 10
213.411255
 20
115.296249
 40
5.000000
 50
0.000000
 51
90.000000
  0
ARC
  8
0
  6
CONTINUOUS
 10
228.417145
 20
101.332428
 40
5.000000
 50
4.120544
 51
94.120201
  0
ARC
  8
0
  6
CONTINUOUS
 10
227.411255
 20
115.296249
 40
9.000000
 50
180.000000
 51
274.120697
  0
ARC
  8
0
  6
CONTINUOUS
 10
227.411255
 20
115.296249
 40
9.000000
 50
4.120065
 51
90.000000
  0
ARC
  8
0
  6
CONTINUOUS
 10
213.411255
 20
15.296246
 40
5.000000
 50
-90.000000
 51
0.000000
  0
ARC
  8
0
  6
CONTINUOUS
 10
228.417145
 20
29.260065
 40
5.000000
 50
265.879791
 51
355.879486
  0
ARC
  8
0
  6
CONTINUOUS
 10
227.411255
 20
15.296246
 40
9.000000
 50
270.000000
 51
355.879913
  0
ARC
  8
0
  6
CONTINUOUS
 10
227.411255
 20
15.296246
 40
9.000000
 50
85.879837
 51
180.000000
  0
LINE
  8
0
  6
CONTINUOUS
 10
233.404144
 20
101.691704
 11
235.411255
 21
80.988609
  0
LINE
  8
0
  6
CONTINUOUS
 10
233.404144
 20
28.900826
 11
235.411346
 21
49.604210
  0
ARC
  8
0
  6
CONTINUOUS
 10
161.411255
 20
115.296249
 40
5.000000
 50
90.000000
 51
180.000000
  0
ARC
  8
0
  6
CONTINUOUS
 10
147.411255
 20
115.296249
 40
9.000000
 50
-94.120667
 51
0.000000
  0
ARC
  8
0
  6
CONTINUOUS
 10
146.405350
 20
101.332428
 40
5.000000
 50
85.879799
 51
175.879501
  0
LINE
  8
0
  6
CONTINUOUS
 10
141.418243
 20
101.691704
 11
139.411255
 21
80.988609
  0
ARC
  8
0
  6
CONTINUOUS
 10
146.405350
 20
29.260065
 40
5.000000
 50
-175.879501
 51
-85.879791
  0
ARC
  8
0
  6
CONTINUOUS
 10
147.411255
 20
15.296246
 40
9.000000
 50
0.000000
 51
94.120163
  0
ARC
  8
0
  6
CONTINUOUS
 10
161.411255
 20
15.296246
 40
5.000000
 50
180.000000
 51
270.000000
  0
LINE
  8
0
  6
CONTINUOUS
 10
141.418243
 20
28.900826
 11
139.411148
 21
49.604210
  0
ARC
  8
0
  6
CONTINUOUS
 10
147.411255
 20
115.296249
 40
9.000000
 50
90.000000
 51
175.879898
  0
LINE
  8
0
  6
CONTINUOUS
 10
138.434448
 20
115.942879
 11
136.911255
 21
94.796249
  0
LINE
  8
0
  6
CONTINUOUS
 10
138.434448
 20
14.649686
 11
136.911255
 21
35.796246
  0
ARC
  8
0
  6
CONTINUOUS
 10
147.411255
 20
15.296246
 40
9.000000
 50
-175.879898
 51
-90.000000
  0
ARC
  8
0
  6
CONTINUOUS
 10
141.911255
 20
19.596275
 40
5.000000
 50
143.994797
 51
180.000000
  0
ARC
  8
0
  6
CONTINUOUS
 10
134.911255
 20
11.596246
 40
2.000000
 50
-90.000000
 51
0.000000
  0
LINE
  8
0
  6
CONTINUOUS
 10
136.911255
 20
11.596246
 11
136.911255
 21
19.596275
  0
LINE
  8
0
  6
CONTINUOUS
 10
136.911255
 20
94.796249
 11
136.911255
 21
35.796234
  0
LINE
  8
0
  6
CONTINUOUS
 10
64.411240
 20
89.005547
 11
134.911255
 21
89.005547
  0
LINE
  8
0
  6
CONTINUOUS
 10
64.411240
 20
20.186935
 11
135.411255
 21
20.186935
  0
CIRCLE
  8
0
  6
CONTINUOUS
 10
187.411255
 20
80.296249
 40
23.500000
  0
LINE
  8
0
  6
CONTINUOUS
 10
181.036255
 20
42.849476
 11
181.036255
 21
37.296246
  0
LINE
  8
0
  6
CONTINUOUS
 10
184.223755
 20
44.866562
 11
184.223755
 21
46.858749
  0
LINE
  8
0
  6
CONTINUOUS
 10
190.598755
 20
44.866562
 11
190.598755
 21
46.858749
  0
LINE
  8
0
  6
CONTINUOUS
 10
186.788651
 20
45.688339
 11
186.788651
 21
38.342148
  0
LINE
  8
0
  6
CONTINUOUS
 10
187.984055
 20
45.688339
 11
187.984055
 21
38.342148
  0
LINE
  8
0
  6
CONTINUOUS
 10
194.259354
 20
45.688339
 11
194.259354
 21
38.292347
  0
LINE
  8
0
  6
CONTINUOUS
 10
195.355057
 20
41.766228
 11
195.355057
 21
38.292347
  0
LINE
  8
0
  6
CONTINUOUS
 10
179.523743
 20
45.588730
 11
176.451843
 21
45.588730
  0
LINE
  8
0
  6
CONTINUOUS
 10
176.451843
 20
45.588730
 11
175.732056
 21
44.696236
  0
LINE
  8
0
  6
CONTINUOUS
 10
175.818649
 20
46.858749
 11
174.661255
 21
45.376755
  0
LINE
  8
0
  6
CONTINUOUS
 10
175.732056
 20
39.187176
 11
176.463348
 21
38.416855
  0
LINE
  8
0
  6
CONTINUOUS
 10
174.661255
 20
38.537106
 11
175.891052
 21
37.296246
  0
LINE
  8
0
  6
CONTINUOUS
 10
174.661255
 20
45.376755
 11
174.661255
 21
38.537106
  0
LINE
  8
0
  6
CONTINUOUS
 10
175.732056
 20
44.696236
 11
175.732056
 21
39.187176
  0
LINE
  8
0
  6
CONTINUOUS
 10
180.114853
 20
45.017288
 11
179.511642
 21
45.588730
  0
LINE
  8
0
  6
CONTINUOUS
 10
180.105255
 20
46.858749
 11
181.036255
 21
45.825607
  0
LINE
  8
0
  6
CONTINUOUS
 10
180.114853
 20
44.866562
 11
181.036255
 21
44.866562
  0
LINE
  8
0
  6
CONTINUOUS
 10
175.818649
 20
46.858749
 11
180.105255
 21
46.858749
  0
LINE
  8
0
  6
CONTINUOUS
 10
180.114853
 20
41.803577
 11
178.446457
 21
41.803577
  0
LINE
  8
0
  6
CONTINUOUS
 10
180.114853
 20
40.807487
 11
180.114853
 21
41.604355
  0
LINE
  8
0
  6
CONTINUOUS
 10
178.122650
 20
38.416855
 11
176.463348
 21
38.416855
  0
ARC
  8
0
  6
CONTINUOUS
 10
178.122650
 20
40.409046
 40
1.992187
 50
-89.999786
 51
0.000109
  0
LINE
  8
0
  6
CONTINUOUS
 10
180.114853
 20
38.058517
 11
180.114853
 21
37.296246
  0
LINE
  8
0
  6
CONTINUOUS
 10
181.036255
 20
45.825607
 11
181.036255
 21
44.866562
  0
LINE
  8
0
  6
CONTINUOUS
 10
180.114853
 20
41.803577
 11
180.114853
 21
40.409046
  0
LINE
  8
0
  6
CONTINUOUS
 10
178.446457
 20
42.849476
 11
178.446457
 21
41.803577
  0
LINE
  8
0
  6
CONTINUOUS
 10
180.114853
 20
37.296246
 11
181.036255
 21
37.296246
  0
LINE
  8
0
  6
CONTINUOUS
 10
180.114853
 20
38.058517
 11
179.206345
 21
37.296246
  0
LINE
  8
0
  6
CONTINUOUS
 10
187.984055
 20
38.342148
 11
188.382446
 21
38.342148
  0
LINE
  8
0
  6
CONTINUOUS
 10
186.315552
 20
38.342148
 11
186.315552
 21
37.296246
  0
LINE
  8
0
  6
CONTINUOUS
 10
188.382446
 20
38.342148
 11
188.382446
 21
37.296246
  0
LINE
  8
0
  6
CONTINUOUS
 10
189.933746
 20
44.866562
 11
190.598755
 21
44.866562
  0
LINE
  8
0
  6
CONTINUOUS
 10
184.223755
 20
44.866562
 11
184.931351
 21
44.866562
  0
LINE
  8
0
  6
CONTINUOUS
 10
184.223755
 20
46.858749
 11
190.598755
 21
46.858749
  0
LINE
  8
0
  6
CONTINUOUS
 10
186.315552
 20
37.296246
 11
188.382446
 21
37.296246
  0
LINE
  8
0
  6
CONTINUOUS
 10
186.315552
 20
38.342148
 11
186.788651
 21
38.342148
  0
ARC
  8
0
  6
CONTINUOUS
 10
197.608749
 20
44.306255
 40
2.552490
 50
-73.981873
 51
90.003510
  0
ARC
  8
0
  6
CONTINUOUS
 10
197.608749
 20
44.306255
 40
1.557193
 50
-82.585274
 51
62.411850
  0
LINE
  8
0
  6
CONTINUOUS
 10
193.786255
 20
46.858749
 11
197.608749
 21
46.858749
  0
LINE
  8
0
  6
CONTINUOUS
 10
193.786255
 20
46.858749
 11
193.786255
 21
45.688339
  0
LINE
  8
0
  6
CONTINUOUS
 10
195.355057
 20
45.688339
 11
195.355057
 21
42.762085
  0
LINE
  8
0
  6
CONTINUOUS
 10
198.313156
 20
41.852875
 11
199.892944
 21
38.292347
  0
LINE
  8
0
  6
CONTINUOUS
 10
197.395554
 20
41.766228
 11
198.890656
 21
38.292347
  0
LINE
  8
0
  6
CONTINUOUS
 10
193.786255
 20
38.292347
 11
194.259354
 21
38.292347
  0
LINE
  8
0
  6
CONTINUOUS
 10
195.355057
 20
38.292347
 11
195.790848
 21
38.292347
  0
LINE
  8
0
  6
CONTINUOUS
 10
195.790848
 20
37.296246
 11
193.786255
 21
37.296246
  0
LINE
  8
0
  6
CONTINUOUS
 10
198.692047
 20
38.292347
 11
198.890656
 21
38.292347
  0
LINE
  8
0
  6
CONTINUOUS
 10
199.892944
 20
38.292347
 11
200.161255
 21
38.292347
  0
LINE
  8
0
  6
CONTINUOUS
 10
198.692047
 20
37.296246
 11
200.161255
 21
37.296246
  0
LINE
  8
0
  6
CONTINUOUS
 10
200.161255
 20
38.292347
 11
200.161255
 21
37.296246
  0
LINE
  8
0
  6
CONTINUOUS
 10
198.692047
 20
38.292347
 11
198.692047
 21
37.296246
  0
LINE
  8
0
  6
CONTINUOUS
 10
195.790848
 20
38.292347
 11
195.790848
 21
37.296246
  0
LINE
  8
0
  6
CONTINUOUS
 10
193.786255
 20
38.292347
 11
193.786255
 21
37.296246
  0
LINE
  8
0
  6
CONTINUOUS
 10
185.273743
 20
45.688339
 11
184.931351
 21
44.866562
  0
LINE
  8
0
  6
CONTINUOUS
 10
189.645050
 20
45.688339
 11
189.933746
 21
44.866562
  0
LINE
  8
0
  6
CONTINUOUS
 10
187.984055
 20
45.688339
 11
189.645050
 21
45.688339
  0
LINE
  8
0
  6
CONTINUOUS
 10
186.788651
 20
45.688339
 11
185.273743
 21
45.688339
  0
LINE
  8
0
  6
CONTINUOUS
 10
193.786255
 20
45.688339
 11
194.259354
 21
45.688339
  0
LINE
  8
0
  6
CONTINUOUS
 10
195.355057
 20
45.688339
 11
198.329956
 21
45.686401
  0
LINE
  8
0
  6
CONTINUOUS
 10
180.114853
 20
45.017288
 11
180.114853
 21
44.866562
  0
LINE
  8
0
  6
CONTINUOUS
 10
175.891052
 20
37.296246
 11
179.206345
 21
37.296246
  0
LINE
  8
0
  6
CONTINUOUS
 10
195.355057
 20
42.762085
 11
197.809753
 21
42.762085
  0
LINE
  8
0
  6
CONTINUOUS
 10
195.355057
 20
41.766228
 11
197.395554
 21
41.766228
  0
LINE
  8
0
  6
CONTINUOUS
 10
178.446457
 20
42.849476
 11
181.036255
 21
42.849476
  0
LINE
  8
0
  6
CONTINUOUS
 10
173.411255
 20
119.365044
 11
173.411255
 21
113.816856
  0
LINE
  8
0
  6
CONTINUOUS
 10
201.411255
 20
119.365044
 11
201.411255
 21
113.816864
  0
LINE
  8
0
  6
CONTINUOUS
 10
173.411255
 20
16.775637
 11
173.411255
 21
11.501616
  0
LINE
  8
0
  6
CONTINUOUS
 10
201.411255
 20
16.775637
 11
201.411255
 21
11.501616
  0
LINE
  8
0
  6
CENTER
 10
387.411255
 20
-0.403754
 11
387.411255
 21
154.794067
  0
LINE
  8
0
  6
CONTINUOUS
 10
345.411255
 20
102.796234
 11
345.411255
 21
57.796238
  0
LINE
  8
0
  6
CONTINUOUS
 10
424.411255
 20
115.348129
 11
424.411255
 21
15.244326
  0
LINE
  8
0
  6
CENTER
 10
305.911255
 20
80.296249
 11
439.944336
 21
80.296249
  0
LINE
  8
0
  6
CONTINUOUS
 10
349.411255
 20
103.796249
 11
346.411255
 21
103.796249
  0
LINE
  8
0
  6
CONTINUOUS
 10
349.411255
 20
56.796242
 11
346.411255
 21
56.796242
  0
LINE
  8
0
  6
CONTINUOUS
 10
347.876648
 20
124.296249
 11
339.411255
 21
124.296249
  0
LINE
  8
0
  6
CONTINUOUS
 10
347.876648
 20
6.296246
 11
339.411255
 21
6.296246
  0
LINE
  8
0
  6
CONTINUOUS
 10
421.463562
 20
118.347687
 11
351.376343
 21
119.570778
  0
LINE
  8
0
  6
CONTINUOUS
 10
352.934357
 20
11.048356
 11
421.463654
 21
12.244796
  0
LINE
  8
0
  6
CONTINUOUS
 10
422.725739
 20
94.796249
 11
354.577057
 21
94.796249
  0
LINE
  8
0
  6
CONTINUOUS
 10
422.725739
 20
35.796246
 11
352.411255
 21
35.796246
  0
ARC
  8
0
  6
CONTINUOUS
 10
421.411255
 20
115.348129
 40
3.000000
 50
0.000000
 51
89.000359
  0
ARC
  8
0
  6
CONTINUOUS
 10
421.411255
 20
15.244326
 40
3.000000
 50
-88.999687
 51
0.000000
  0
ARC
  8
0
  6
CONTINUOUS
 10
352.411255
 20
32.796265
 40
3.000000
 50
90.000000
 51
180.000000
  0
LINE
  8
0
  6
CENTER
 10
334.348755
 20
15.296246
 11
354.098755
 21
15.296246
  0
LINE
  8
0
  6
CENTER
 10
336.098755
 20
115.296249
 11
353.098755
 21
115.296249
  0
LINE
  8
0
  6
DASHED
 10
339.411255
 20
111.046249
 11
349.411255
 21
111.046249
  0
LINE
  8
0
  6
DASHED
 10
339.411255
 20
119.546249
 11
349.411255
 21
119.546249
  0
LINE
  8
0
  6
DASHED
 10
339.411255
 20
19.546246
 11
349.411255
 21
19.546246
  0
LINE
  8
0
  6
DASHED
 10
339.411255
 20
11.046246
 11
349.411255
 21
11.046246
  0
LINE
  8
0
  6
CONTINUOUS
 10
361.411255
 20
9.596246
 11
413.411255
 21
9.596246
  0
ARC
  8
0
  6
CONTINUOUS
 10
413.411255
 20
12.596246
 40
3.000000
 50
270.000000
 51
351.561890
  0
ARC
  8
0
  6
CONTINUOUS
 10
361.411255
 20
12.596246
 40
3.000000
 50
208.811905
 51
270.000000
  0
ARC
  8
0
  6
CONTINUOUS
 10
346.411255
 20
57.796242
 40
1.000000
 50
180.000000
 51
270.000000
  0
ARC
  8
0
  6
CONTINUOUS
 10
346.411255
 20
102.796234
 40
1.000000
 50
90.000000
 51
180.000000
  0
ARC
  8
0
  6
CONTINUOUS
 10
387.411255
 20
54.596245
 40
45.000000
 50
-34.692108
 51
21.039440
  0
LINE
  8
0
  6
CONTINUOUS
 10
429.411255
 20
102.796234
 11
429.411255
 21
57.796238
  0
LINE
  8
0
  6
CONTINUOUS
 10
426.411255
 20
103.796249
 11
428.411255
 21
103.796249
  0
LINE
  8
0
  6
CONTINUOUS
 10
426.411255
 20
56.796242
 11
428.411255
 21
56.796242
  0
ARC
  8
0
  6
CONTINUOUS
 10
426.411255
 20
105.796249
 40
2.000000
 50
180.000000
 51
270.000000
  0
ARC
  8
0
  6
CONTINUOUS
 10
426.411255
 20
54.796253
 40
2.000000
 50
90.000000
 51
180.000000
  0
ARC
  8
0
  6
CONTINUOUS
 10
428.411255
 20
57.796242
 40
1.000000
 50
-90.000000
 51
0.000000
  0
ARC
  8
0
  6
CONTINUOUS
 10
428.411255
 20
102.796234
 40
1.000000
 50
0.000000
 51
90.000000
  0
LINE
  8
0
  6
CONTINUOUS
 10
339.411255
 20
108.012367
 11
346.848755
 21
107.033745
  0
LINE
  8
0
  6
CONTINUOUS
 10
346.848755
 20
107.033745
 11
351.848755
 21
103.783745
  0
LINE
  8
0
  6
CONTINUOUS
 10
354.762848
 20
94.368744
 11
356.223755
 21
93.408745
  0
LINE
  8
0
  6
CONTINUOUS
 10
356.223755
 20
93.408745
 11
355.723755
 21
87.408745
  0
LINE
  8
0
  6
CONTINUOUS
 10
355.723755
 20
87.408745
 11
353.723755
 21
83.908745
  0
LINE
  8
0
  6
CONTINUOUS
 10
353.723755
 20
83.908745
 11
355.598755
 21
78.408745
  0
LINE
  8
0
  6
CONTINUOUS
 10
355.598755
 20
78.408745
 11
354.973755
 21
72.658745
  0
LINE
  8
0
  6
CONTINUOUS
 10
354.973755
 20
72.658745
 11
354.348755
 21
66.408745
  0
LINE
  8
0
  6
CONTINUOUS
 10
354.348755
 20
66.408745
 11
355.473755
 21
61.783745
  0
LINE
  8
0
  6
CONTINUOUS
 10
355.473755
 20
61.783745
 11
354.348755
 21
57.533745
  0
LINE
  8
0
  6
CONTINUOUS
 10
354.348755
 20
57.533745
 11
351.098755
 21
52.658745
  0
LINE
  8
0
  6
CONTINUOUS
 10
351.098755
 20
52.658745
 11
346.598755
 21
50.658745
  0
LINE
  8
0
  6
CONTINUOUS
 10
346.598755
 20
50.658745
 11
342.348755
 21
48.033745
  0
LINE
  8
0
  6
CONTINUOUS
 10
342.348755
 20
48.033745
 11
339.411255
 21
47.636787
  0
LINE
  8
0
  6
CONTINUOUS
 10
351.848755
 20
103.783745
 11
352.598755
 21
99.346245
  0
LINE
  8
0
  6
CONTINUOUS
 10
352.598755
 20
99.346245
 11
354.762848
 21
94.368744
  0
LINE
  8
0
  6
CONTINUOUS
 10
349.411255
 20
122.296249
 11
349.411255
 21
51.908745
  0
LINE
  8
0
  6
CONTINUOUS
 10
349.411255
 20
9.021466
 11
349.411255
 21
8.296246
  0
LINE
  8
0
  6
CONTINUOUS
 10
339.411255
 20
124.296249
 11
339.411255
 21
89.296249
  0
LINE
  8
0
  6
CONTINUOUS
 10
339.411255
 20
6.296246
 11
339.411255
 21
71.296249
  0
LINE
  8
0
  6
CENTER
 10
334.161255
 20
54.596245
 11
443.661255
 21
54.596245
  0
ARC
  8
0
  6
CONTINUOUS
 10
347.411255
 20
122.296234
 40
2.000000
 50
0.000000
 51
90.000000
  0
ARC
  8
0
  6
CONTINUOUS
 10
347.876648
 20
122.296234
 40
2.000000
 50
15.000500
 51
90.000000
  0
ARC
  8
0
  6
CONTINUOUS
 10
351.411255
 20
121.570496
 40
2.000000
 50
180.000000
 51
269.000610
  0
ARC
  8
0
  6
CONTINUOUS
 10
352.986847
 20
122.543144
 40
3.000000
 50
195.000504
 51
269.000610
  0
LINE
  8
0
  6
CONTINUOUS
 10
349.808441
 20
122.813889
 11
350.089050
 21
121.766647
  0
LINE
  8
0
  6
CONTINUOUS
 10
350.088959
 20
8.825276
 11
349.808441
 21
7.778616
  0
ARC
  8
0
  6
CONTINUOUS
 10
347.411255
 20
8.296246
 40
2.000000
 50
-90.000000
 51
0.000000
  0
ARC
  8
0
  6
CONTINUOUS
 10
347.876648
 20
8.296256
 40
2.000000
 50
270.000000
 51
345.000000
  0
LINE
  8
0
  6
CONTINUOUS
 10
349.411255
 20
9.021466
 11
349.411255
 21
32.796257
  0
ARC
  8
0
  6
CONTINUOUS
 10
351.411255
 20
9.021476
 40
2.000000
 50
91.000633
 51
180.000000
  0
LINE
  8
0
  6
CONTINUOUS
 10
352.934357
 20
11.048356
 11
351.376343
 21
11.021166
  0
ARC
  8
0
  6
CONTINUOUS
 10
352.986664
 20
8.048826
 40
3.000000
 50
91.000526
 51
165.000107
  0
LINE
  8
0
  6
CONTINUOUS
 10
434.411255
 20
80.696747
 11
434.411255
 21
28.495735
  0
LINE
  8
0
  6
CONTINUOUS
 10
413.511749
 20
7.596246
 11
361.310760
 21
7.596246
  0
LINE
  8
0
  6
CONTINUOUS
 10
432.360962
 20
85.646500
 11
429.411255
 21
88.596230
  0
LINE
  8
0
  6
CONTINUOUS
 10
356.360962
 20
9.646486
 11
354.924347
 21
11.083096
  0
ARC
  8
0
  6
CONTINUOUS
 10
361.310760
 20
14.596246
 40
7.000000
 50
225.000107
 51
270.000000
  0
ARC
  8
0
  6
CONTINUOUS
 10
413.511749
 20
14.596246
 40
7.000000
 50
270.000000
 51
315.000000
  0
ARC
  8
0
  6
CONTINUOUS
 10
427.411255
 20
28.495726
 40
7.000000
 50
-44.999882
 51
0.000000
  0
ARC
  8
0
  6
CONTINUOUS
 10
427.411255
 20
80.696724
 40
7.000000
 50
0.000000
 51
45.000229
  0
LINE
  8
0
  6
CONTINUOUS
 10
432.360962
 20
23.545996
 11
424.411255
 21
15.596246
  0
LINE
  8
0
  6
CONTINUOUS
 10
418.461548
 20
9.646496
 11
421.052643
 21
12.237616
  0
LINE
  8
0
  6
CONTINUOUS
 10
313.411255
 20
71.296249
 11
313.411255
 21
89.296249
  0
LINE
  8
0
  6
CONTINUOUS
 10
343.411255
 20
89.296249
 11
313.411255
 21
89.296249
  0
LINE
  8
0
  6
CONTINUOUS
 10
343.411255
 20
71.296249
 11
313.411255
 21
71.296249
  0
LINE
  8
0
  6
CONTINUOUS
 10
343.411255
 20
90.296249
 11
343.411255
 21
70.296249
  0
LINE
  8
0
  6
CONTINUOUS
 10
345.411255
 20
90.296249
 11
343.411255
 21
90.296249
  0
LINE
  8
0
  6
CONTINUOUS
 10
345.411255
 20
70.296249
 11
343.411255
 21
70.296249
  0
ARC
  8
0
  6
CONTINUOUS
 10
337.411255
 20
80.296249
 40
3.000000
 50
-90.000000
 51
90.000000
  0
LINE
  8
0
  6
CONTINUOUS
 10
337.411255
 20
83.296249
 11
313.411255
 21
83.296249
  0
LINE
  8
0
  6
CONTINUOUS
 10
337.411255
 20
77.296249
 11
313.411255
 21
77.296249
  0
LINE
  8
0
  6
CONTINUOUS
 10
192.911255
 20
77.296265
 11
192.911255
 21
83.296265
  0
LINE
  8
0
  6
CONTINUOUS
 10
198.911255
 20
77.296288
 11
198.911255
 21
83.296288
  0
LINE
  8
0
  6
CONTINUOUS
 10
198.911255
 20
77.296288
 11
192.911255
 21
77.296265
  0
LINE
  8
0
  6
CONTINUOUS
 10
198.911255
 20
83.296288
 11
192.911255
 21
83.296265
  0
ARC
  8
0
  6
CONTINUOUS
 10
187.411255
 20
80.296249
 40
9.000000
 50
19.471210
 51
340.528809
  0
LINE
  8
0
  6
CENTER
 10
187.411255
 20
320.411255
 11
187.411255
 21
184.948746
  0
LINE
  8
0
  6
CENTER
 10
-8.161562
 20
265.241882
 11
251.552505
 21
265.241882
  0
LINE
  8
0
  6
CONTINUOUS
 10
233.737137
 20
302.241882
 11
138.859558
 21
302.241882
  0
LINE
  8
0
  6
CONTINUOUS
 10
136.701828
 20
294.244629
 11
136.860245
 21
300.294220
  0
LINE
  8
0
  6
CONTINUOUS
 10
134.753448
 20
310.241882
 11
64.411247
 21
310.241882
  0
LINE
  8
0
  6
CONTINUOUS
 10
64.411247
 20
294.241882
 11
143.753799
 21
294.241882
  0
LINE
  8
0
  6
CONTINUOUS
 10
64.411247
 20
236.241882
 11
135.028122
 21
236.241882
  0
LINE
  8
0
  6
CONTINUOUS
 10
134.884384
 20
220.241882
 11
64.411247
 21
220.241882
  0
LINE
  8
0
  6
CONTINUOUS
 10
135.654327
 20
265.241882
 11
136.911255
 21
217.241882
  0
LINE
  8
0
  6
CONTINUOUS
 10
170.411255
 20
297.241882
 11
170.411255
 21
229.241882
  0
LINE
  8
0
  6
CONTINUOUS
 10
204.411255
 20
297.241882
 11
204.411255
 21
229.241882
  0
LINE
  8
0
  6
CONTINUOUS
 10
143.753799
 20
292.241882
 11
143.753799
 21
228.776871
  0
LINE
  8
0
  6
CONTINUOUS
 10
209.911255
 20
307.241882
 11
164.911255
 21
307.241882
  0
LINE
  8
0
  6
CONTINUOUS
 10
163.911255
 20
306.241882
 11
163.911255
 21
304.241882
  0
LINE
  8
0
  6
CONTINUOUS
 10
210.911255
 20
306.241882
 11
210.911255
 21
304.241882
  0
ARC
  8
0
  6
CONTINUOUS
 10
161.911255
 20
304.241882
 40
2.000000
 50
-90.000000
 51
0.000000
  0
ARC
  8
0
  6
CONTINUOUS
 10
212.911240
 20
304.241882
 40
2.000000
 50
180.000000
 51
270.000000
  0
ARC
  8
0
  6
CONTINUOUS
 10
164.911255
 20
306.241882
 40
1.000000
 50
90.000000
 51
180.000000
  0
ARC
  8
0
  6
CONTINUOUS
 10
209.911255
 20
306.241882
 40
1.000000
 50
0.000000
 51
90.000000
  0
LINE
  8
0
  6
CONTINUOUS
 10
198.911255
 20
191.241882
 11
178.411255
 21
191.241882
  0
LINE
  8
0
  6
CONTINUOUS
 10
178.411255
 20
217.241882
 11
178.411255
 21
191.241882
  0
LINE
  8
0
  6
CONTINUOUS
 10
198.911255
 20
191.241882
 11
198.911255
 21
217.241882
  0
LINE
  8
0
  6
CONTINUOUS
 10
195.896255
 20
191.241882
 11
195.896255
 21
217.241882
  0
LINE
  8
0
  6
CONTINUOUS
 10
136.911255
 20
217.241882
 11
237.911255
 21
217.241882
  0
LINE
  8
0
  6
CONTINUOUS
 10
235.736450
 20
300.294220
 11
237.911255
 21
217.241882
  0
LINE
  8
0
  6
CONTINUOUS
 10
138.702454
 20
227.241882
 11
235.701080
 21
227.241882
  0
ARC
  8
0
  6
CONTINUOUS
 10
235.701080
 20
225.241882
 40
2.000000
 50
1.500000
 51
90.000000
  0
ARC
  8
0
  6
CONTINUOUS
 10
233.737137
 20
300.241882
 40
2.000000
 50
1.500000
 51
90.000000
  0
ARC
  8
0
  6
CONTINUOUS
 10
206.411255
 20
229.241882
 40
2.000000
 50
180.000000
 51
270.000000
  0
ARC
  8
0
  6
CONTINUOUS
 10
168.411255
 20
229.241882
 40
2.000000
 50
-90.000000
 51
0.000000
  0
LINE
  8
0
  6
CONTINUOUS
 10
170.269318
 20
228.501877
 11
204.553192
 21
228.501877
  0
ARC
  8
0
  6
CONTINUOUS
 10
138.702454
 20
225.241882
 40
2.000000
 50
90.000000
 51
181.500000
  0
ARC
  8
0
  6
CONTINUOUS
 10
134.884384
 20
218.241882
 40
2.000000
 50
1.500000
 51
90.000000
  0
LINE
  8
0
  6
CONTINUOUS
 10
136.752762
 20
308.294220
 11
136.860245
 21
304.189514
  0
ARC
  8
0
  6
CONTINUOUS
 10
134.753448
 20
308.241882
 40
2.000000
 50
1.500000
 51
90.000000
  0
ARC
  8
0
  6
CONTINUOUS
 10
138.859558
 20
304.241882
 40
2.000000
 50
181.500000
 51
270.000000
  0
ARC
  8
0
  6
CONTINUOUS
 10
138.859558
 20
300.241882
 40
2.000000
 50
90.000000
 51
178.500000
  0
LINE
  8
0
  6
CENTER
 10
227.411255
 20
209.553284
 11
227.411255
 21
233.415939
  0
LINE
  8
0
  6
DASHED
 10
231.661255
 20
227.241882
 11
231.661255
 21
217.241882
  0
LINE
  8
0
  6
DASHED
 10
223.161255
 20
227.241882
 11
223.161255
 21
217.241882
  0
LINE
  8
0
  6
CENTER
 10
147.411255
 20
209.553284
 11
147.411255
 21
233.415939
  0
LINE
  8
0
  6
DASHED
 10
143.161255
 20
227.241882
 11
143.161255
 21
217.241882
  0
LINE
  8
0
  6
DASHED
 10
151.661255
 20
227.241882
 11
151.661255
 21
217.241882
  0
LINE
  8
0
  6
CONTINUOUS
 10
54.911251
 20
310.241882
 11
64.411247
 21
310.241882
  0
LINE
  8
0
  6
CONTINUOUS
 10
64.411247
 20
294.241882
 11
54.911251
 21
294.241882
  0
LINE
  8
0
  6
CONTINUOUS
 10
54.911251
 20
220.241882
 11
64.411247
 21
220.241882
  0
LINE
  8
0
  6
CONTINUOUS
 10
64.411247
 20
220.241882
 11
64.411247
 21
240.241852
  0
LINE
  8
0
  6
CONTINUOUS
 10
64.411247
 20
236.241882
 11
54.911251
 21
236.241882
  0
LINE
  8
0
  6
CONTINUOUS
 10
64.411247
 20
290.241852
 11
64.411247
 21
310.241882
  0
LINE
  8
0
  6
CONTINUOUS
 10
54.911251
 20
312.241882
 11
54.911251
 21
265.241882
  0
LINE
  8
0
  6
CONTINUOUS
 10
54.911251
 20
294.241882
 11
10.936220
 21
294.241882
  0
LINE
  8
0
  6
CONTINUOUS
 10
54.911251
 20
236.241882
 11
10.936220
 21
236.241882
  0
LINE
  8
0
  6
CONTINUOUS
 10
12.411230
 20
312.241882
 11
54.911251
 21
312.241882
  0
LINE
  8
0
  6
CONTINUOUS
 10
12.411230
 20
218.241882
 11
54.911251
 21
218.241882
  0
ARC
  8
0
  6
CONTINUOUS
 10
12.411260
 20
307.241882
 40
5.000000
 50
90.000000
 51
180.000000
  0
ARC
  8
0
  6
CONTINUOUS
 10
12.411230
 20
223.241882
 40
5.000000
 50
180.000000
 51
270.000000
  0
LINE
  8
0
  6
CONTINUOUS
 10
7.411260
 20
307.241882
 11
7.411230
 21
223.241867
  0
LINE
  8
0
  6
CONTINUOUS
 10
54.911251
 20
265.241882
 11
54.911251
 21
218.241882
  0
LINE
  8
0
  6
CONTINUOUS
 10
55.411251
 20
242.241852
 11
55.411251
 21
288.241852
  0
LINE
  8
0
  6
CONTINUOUS
 10
57.411251
 20
290.241852
 11
55.411251
 21
288.241852
  0
LINE
  8
0
  6
CONTINUOUS
 10
57.411251
 20
290.241852
 11
103.411240
 21
290.241852
  0
LINE
  8
0
  6
CONTINUOUS
 10
97.911247
 20
285.741852
 11
97.911247
 21
290.241852
  0
ARC
  8
0
  6
CONTINUOUS
 10
100.911247
 20
285.741852
 40
3.000000
 50
180.000000
 51
270.000000
  0
LINE
  8
0
  6
CONTINUOUS
 10
100.911247
 20
282.741852
 11
105.411240
 21
282.741852
  0
CIRCLE
  8
0
  6
CONTINUOUS
 10
101.911247
 20
286.741852
 40
2.250000
  0
LINE
  8
0
  6
CONTINUOUS
 10
105.411247
 20
242.241852
 11
105.411240
 21
288.241852
  0
LINE
  8
0
  6
CONTINUOUS
 10
103.411240
 20
290.241852
 11
105.411240
 21
288.241852
  0
LINE
  8
0
  6
CONTINUOUS
 10
103.411247
 20
240.241852
 11
105.411247
 21
242.241852
  0
LINE
  8
0
  6
CONTINUOUS
 10
103.411247
 20
240.241852
 11
57.411251
 21
240.241852
  0
LINE
  8
0
  6
CONTINUOUS
 10
55.411251
 20
242.241852
 11
57.411251
 21
240.241852
  0
LINE
  8
0
  6
CONTINUOUS
 10
59.911251
 20
247.741852
 11
55.411259
 21
247.741852
  0
CIRCLE
  8
0
  6
CONTINUOUS
 10
58.911251
 20
243.741852
 40
2.250000
  0
ARC
  8
0
  6
CONTINUOUS
 10
59.911251
 20
244.741852
 40
3.000000
 50
0.000000
 51
90.000000
  0
LINE
  8
0
  6
CONTINUOUS
 10
62.911251
 20
244.741852
 11
62.911251
 21
240.241852
  0
LINE
  8
0
  6
CENTER
 10
80.411247
 20
232.776077
 11
80.411247
 21
296.908112
  0
LINE
  8
0
  6
CONTINUOUS
 10
56.411255
 20
247.741882
 11
56.411255
 21
282.741882
  0
LINE
  8
0
  6
CONTINUOUS
 10
97.911247
 20
289.241882
 11
62.911270
 21
289.241882
  0
LINE
  8
0
  6
CONTINUOUS
 10
104.411247
 20
282.741882
 11
104.411247
 21
247.741882
  0
LINE
  8
0
  6
CONTINUOUS
 10
62.911251
 20
241.241882
 11
97.911232
 21
241.241882
  0
LINE
  8
0
  6
CONTINUOUS
 10
59.911270
 20
282.741882
 11
55.411270
 21
282.741882
  0
ARC
  8
0
  6
CONTINUOUS
 10
59.911270
 20
285.741882
 40
3.000000
 50
-90.000000
 51
0.000000
  0
LINE
  8
0
  6
CONTINUOUS
 10
62.911270
 20
285.741882
 11
62.911270
 21
290.241852
  0
CIRCLE
  8
0
  6
CONTINUOUS
 10
58.911270
 20
286.741882
 40
2.250000
  0
LINE
  8
0
  6
CONTINUOUS
 10
100.911232
 20
247.741882
 11
105.411232
 21
247.741882
  0
ARC
  8
0
  6
CONTINUOUS
 10
100.911232
 20
244.741882
 40
3.000000
 50
90.000000
 51
180.000000
  0
LINE
  8
0
  6
CONTINUOUS
 10
97.911232
 20
244.741882
 11
97.911232
 21
240.241882
  0
CIRCLE
  8
0
  6
CONTINUOUS
 10
101.911232
 20
243.741882
 40
2.250000
  0
LINE
  8
0
  6
CONTINUOUS
 10
56.911240
 20
101.096245
 11
103.411240
 21
101.096245
  0
LINE
  8
0
  6
CONTINUOUS
 10
105.411217
 20
145.096252
 11
105.411240
 21
103.096245
  0
LINE
  8
0
  6
CONTINUOUS
 10
55.411240
 20
145.096252
 11
55.411240
 21
103.096245
  0
LINE
  8
0
  6
CONTINUOUS
 10
55.411240
 20
113.096245
 11
105.411240
 21
113.096245
  0
LINE
  8
0
  6
CONTINUOUS
 10
103.411240
 20
101.096245
 11
105.411240
 21
103.096245
  0
LINE
  8
0
  6
CONTINUOUS
 10
55.411240
 20
103.096245
 11
57.411240
 21
101.096245
  0
LINE
  8
0
  6
CONTINUOUS
 10
55.411240
 20
103.096245
 11
105.411240
 21
103.096245
  0
LINE
  8
0
  6
CONTINUOUS
 10
55.411240
 20
114.096245
 11
105.411232
 21
114.096245
  0
LINE
  8
0
  6
CONTINUOUS
 10
56.411240
 20
146.096252
 11
104.411217
 21
146.096252
  0
LINE
  8
0
  6
CONTINUOUS
 10
104.411217
 20
146.096252
 11
105.411217
 21
145.096252
  0
LINE
  8
0
  6
CONTINUOUS
 10
56.411240
 20
146.096252
 11
55.411240
 21
145.096252
  0
LINE
  8
0
  6
CONTINUOUS
 10
55.411240
 20
145.096252
 11
105.411217
 21
145.096252
  0
LINE
  8
0
  6
CENTER
 10
80.411240
 20
94.706734
 11
80.411240
 21
151.406738
  0
LINE
  8
0
  6
CENTER
 10
53.036240
 20
129.096252
 11
57.661240
 21
129.096252
  0
LINE
  8
0
  6
CONTINUOUS
 10
56.911240
 20
101.096245
 11
56.911240
 21
99.596245
  0
LINE
  8
0
  6
CONTINUOUS
 10
102.911240
 20
101.096245
 11
102.911240
 21
99.596245
  0
LINE
  8
0
  6
CONTINUOUS
 10
54.536240
 20
139.596252
 11
56.536240
 21
139.596252
  0
LINE
  8
0
  6
CONTINUOUS
 10
54.536240
 20
118.596245
 11
56.536240
 21
118.596245
  0
LINE
  8
0
  6
CONTINUOUS
 10
412.411224
 20
145.096252
 11
412.411224
 21
118.505661
  0
LINE
  8
0
  6
CONTINUOUS
 10
362.411255
 20
145.096252
 11
362.411255
 21
119.378204
  0
LINE
  8
0
  6
CONTINUOUS
 10
363.411255
 20
146.096252
 11
411.411224
 21
146.096252
  0
LINE
  8
0
  6
CONTINUOUS
 10
411.411224
 20
146.096252
 11
412.411224
 21
145.096252
  0
LINE
  8
0
  6
CONTINUOUS
 10
363.411255
 20
146.096252
 11
362.411255
 21
145.096252
  0
LINE
  8
0
  6
CONTINUOUS
 10
362.411255
 20
145.096252
 11
412.411224
 21
145.096252
  0
TEXT
  8
0
 10
-8.000000
 20
-3.000000
 40
4.000000
 41
1.000000
  1
HFM-18R-10~240-S60K
 50
0.000000
  0
ENDSEC
  0
EOF
