  0
SECTION
  2
HEADER
  9
$CLAYER
  8
1
  9
$LTSCALE
 40
3.0
  0
ENDSEC
  0
SECTION
  2
TABLES
  0
TABLE
  2
LTYPE
 70
     4
  0
LTYPE
  2
CONTINUOUS
  3
solid line
 70
    64
 72
    65
 73
     0
 40
0.0
  0
LTYPE
  2
DASHED
  3
__ __ __ __ __ __ __ __ __ __ __ __ __ __ __
 70
    64
 72
    65
 73
     2
 40
0.75
 49
0.5
 49
-0.25
  0
LTYPE
  2
CENTER
  3
____ _ ____ _ ____ _ ____ _ ____ _ ____ _ ____
 70
    64
 72
    65
 73
     4
 40
2.0
 49
1.25
 49
-0.25
 49
0.25
 49
-0.25
  0
LTYPE
  2
PHANTOM
  3
_____ _ _ _____ _ _ _____ _ _ _____ _ _ ____
 70
    64
 72
    65
 73
     6
 40
2.5
 49
1.25
 49
-0.25
 49
0.25
 49
-0.25
 49
0.25
 49
-0.25
  0
ENDTAB
  0
TABLE
  2
LAYER
 70
     1
  0
LAYER
  2
0
 70
    64
 62
     7
  6
CONTINUOUS
  0
ENDTAB
  0
TABLE
  2
STYLE
 70
     1
  0
STYLE
  2
STANDARD
 70
     0
 40
0.000000
 41
1.000000
 50
0.000000
 71
     0
 42
3.000000
  3
txt
  4
BIGFONT
  0
ENDTAB
  0
ENDSEC
  0
SECTION
  2
BLOCKS
  0
ENDSEC
  0
SECTION
  2
ENTITIES
  0
LINE
  8
0
  6
CONTINUOUS
 10
53.921242
 20
99.337494
 11
63.421242
 21
99.337494
  0
LINE
  8
0
  6
CONTINUOUS
 10
63.421242
 20
88.746796
 11
53.921242
 21
88.746796
  0
LINE
  8
0
  6
CONTINUOUS
 10
53.921242
 20
9.337496
 11
63.421242
 21
9.337496
  0
LINE
  8
0
  6
CONTINUOUS
 10
63.421242
 20
19.928196
 11
53.921242
 21
19.928196
  0
LINE
  8
0
  6
CONTINUOUS
 10
53.921242
 20
101.337494
 11
53.921242
 21
7.337496
  0
LINE
  8
0
  6
CONTINUOUS
 10
53.921242
 20
83.337494
 11
9.946240
 21
83.337494
  0
LINE
  8
0
  6
CONTINUOUS
 10
53.921242
 20
25.337496
 11
9.946239
 21
25.337496
  0
LINE
  8
0
  6
CONTINUOUS
 10
63.921242
 20
100.837494
 11
63.921242
 21
99.337494
  0
LINE
  8
0
  6
CONTINUOUS
 10
56.921242
 20
100.837494
 11
56.921242
 21
99.337494
  0
LINE
  8
0
  6
CONTINUOUS
 10
56.921242
 20
100.837494
 11
63.921242
 21
100.837494
  0
LINE
  8
0
  6
CONTINUOUS
 10
61.321239
 20
113.837494
 11
61.321239
 21
100.837494
  0
LINE
  8
0
  6
CONTINUOUS
 10
59.521240
 20
114.462494
 11
59.521240
 21
100.837494
  0
LINE
  8
0
  6
CONTINUOUS
 10
57.721241
 20
112.399994
 11
57.721241
 21
100.837494
  0
LINE
  8
0
  6
CONTINUOUS
 10
63.121239
 20
113.212494
 11
63.121239
 21
100.837494
  0
LINE
  8
0
  6
CONTINUOUS
 10
59.521240
 20
114.462494
 11
61.321239
 21
113.837494
  0
LINE
  8
0
  6
CONTINUOUS
 10
57.721241
 20
112.399994
 11
59.521240
 21
113.024994
  0
LINE
  8
0
  6
CONTINUOUS
 10
63.121239
 20
113.212494
 11
61.322250
 21
112.764786
  0
LINE
  8
0
  6
CONTINUOUS
 10
11.421238
 20
101.337494
 11
53.921242
 21
101.337494
  0
LINE
  8
0
  6
CONTINUOUS
 10
11.421238
 20
7.337496
 11
53.921242
 21
7.337496
  0
ARC
  8
0
  6
CONTINUOUS
 10
11.421263
 20
96.337524
 40
5.000000
 50
90.000000
 51
180.000000
  0
ARC
  8
0
  6
CONTINUOUS
 10
11.421237
 20
12.337496
 40
5.000000
 50
180.000000
 51
270.000000
  0
LINE
  8
0
  6
CONTINUOUS
 10
6.421263
 20
96.337509
 11
6.421238
 21
12.337486
  0
LINE
  8
0
  6
CONTINUOUS
 10
63.421242
 20
9.337496
 11
63.421242
 21
99.337494
  0
LINE
  8
0
  6
CENTER
 10
-5.649688
 20
54.337498
 11
163.750778
 21
54.337498
  0
LINE
  8
0
  6
CONTINUOUS
 10
236.921249
 20
35.537495
 11
236.921249
 21
94.537498
  0
LINE
  8
0
  6
CONTINUOUS
 10
63.421242
 20
99.337494
 11
136.266953
 21
99.337494
  0
LINE
  8
0
  6
CONTINUOUS
 10
133.921249
 20
9.337496
 11
63.421242
 21
9.337496
  0
LINE
  8
0
  6
CENTER
 10
150.932190
 20
80.037498
 11
221.723907
 21
80.037498
  0
LINE
  8
0
  6
CENTER
 10
186.421249
 20
132.587494
 11
186.421249
 21
-3.402804
  0
LINE
  8
0
  6
CONTINUOUS
 10
146.421249
 20
124.037498
 11
226.421249
 21
124.037498
  0
LINE
  8
0
  6
CONTINUOUS
 10
146.421249
 20
6.037496
 11
226.421249
 21
6.037496
  0
LINE
  8
0
  6
CENTER
 10
219.421249
 20
115.037498
 11
233.296249
 21
115.037498
  0
LINE
  8
0
  6
CENTER
 10
226.421249
 20
108.337494
 11
226.421249
 21
121.837494
  0
CIRCLE
  8
0
  6
CONTINUOUS
 10
226.421249
 20
115.037498
 40
4.250000
  0
LINE
  8
0
  6
CENTER
 10
219.421249
 20
15.037496
 11
233.296249
 21
15.037496
  0
LINE
  8
0
  6
CENTER
 10
226.421249
 20
21.737495
 11
226.421249
 21
8.237496
  0
CIRCLE
  8
0
  6
CONTINUOUS
 10
226.421249
 20
15.037496
 40
4.250000
  0
LINE
  8
0
  6
CENTER
 10
153.421249
 20
115.037498
 11
139.546249
 21
115.037498
  0
LINE
  8
0
  6
CENTER
 10
146.421249
 20
108.337494
 11
146.421249
 21
121.837494
  0
CIRCLE
  8
0
  6
CONTINUOUS
 10
146.421249
 20
115.037498
 40
4.250000
  0
LINE
  8
0
  6
CENTER
 10
153.421249
 20
15.037496
 11
139.546249
 21
15.037496
  0
LINE
  8
0
  6
CENTER
 10
146.421249
 20
21.737495
 11
146.421249
 21
8.237496
  0
CIRCLE
  8
0
  6
CONTINUOUS
 10
146.421249
 20
15.037496
 40
4.250000
  0
LINE
  8
0
  6
CONTINUOUS
 10
235.397949
 20
115.684128
 11
236.921249
 21
94.537498
  0
LINE
  8
0
  6
CONTINUOUS
 10
235.397949
 20
14.390936
 11
236.921249
 21
35.537495
  0
LINE
  8
0
  6
CONTINUOUS
 10
160.421249
 20
120.037498
 11
212.421249
 21
120.037498
  0
LINE
  8
0
  6
CONTINUOUS
 10
212.421249
 20
10.037496
 11
160.421249
 21
10.037496
  0
LINE
  8
0
  6
CONTINUOUS
 10
138.421249
 20
80.729683
 11
138.421249
 21
49.344978
  0
ARC
  8
0
  6
CONTINUOUS
 10
186.421249
 20
65.037498
 40
50.500000
 50
18.103800
 51
161.896194
  0
ARC
  8
0
  6
CONTINUOUS
 10
186.421249
 20
65.037498
 40
50.500000
 50
198.103806
 51
341.896210
  0
LINE
  8
0
  6
CONTINUOUS
 10
234.421249
 20
80.729858
 11
234.421249
 21
49.345463
  0
ARC
  8
0
  6
CONTINUOUS
 10
212.421249
 20
115.037498
 40
5.000000
 50
0.000000
 51
90.000000
  0
ARC
  8
0
  6
CONTINUOUS
 10
227.427155
 20
101.073677
 40
5.000000
 50
4.120544
 51
94.120201
  0
ARC
  8
0
  6
CONTINUOUS
 10
226.421249
 20
115.037498
 40
9.000000
 50
180.000000
 51
274.120697
  0
ARC
  8
0
  6
CONTINUOUS
 10
226.421249
 20
115.037498
 40
9.000000
 50
4.120065
 51
90.000000
  0
ARC
  8
0
  6
CONTINUOUS
 10
212.421249
 20
15.037496
 40
5.000000
 50
-90.000000
 51
0.000000
  0
ARC
  8
0
  6
CONTINUOUS
 10
227.427155
 20
29.001316
 40
5.000000
 50
265.879791
 51
355.879486
  0
ARC
  8
0
  6
CONTINUOUS
 10
226.421249
 20
15.037496
 40
9.000000
 50
270.000000
 51
355.879913
  0
ARC
  8
0
  6
CONTINUOUS
 10
226.421249
 20
15.037496
 40
9.000000
 50
85.879837
 51
180.000000
  0
LINE
  8
0
  6
CONTINUOUS
 10
232.414154
 20
101.432953
 11
234.421249
 21
80.729858
  0
LINE
  8
0
  6
CONTINUOUS
 10
232.414154
 20
28.642076
 11
234.421356
 21
49.345459
  0
ARC
  8
0
  6
CONTINUOUS
 10
160.421249
 20
115.037498
 40
5.000000
 50
90.000000
 51
180.000000
  0
ARC
  8
0
  6
CONTINUOUS
 10
146.421249
 20
115.037498
 40
9.000000
 50
-94.120667
 51
0.000000
  0
ARC
  8
0
  6
CONTINUOUS
 10
145.415344
 20
101.073677
 40
5.000000
 50
85.879799
 51
175.879501
  0
LINE
  8
0
  6
CONTINUOUS
 10
140.428253
 20
101.432953
 11
138.421249
 21
80.729858
  0
ARC
  8
0
  6
CONTINUOUS
 10
145.415344
 20
29.001316
 40
5.000000
 50
-175.879501
 51
-85.879791
  0
ARC
  8
0
  6
CONTINUOUS
 10
146.421249
 20
15.037496
 40
9.000000
 50
0.000000
 51
94.120163
  0
ARC
  8
0
  6
CONTINUOUS
 10
160.421249
 20
15.037496
 40
5.000000
 50
180.000000
 51
270.000000
  0
LINE
  8
0
  6
CONTINUOUS
 10
140.428253
 20
28.642076
 11
138.421143
 21
49.345459
  0
ARC
  8
0
  6
CONTINUOUS
 10
146.421249
 20
115.037498
 40
9.000000
 50
90.000000
 51
175.879898
  0
LINE
  8
0
  6
CONTINUOUS
 10
137.444443
 20
115.684128
 11
135.921249
 21
94.537498
  0
LINE
  8
0
  6
CONTINUOUS
 10
137.444443
 20
14.390936
 11
135.921249
 21
35.537495
  0
ARC
  8
0
  6
CONTINUOUS
 10
146.421249
 20
15.037496
 40
9.000000
 50
-175.879898
 51
-90.000000
  0
ARC
  8
0
  6
CONTINUOUS
 10
140.921249
 20
19.337526
 40
5.000000
 50
143.994797
 51
180.000000
  0
ARC
  8
0
  6
CONTINUOUS
 10
133.921249
 20
11.337496
 40
2.000000
 50
-90.000000
 51
0.000000
  0
LINE
  8
0
  6
CONTINUOUS
 10
135.921249
 20
11.337496
 11
135.921249
 21
19.337526
  0
LINE
  8
0
  6
CONTINUOUS
 10
135.921249
 20
94.537498
 11
135.921249
 21
35.537487
  0
LINE
  8
0
  6
CONTINUOUS
 10
63.421242
 20
88.746796
 11
133.921249
 21
88.746796
  0
LINE
  8
0
  6
CONTINUOUS
 10
63.421242
 20
19.928186
 11
134.421249
 21
19.928186
  0
CIRCLE
  8
0
  6
CONTINUOUS
 10
186.421249
 20
80.037498
 40
23.500000
  0
LINE
  8
0
  6
CONTINUOUS
 10
180.046249
 20
42.590725
 11
180.046249
 21
37.037495
  0
LINE
  8
0
  6
CONTINUOUS
 10
183.233749
 20
44.607815
 11
183.233749
 21
46.600002
  0
LINE
  8
0
  6
CONTINUOUS
 10
189.608749
 20
44.607815
 11
189.608749
 21
46.600002
  0
LINE
  8
0
  6
CONTINUOUS
 10
185.798645
 20
45.429588
 11
185.798645
 21
38.083397
  0
LINE
  8
0
  6
CONTINUOUS
 10
186.994049
 20
45.429588
 11
186.994049
 21
38.083397
  0
LINE
  8
0
  6
CONTINUOUS
 10
193.269348
 20
45.429588
 11
193.269348
 21
38.033596
  0
LINE
  8
0
  6
CONTINUOUS
 10
194.365051
 20
41.507477
 11
194.365051
 21
38.033596
  0
LINE
  8
0
  6
CONTINUOUS
 10
178.533752
 20
45.329983
 11
175.461853
 21
45.329983
  0
LINE
  8
0
  6
CONTINUOUS
 10
175.461853
 20
45.329983
 11
174.742050
 21
44.437489
  0
LINE
  8
0
  6
CONTINUOUS
 10
174.828644
 20
46.600002
 11
173.671249
 21
45.118008
  0
LINE
  8
0
  6
CONTINUOUS
 10
174.742050
 20
38.928425
 11
175.473343
 21
38.158108
  0
LINE
  8
0
  6
CONTINUOUS
 10
173.671249
 20
38.278355
 11
174.901047
 21
37.037495
  0
LINE
  8
0
  6
CONTINUOUS
 10
173.671249
 20
45.118008
 11
173.671249
 21
38.278355
  0
LINE
  8
0
  6
CONTINUOUS
 10
174.742050
 20
44.437489
 11
174.742050
 21
38.928425
  0
LINE
  8
0
  6
CONTINUOUS
 10
179.124847
 20
44.758537
 11
178.521652
 21
45.329983
  0
LINE
  8
0
  6
CONTINUOUS
 10
179.115250
 20
46.600002
 11
180.046249
 21
45.566856
  0
LINE
  8
0
  6
CONTINUOUS
 10
179.124847
 20
44.607815
 11
180.046249
 21
44.607815
  0
LINE
  8
0
  6
CONTINUOUS
 10
174.828644
 20
46.600002
 11
179.115250
 21
46.600002
  0
LINE
  8
0
  6
CONTINUOUS
 10
179.124847
 20
41.544827
 11
177.456451
 21
41.544827
  0
LINE
  8
0
  6
CONTINUOUS
 10
179.124847
 20
40.548737
 11
179.124847
 21
41.345608
  0
LINE
  8
0
  6
CONTINUOUS
 10
177.132645
 20
38.158108
 11
175.473343
 21
38.158108
  0
ARC
  8
0
  6
CONTINUOUS
 10
177.132645
 20
40.150295
 40
1.992187
 50
-89.999786
 51
0.000109
  0
LINE
  8
0
  6
CONTINUOUS
 10
179.124847
 20
37.799767
 11
179.124847
 21
37.037495
  0
LINE
  8
0
  6
CONTINUOUS
 10
180.046249
 20
45.566856
 11
180.046249
 21
44.607815
  0
LINE
  8
0
  6
CONTINUOUS
 10
179.124847
 20
41.544827
 11
179.124847
 21
40.150295
  0
LINE
  8
0
  6
CONTINUOUS
 10
177.456451
 20
42.590725
 11
177.456451
 21
41.544827
  0
LINE
  8
0
  6
CONTINUOUS
 10
179.124847
 20
37.037495
 11
180.046249
 21
37.037495
  0
LINE
  8
0
  6
CONTINUOUS
 10
179.124847
 20
37.799767
 11
178.216354
 21
37.037495
  0
LINE
  8
0
  6
CONTINUOUS
 10
186.994049
 20
38.083397
 11
187.392456
 21
38.083397
  0
LINE
  8
0
  6
CONTINUOUS
 10
185.325546
 20
38.083397
 11
185.325546
 21
37.037495
  0
LINE
  8
0
  6
CONTINUOUS
 10
187.392456
 20
38.083397
 11
187.392456
 21
37.037495
  0
LINE
  8
0
  6
CONTINUOUS
 10
188.943756
 20
44.607815
 11
189.608749
 21
44.607815
  0
LINE
  8
0
  6
CONTINUOUS
 10
183.233749
 20
44.607815
 11
183.941345
 21
44.607815
  0
LINE
  8
0
  6
CONTINUOUS
 10
183.233749
 20
46.600002
 11
189.608749
 21
46.600002
  0
LINE
  8
0
  6
CONTINUOUS
 10
185.325546
 20
37.037495
 11
187.392456
 21
37.037495
  0
LINE
  8
0
  6
CONTINUOUS
 10
185.325546
 20
38.083397
 11
185.798645
 21
38.083397
  0
ARC
  8
0
  6
CONTINUOUS
 10
196.618744
 20
44.047504
 40
2.552490
 50
-73.981873
 51
90.003510
  0
ARC
  8
0
  6
CONTINUOUS
 10
196.618744
 20
44.047504
 40
1.557193
 50
-82.585274
 51
62.411850
  0
LINE
  8
0
  6
CONTINUOUS
 10
192.796249
 20
46.600002
 11
196.618744
 21
46.600002
  0
LINE
  8
0
  6
CONTINUOUS
 10
192.796249
 20
46.600002
 11
192.796249
 21
45.429588
  0
LINE
  8
0
  6
CONTINUOUS
 10
194.365051
 20
45.429588
 11
194.365051
 21
42.503338
  0
LINE
  8
0
  6
CONTINUOUS
 10
197.323151
 20
41.594128
 11
198.902954
 21
38.033596
  0
LINE
  8
0
  6
CONTINUOUS
 10
196.405548
 20
41.507477
 11
197.900650
 21
38.033596
  0
LINE
  8
0
  6
CONTINUOUS
 10
192.796249
 20
38.033596
 11
193.269348
 21
38.033596
  0
LINE
  8
0
  6
CONTINUOUS
 10
194.365051
 20
38.033596
 11
194.800858
 21
38.033596
  0
LINE
  8
0
  6
CONTINUOUS
 10
194.800858
 20
37.037495
 11
192.796249
 21
37.037495
  0
LINE
  8
0
  6
CONTINUOUS
 10
197.702057
 20
38.033596
 11
197.900650
 21
38.033596
  0
LINE
  8
0
  6
CONTINUOUS
 10
198.902954
 20
38.033596
 11
199.171249
 21
38.033596
  0
LINE
  8
0
  6
CONTINUOUS
 10
197.702057
 20
37.037495
 11
199.171249
 21
37.037495
  0
LINE
  8
0
  6
CONTINUOUS
 10
199.171249
 20
38.033596
 11
199.171249
 21
37.037495
  0
LINE
  8
0
  6
CONTINUOUS
 10
197.702057
 20
38.033596
 11
197.702057
 21
37.037495
  0
LINE
  8
0
  6
CONTINUOUS
 10
194.800858
 20
38.033596
 11
194.800858
 21
37.037495
  0
LINE
  8
0
  6
CONTINUOUS
 10
192.796249
 20
38.033596
 11
192.796249
 21
37.037495
  0
LINE
  8
0
  6
CONTINUOUS
 10
184.283752
 20
45.429588
 11
183.941345
 21
44.607815
  0
LINE
  8
0
  6
CONTINUOUS
 10
188.655045
 20
45.429588
 11
188.943756
 21
44.607815
  0
LINE
  8
0
  6
CONTINUOUS
 10
186.994049
 20
45.429588
 11
188.655045
 21
45.429588
  0
LINE
  8
0
  6
CONTINUOUS
 10
185.798645
 20
45.429588
 11
184.283752
 21
45.429588
  0
LINE
  8
0
  6
CONTINUOUS
 10
192.796249
 20
45.429588
 11
193.269348
 21
45.429588
  0
LINE
  8
0
  6
CONTINUOUS
 10
194.365051
 20
45.429588
 11
197.339951
 21
45.427654
  0
LINE
  8
0
  6
CONTINUOUS
 10
179.124847
 20
44.758537
 11
179.124847
 21
44.607815
  0
LINE
  8
0
  6
CONTINUOUS
 10
174.901047
 20
37.037495
 11
178.216354
 21
37.037495
  0
LINE
  8
0
  6
CONTINUOUS
 10
194.365051
 20
42.503338
 11
196.819748
 21
42.503338
  0
LINE
  8
0
  6
CONTINUOUS
 10
194.365051
 20
41.507477
 11
196.405548
 21
41.507477
  0
LINE
  8
0
  6
CONTINUOUS
 10
177.456451
 20
42.590725
 11
180.046249
 21
42.590725
  0
LINE
  8
0
  6
CONTINUOUS
 10
172.421249
 20
119.106293
 11
172.421249
 21
113.558105
  0
LINE
  8
0
  6
CONTINUOUS
 10
200.421249
 20
119.106293
 11
200.421249
 21
113.558113
  0
LINE
  8
0
  6
CONTINUOUS
 10
172.421249
 20
16.516886
 11
172.421249
 21
11.242866
  0
LINE
  8
0
  6
CONTINUOUS
 10
200.421249
 20
16.516886
 11
200.421249
 21
11.242866
  0
LINE
  8
0
  6
CENTER
 10
386.421265
 20
-0.662504
 11
386.421265
 21
129.837494
  0
LINE
  8
0
  6
CONTINUOUS
 10
344.421265
 20
102.537483
 11
344.421265
 21
57.537491
  0
LINE
  8
0
  6
CONTINUOUS
 10
423.421265
 20
115.089378
 11
423.421265
 21
14.985576
  0
LINE
  8
0
  6
CENTER
 10
304.921265
 20
80.037498
 11
438.954346
 21
80.037498
  0
LINE
  8
0
  6
CONTINUOUS
 10
348.421265
 20
103.537498
 11
345.421265
 21
103.537498
  0
LINE
  8
0
  6
CONTINUOUS
 10
348.421265
 20
56.537495
 11
345.421265
 21
56.537495
  0
LINE
  8
0
  6
CONTINUOUS
 10
346.886658
 20
124.037498
 11
338.421265
 21
124.037498
  0
LINE
  8
0
  6
CONTINUOUS
 10
346.886658
 20
6.037496
 11
338.421265
 21
6.037496
  0
LINE
  8
0
  6
CONTINUOUS
 10
420.473541
 20
118.088936
 11
350.386353
 21
119.312027
  0
LINE
  8
0
  6
CONTINUOUS
 10
351.944336
 20
10.789606
 11
420.473663
 21
11.986046
  0
LINE
  8
0
  6
CONTINUOUS
 10
421.735748
 20
94.537498
 11
353.587036
 21
94.537498
  0
LINE
  8
0
  6
CONTINUOUS
 10
421.735748
 20
35.537495
 11
351.421265
 21
35.537495
  0
ARC
  8
0
  6
CONTINUOUS
 10
420.421265
 20
115.089378
 40
3.000000
 50
0.000000
 51
89.000359
  0
ARC
  8
0
  6
CONTINUOUS
 10
420.421265
 20
14.985576
 40
3.000000
 50
-88.999687
 51
0.000000
  0
ARC
  8
0
  6
CONTINUOUS
 10
351.421265
 20
32.537518
 40
3.000000
 50
90.000000
 51
180.000000
  0
LINE
  8
0
  6
CENTER
 10
333.358765
 20
15.037496
 11
353.108765
 21
15.037496
  0
LINE
  8
0
  6
CENTER
 10
335.108765
 20
115.037498
 11
352.108765
 21
115.037498
  0
LINE
  8
0
  6
DASHED
 10
338.421265
 20
110.787498
 11
348.421265
 21
110.787498
  0
LINE
  8
0
  6
DASHED
 10
338.421265
 20
119.287498
 11
348.421265
 21
119.287498
  0
LINE
  8
0
  6
DASHED
 10
338.421265
 20
19.287497
 11
348.421265
 21
19.287497
  0
LINE
  8
0
  6
DASHED
 10
338.421265
 20
10.787496
 11
348.421265
 21
10.787496
  0
LINE
  8
0
  6
CONTINUOUS
 10
360.421265
 20
9.337496
 11
412.421265
 21
9.337496
  0
ARC
  8
0
  6
CONTINUOUS
 10
412.421265
 20
12.337496
 40
3.000000
 50
270.000000
 51
351.561890
  0
ARC
  8
0
  6
CONTINUOUS
 10
360.421265
 20
12.337496
 40
3.000000
 50
208.811905
 51
270.000000
  0
ARC
  8
0
  6
CONTINUOUS
 10
345.421265
 20
57.537491
 40
1.000000
 50
180.000000
 51
270.000000
  0
ARC
  8
0
  6
CONTINUOUS
 10
345.421265
 20
102.537483
 40
1.000000
 50
90.000000
 51
180.000000
  0
ARC
  8
0
  6
CONTINUOUS
 10
386.421265
 20
54.337498
 40
45.000000
 50
-34.692108
 51
21.039440
  0
LINE
  8
0
  6
CONTINUOUS
 10
428.421265
 20
102.537483
 11
428.421265
 21
57.537491
  0
LINE
  8
0
  6
CONTINUOUS
 10
425.421265
 20
103.537498
 11
427.421265
 21
103.537498
  0
LINE
  8
0
  6
CONTINUOUS
 10
425.421265
 20
56.537495
 11
427.421265
 21
56.537495
  0
ARC
  8
0
  6
CONTINUOUS
 10
425.421265
 20
105.537498
 40
2.000000
 50
180.000000
 51
270.000000
  0
ARC
  8
0
  6
CONTINUOUS
 10
425.421265
 20
54.537502
 40
2.000000
 50
90.000000
 51
180.000000
  0
ARC
  8
0
  6
CONTINUOUS
 10
427.421265
 20
57.537491
 40
1.000000
 50
-90.000000
 51
0.000000
  0
ARC
  8
0
  6
CONTINUOUS
 10
427.421265
 20
102.537483
 40
1.000000
 50
0.000000
 51
90.000000
  0
LINE
  8
0
  6
CONTINUOUS
 10
338.421265
 20
107.753616
 11
345.858765
 21
106.774994
  0
LINE
  8
0
  6
CONTINUOUS
 10
345.858765
 20
106.774994
 11
350.858765
 21
103.524994
  0
LINE
  8
0
  6
CONTINUOUS
 10
353.772858
 20
94.109993
 11
355.233765
 21
93.149994
  0
LINE
  8
0
  6
CONTINUOUS
 10
355.233765
 20
93.149994
 11
354.733765
 21
87.149994
  0
LINE
  8
0
  6
CONTINUOUS
 10
354.733765
 20
87.149994
 11
352.733765
 21
83.649994
  0
LINE
  8
0
  6
CONTINUOUS
 10
352.733765
 20
83.649994
 11
354.608765
 21
78.149994
  0
LINE
  8
0
  6
CONTINUOUS
 10
354.608765
 20
78.149994
 11
353.983765
 21
72.399994
  0
LINE
  8
0
  6
CONTINUOUS
 10
353.983765
 20
72.399994
 11
353.358765
 21
66.149994
  0
LINE
  8
0
  6
CONTINUOUS
 10
353.358765
 20
66.149994
 11
354.483765
 21
61.524998
  0
LINE
  8
0
  6
CONTINUOUS
 10
354.483765
 20
61.524998
 11
353.358765
 21
57.274998
  0
LINE
  8
0
  6
CONTINUOUS
 10
353.358765
 20
57.274998
 11
350.108765
 21
52.399998
  0
LINE
  8
0
  6
CONTINUOUS
 10
350.108765
 20
52.399998
 11
345.608765
 21
50.399998
  0
LINE
  8
0
  6
CONTINUOUS
 10
345.608765
 20
50.399998
 11
341.358765
 21
47.774998
  0
LINE
  8
0
  6
CONTINUOUS
 10
341.358765
 20
47.774998
 11
338.421265
 21
47.378036
  0
LINE
  8
0
  6
CONTINUOUS
 10
350.858765
 20
103.524994
 11
351.608765
 21
99.087494
  0
LINE
  8
0
  6
CONTINUOUS
 10
351.608765
 20
99.087494
 11
353.772858
 21
94.109993
  0
LINE
  8
0
  6
CONTINUOUS
 10
348.421265
 20
122.037498
 11
348.421265
 21
51.649994
  0
LINE
  8
0
  6
CONTINUOUS
 10
348.421265
 20
8.762716
 11
348.421265
 21
8.037496
  0
LINE
  8
0
  6
CONTINUOUS
 10
338.421265
 20
124.037498
 11
338.421265
 21
89.037498
  0
LINE
  8
0
  6
CONTINUOUS
 10
338.421265
 20
6.037496
 11
338.421265
 21
71.037498
  0
LINE
  8
0
  6
CENTER
 10
333.171265
 20
54.337498
 11
442.671265
 21
54.337498
  0
ARC
  8
0
  6
CONTINUOUS
 10
346.421265
 20
122.037483
 40
2.000000
 50
0.000000
 51
90.000000
  0
ARC
  8
0
  6
CONTINUOUS
 10
346.886658
 20
122.037483
 40
2.000000
 50
15.000500
 51
90.000000
  0
ARC
  8
0
  6
CONTINUOUS
 10
350.421265
 20
121.311745
 40
2.000000
 50
180.000000
 51
269.000610
  0
ARC
  8
0
  6
CONTINUOUS
 10
351.996857
 20
122.284393
 40
3.000000
 50
195.000504
 51
269.000610
  0
LINE
  8
0
  6
CONTINUOUS
 10
348.818451
 20
122.555138
 11
349.099060
 21
121.507896
  0
LINE
  8
0
  6
CONTINUOUS
 10
349.098938
 20
8.566526
 11
348.818451
 21
7.519866
  0
ARC
  8
0
  6
CONTINUOUS
 10
346.421265
 20
8.037496
 40
2.000000
 50
-90.000000
 51
0.000000
  0
ARC
  8
0
  6
CONTINUOUS
 10
346.886658
 20
8.037506
 40
2.000000
 50
270.000000
 51
345.000000
  0
LINE
  8
0
  6
CONTINUOUS
 10
348.421265
 20
8.762716
 11
348.421265
 21
32.537506
  0
ARC
  8
0
  6
CONTINUOUS
 10
350.421265
 20
8.762726
 40
2.000000
 50
91.000633
 51
180.000000
  0
LINE
  8
0
  6
CONTINUOUS
 10
351.944336
 20
10.789606
 11
350.386353
 21
10.762416
  0
ARC
  8
0
  6
CONTINUOUS
 10
351.996643
 20
7.790076
 40
3.000000
 50
91.000526
 51
165.000107
  0
LINE
  8
0
  6
CONTINUOUS
 10
433.421265
 20
80.437996
 11
433.421265
 21
28.236986
  0
LINE
  8
0
  6
CONTINUOUS
 10
412.521759
 20
7.337496
 11
360.320740
 21
7.337496
  0
LINE
  8
0
  6
CONTINUOUS
 10
431.370941
 20
85.387749
 11
428.421265
 21
88.337479
  0
LINE
  8
0
  6
CONTINUOUS
 10
355.370941
 20
9.387736
 11
353.934357
 21
10.824346
  0
ARC
  8
0
  6
CONTINUOUS
 10
360.320740
 20
14.337496
 40
7.000000
 50
225.000107
 51
270.000000
  0
ARC
  8
0
  6
CONTINUOUS
 10
412.521759
 20
14.337496
 40
7.000000
 50
270.000000
 51
315.000000
  0
ARC
  8
0
  6
CONTINUOUS
 10
426.421265
 20
28.236977
 40
7.000000
 50
-44.999882
 51
0.000000
  0
ARC
  8
0
  6
CONTINUOUS
 10
426.421265
 20
80.437973
 40
7.000000
 50
0.000000
 51
45.000229
  0
LINE
  8
0
  6
CONTINUOUS
 10
431.370941
 20
23.287247
 11
423.421265
 21
15.337496
  0
LINE
  8
0
  6
CONTINUOUS
 10
417.471558
 20
9.387746
 11
420.062653
 21
11.978866
  0
LINE
  8
0
  6
CONTINUOUS
 10
312.421265
 20
71.037498
 11
312.421265
 21
89.037498
  0
LINE
  8
0
  6
CONTINUOUS
 10
342.421265
 20
89.037498
 11
312.421265
 21
89.037498
  0
LINE
  8
0
  6
CONTINUOUS
 10
342.421265
 20
71.037498
 11
312.421265
 21
71.037498
  0
LINE
  8
0
  6
CONTINUOUS
 10
342.421265
 20
90.037498
 11
342.421265
 21
70.037498
  0
LINE
  8
0
  6
CONTINUOUS
 10
344.421265
 20
90.037498
 11
342.421265
 21
90.037498
  0
LINE
  8
0
  6
CONTINUOUS
 10
344.421265
 20
70.037498
 11
342.421265
 21
70.037498
  0
ARC
  8
0
  6
CONTINUOUS
 10
336.421265
 20
80.037498
 40
3.000000
 50
-90.000000
 51
90.000000
  0
LINE
  8
0
  6
CONTINUOUS
 10
336.421265
 20
83.037498
 11
312.421265
 21
83.037498
  0
LINE
  8
0
  6
CONTINUOUS
 10
336.421265
 20
77.037498
 11
312.421265
 21
77.037498
  0
LINE
  8
0
  6
CONTINUOUS
 10
191.921249
 20
77.037514
 11
191.921249
 21
83.037514
  0
LINE
  8
0
  6
CONTINUOUS
 10
197.921249
 20
77.037537
 11
197.921249
 21
83.037537
  0
LINE
  8
0
  6
CONTINUOUS
 10
197.921249
 20
77.037537
 11
191.921249
 21
77.037514
  0
LINE
  8
0
  6
CONTINUOUS
 10
197.921249
 20
83.037537
 11
191.921249
 21
83.037514
  0
ARC
  8
0
  6
CONTINUOUS
 10
186.421249
 20
80.037498
 40
9.000000
 50
19.471210
 51
340.528809
  0
LINE
  8
0
  6
CENTER
 10
186.421249
 20
295.963440
 11
186.421249
 21
160.500931
  0
LINE
  8
0
  6
CENTER
 10
-9.151562
 20
240.794067
 11
250.562500
 21
240.794067
  0
LINE
  8
0
  6
CONTINUOUS
 10
232.747131
 20
277.794067
 11
137.869568
 21
277.794067
  0
LINE
  8
0
  6
CONTINUOUS
 10
135.711838
 20
269.796814
 11
135.870255
 21
275.846405
  0
LINE
  8
0
  6
CONTINUOUS
 10
133.763443
 20
285.794067
 11
63.421249
 21
285.794067
  0
LINE
  8
0
  6
CONTINUOUS
 10
63.421249
 20
269.794067
 11
142.763794
 21
269.794067
  0
LINE
  8
0
  6
CONTINUOUS
 10
63.421249
 20
211.794067
 11
134.038132
 21
211.794067
  0
LINE
  8
0
  6
CONTINUOUS
 10
133.894379
 20
195.794067
 11
63.421249
 21
195.794067
  0
LINE
  8
0
  6
CONTINUOUS
 10
134.664322
 20
240.794067
 11
135.921249
 21
192.794067
  0
LINE
  8
0
  6
CONTINUOUS
 10
169.421249
 20
272.794067
 11
169.421249
 21
204.794067
  0
LINE
  8
0
  6
CONTINUOUS
 10
203.421249
 20
272.794067
 11
203.421249
 21
204.794067
  0
LINE
  8
0
  6
CONTINUOUS
 10
142.763794
 20
267.794067
 11
142.763794
 21
204.329056
  0
LINE
  8
0
  6
CONTINUOUS
 10
208.921249
 20
282.794067
 11
163.921249
 21
282.794067
  0
LINE
  8
0
  6
CONTINUOUS
 10
162.921249
 20
281.794067
 11
162.921249
 21
279.794067
  0
LINE
  8
0
  6
CONTINUOUS
 10
209.921249
 20
281.794067
 11
209.921249
 21
279.794067
  0
ARC
  8
0
  6
CONTINUOUS
 10
160.921249
 20
279.794067
 40
2.000000
 50
-90.000000
 51
0.000000
  0
ARC
  8
0
  6
CONTINUOUS
 10
211.921249
 20
279.794067
 40
2.000000
 50
180.000000
 51
270.000000
  0
ARC
  8
0
  6
CONTINUOUS
 10
163.921265
 20
281.794067
 40
1.000000
 50
90.000000
 51
180.000000
  0
ARC
  8
0
  6
CONTINUOUS
 10
208.921249
 20
281.794067
 40
1.000000
 50
0.000000
 51
90.000000
  0
LINE
  8
0
  6
CONTINUOUS
 10
197.921249
 20
166.794067
 11
177.421249
 21
166.794067
  0
LINE
  8
0
  6
CONTINUOUS
 10
177.421249
 20
192.794067
 11
177.421249
 21
166.794067
  0
LINE
  8
0
  6
CONTINUOUS
 10
197.921249
 20
166.794067
 11
197.921249
 21
192.794067
  0
LINE
  8
0
  6
CONTINUOUS
 10
194.906250
 20
166.794067
 11
194.906250
 21
192.794067
  0
LINE
  8
0
  6
CONTINUOUS
 10
135.921249
 20
192.794067
 11
236.921249
 21
192.794067
  0
LINE
  8
0
  6
CONTINUOUS
 10
234.746445
 20
275.846405
 11
236.921249
 21
192.794067
  0
LINE
  8
0
  6
CONTINUOUS
 10
137.712448
 20
202.794067
 11
234.711075
 21
202.794067
  0
ARC
  8
0
  6
CONTINUOUS
 10
234.711075
 20
200.794067
 40
2.000000
 50
1.500000
 51
90.000000
  0
ARC
  8
0
  6
CONTINUOUS
 10
232.747131
 20
275.794067
 40
2.000000
 50
1.500000
 51
90.000000
  0
ARC
  8
0
  6
CONTINUOUS
 10
205.421249
 20
204.794067
 40
2.000000
 50
180.000000
 51
270.000000
  0
ARC
  8
0
  6
CONTINUOUS
 10
167.421249
 20
204.794067
 40
2.000000
 50
-90.000000
 51
0.000000
  0
LINE
  8
0
  6
CONTINUOUS
 10
169.279312
 20
204.054062
 11
203.563187
 21
204.054062
  0
ARC
  8
0
  6
CONTINUOUS
 10
137.712448
 20
200.794067
 40
2.000000
 50
90.000000
 51
181.500000
  0
ARC
  8
0
  6
CONTINUOUS
 10
133.894379
 20
193.794067
 40
2.000000
 50
1.500000
 51
90.000000
  0
LINE
  8
0
  6
CONTINUOUS
 10
135.762772
 20
283.846405
 11
135.870255
 21
279.741699
  0
ARC
  8
0
  6
CONTINUOUS
 10
133.763443
 20
283.794067
 40
2.000000
 50
1.500000
 51
90.000000
  0
ARC
  8
0
  6
CONTINUOUS
 10
137.869568
 20
279.794067
 40
2.000000
 50
181.500000
 51
270.000000
  0
ARC
  8
0
  6
CONTINUOUS
 10
137.869568
 20
275.794067
 40
2.000000
 50
90.000000
 51
178.500000
  0
LINE
  8
0
  6
CENTER
 10
226.421249
 20
185.105469
 11
226.421249
 21
208.968124
  0
LINE
  8
0
  6
DASHED
 10
230.671249
 20
202.794067
 11
230.671249
 21
192.794067
  0
LINE
  8
0
  6
DASHED
 10
222.171249
 20
202.794067
 11
222.171249
 21
192.794067
  0
LINE
  8
0
  6
CENTER
 10
146.421249
 20
185.105469
 11
146.421249
 21
208.968124
  0
LINE
  8
0
  6
DASHED
 10
142.171249
 20
202.794067
 11
142.171249
 21
192.794067
  0
LINE
  8
0
  6
DASHED
 10
150.671249
 20
202.794067
 11
150.671249
 21
192.794067
  0
LINE
  8
0
  6
CONTINUOUS
 10
53.921249
 20
285.794067
 11
63.421249
 21
285.794067
  0
LINE
  8
0
  6
CONTINUOUS
 10
63.421249
 20
269.794067
 11
53.921249
 21
269.794067
  0
LINE
  8
0
  6
CONTINUOUS
 10
53.921249
 20
195.794067
 11
63.421249
 21
195.794067
  0
LINE
  8
0
  6
CONTINUOUS
 10
63.421249
 20
195.794067
 11
63.421249
 21
233.928040
  0
LINE
  8
0
  6
CONTINUOUS
 10
63.421249
 20
211.794067
 11
53.921249
 21
211.794067
  0
LINE
  8
0
  6
CONTINUOUS
 10
56.921249
 20
234.794067
 11
56.921249
 21
246.794067
  0
LINE
  8
0
  6
CONTINUOUS
 10
63.921249
 20
234.794067
 11
63.921249
 21
246.794067
  0
LINE
  8
0
  6
CONTINUOUS
 10
57.921249
 20
247.794067
 11
62.921249
 21
247.794067
  0
LINE
  8
0
  6
CONTINUOUS
 10
62.921249
 20
233.794067
 11
57.921249
 21
233.794067
  0
ARC
  8
0
  6
CONTINUOUS
 10
62.921249
 20
246.794067
 40
1.000000
 50
0.000000
 51
90.000000
  0
ARC
  8
0
  6
CONTINUOUS
 10
57.921249
 20
246.794067
 40
1.000000
 50
90.000000
 51
180.000000
  0
ARC
  8
0
  6
CONTINUOUS
 10
57.921249
 20
234.794067
 40
1.000000
 50
180.000000
 51
270.000000
  0
ARC
  8
0
  6
CONTINUOUS
 10
62.921249
 20
234.794067
 40
1.000000
 50
-90.000000
 51
0.000000
  0
LINE
  8
0
  6
CONTINUOUS
 10
61.421249
 20
237.294067
 11
61.421249
 21
244.294067
  0
LINE
  8
0
  6
CONTINUOUS
 10
59.421249
 20
237.294067
 11
59.421249
 21
244.294067
  0
ARC
  8
0
  6
CONTINUOUS
 10
60.421249
 20
244.294067
 40
1.000000
 50
90.000000
 51
180.000000
  0
ARC
  8
0
  6
CONTINUOUS
 10
60.421249
 20
244.294067
 40
1.000000
 50
0.000000
 51
90.000000
  0
ARC
  8
0
  6
CONTINUOUS
 10
60.421249
 20
237.294067
 40
1.000000
 50
180.000000
 51
270.000000
  0
ARC
  8
0
  6
CONTINUOUS
 10
60.421249
 20
237.294067
 40
1.000000
 50
-90.000000
 51
0.000000
  0
LINE
  8
0
  6
CONTINUOUS
 10
63.421249
 20
247.660080
 11
63.421249
 21
285.794067
  0
LINE
  8
0
  6
CONTINUOUS
 10
53.921249
 20
287.794067
 11
53.921249
 21
193.794067
  0
LINE
  8
0
  6
CONTINUOUS
 10
53.921249
 20
269.794067
 11
9.946220
 21
269.794067
  0
LINE
  8
0
  6
CONTINUOUS
 10
53.921249
 20
211.794067
 11
9.946220
 21
211.794067
  0
LINE
  8
0
  6
CONTINUOUS
 10
11.421230
 20
287.794067
 11
53.921249
 21
287.794067
  0
LINE
  8
0
  6
CONTINUOUS
 10
11.421230
 20
193.794067
 11
53.921249
 21
193.794067
  0
ARC
  8
0
  6
CONTINUOUS
 10
11.421260
 20
282.794067
 40
5.000000
 50
90.000000
 51
180.000000
  0
ARC
  8
0
  6
CONTINUOUS
 10
11.421230
 20
198.794067
 40
5.000000
 50
180.000000
 51
270.000000
  0
LINE
  8
0
  6
CONTINUOUS
 10
6.421260
 20
282.794067
 11
6.421230
 21
198.794052
  0
TEXT
  8
0
 10
-9.000000
 20
-3.000000
 40
4.000000
 41
1.000000
  1
HFM-18R-10~240-S60W
 50
0.000000
  0
ENDSEC
  0
EOF
