  0
SECTION
  2
HEADER
  9
$CLAYER
  8
1
  9
$LTSCALE
 40
3.0
  0
ENDSEC
  0
SECTION
  2
TABLES
  0
TABLE
  2
LTYPE
 70
     4
  0
LTYPE
  2
CONTINUOUS
  3
solid line
 70
    64
 72
    65
 73
     0
 40
0.0
  0
LTYPE
  2
DASHED
  3
__ __ __ __ __ __ __ __ __ __ __ __ __ __ __
 70
    64
 72
    65
 73
     2
 40
0.75
 49
0.5
 49
-0.25
  0
LTYPE
  2
CENTER
  3
____ _ ____ _ ____ _ ____ _ ____ _ ____ _ ____
 70
    64
 72
    65
 73
     4
 40
2.0
 49
1.25
 49
-0.25
 49
0.25
 49
-0.25
  0
LTYPE
  2
PHANTOM
  3
_____ _ _ _____ _ _ _____ _ _ _____ _ _ ____
 70
    64
 72
    65
 73
     6
 40
2.5
 49
1.25
 49
-0.25
 49
0.25
 49
-0.25
 49
0.25
 49
-0.25
  0
ENDTAB
  0
TABLE
  2
LAYER
 70
     1
  0
LAYER
  2
0
 70
    64
 62
     7
  6
CONTINUOUS
  0
ENDTAB
  0
TABLE
  2
STYLE
 70
     1
  0
STYLE
  2
STANDARD
 70
     0
 40
0.000000
 41
1.000000
 50
0.000000
 71
     0
 42
3.000000
  3
txt
  4
BIGFONT
  0
ENDTAB
  0
ENDSEC
  0
SECTION
  2
BLOCKS
  0
ENDSEC
  0
SECTION
  2
ENTITIES
  0
LINE
  8
0
  6
CONTINUOUS
 10
52.613739
 20
96.149994
 11
62.113739
 21
96.149994
  0
LINE
  8
0
  6
CONTINUOUS
 10
62.113739
 20
85.559296
 11
52.613739
 21
85.559296
  0
LINE
  8
0
  6
CONTINUOUS
 10
52.613739
 20
6.149996
 11
62.113739
 21
6.149996
  0
LINE
  8
0
  6
CONTINUOUS
 10
62.113739
 20
16.740696
 11
52.613739
 21
16.740696
  0
LINE
  8
0
  6
CONTINUOUS
 10
52.613739
 20
98.149994
 11
52.613739
 21
4.149996
  0
LINE
  8
0
  6
CONTINUOUS
 10
52.613739
 20
80.149994
 11
8.638740
 21
80.149994
  0
LINE
  8
0
  6
CONTINUOUS
 10
52.613739
 20
22.149996
 11
8.638739
 21
22.149996
  0
LINE
  8
0
  6
CONTINUOUS
 10
10.113738
 20
98.149994
 11
52.613739
 21
98.149994
  0
LINE
  8
0
  6
CONTINUOUS
 10
10.113738
 20
4.149996
 11
52.613739
 21
4.149996
  0
ARC
  8
0
  6
CONTINUOUS
 10
10.113763
 20
93.150024
 40
5.000000
 50
90.000000
 51
180.000000
  0
ARC
  8
0
  6
CONTINUOUS
 10
10.113737
 20
9.149996
 40
5.000000
 50
180.000000
 51
270.000000
  0
LINE
  8
0
  6
CONTINUOUS
 10
5.113763
 20
93.150009
 11
5.113738
 21
9.149986
  0
LINE
  8
0
  6
CONTINUOUS
 10
62.113739
 20
6.149996
 11
62.113739
 21
96.149994
  0
LINE
  8
0
  6
CENTER
 10
-6.957188
 20
51.149998
 11
162.443283
 21
51.149998
  0
LINE
  8
0
  6
CONTINUOUS
 10
235.613754
 20
32.349995
 11
235.613754
 21
91.349998
  0
LINE
  8
0
  6
CONTINUOUS
 10
62.113739
 20
96.149994
 11
134.959457
 21
96.149994
  0
LINE
  8
0
  6
CONTINUOUS
 10
132.613754
 20
6.149996
 11
62.113739
 21
6.149996
  0
LINE
  8
0
  6
CENTER
 10
149.337494
 20
76.849998
 11
220.559998
 21
76.849998
  0
LINE
  8
0
  6
CENTER
 10
185.113754
 20
129.399994
 11
185.113754
 21
-6.590304
  0
LINE
  8
0
  6
CONTINUOUS
 10
145.113754
 20
120.849998
 11
225.113754
 21
120.849998
  0
LINE
  8
0
  6
CONTINUOUS
 10
145.113754
 20
2.849996
 11
225.113754
 21
2.849996
  0
LINE
  8
0
  6
CENTER
 10
218.113754
 20
111.849998
 11
231.988754
 21
111.849998
  0
LINE
  8
0
  6
CENTER
 10
225.113754
 20
105.149994
 11
225.113754
 21
118.649994
  0
CIRCLE
  8
0
  6
CONTINUOUS
 10
225.113754
 20
111.849998
 40
4.250000
  0
LINE
  8
0
  6
CENTER
 10
218.113754
 20
11.849996
 11
231.988754
 21
11.849996
  0
LINE
  8
0
  6
CENTER
 10
225.113754
 20
18.549995
 11
225.113754
 21
5.049996
  0
CIRCLE
  8
0
  6
CONTINUOUS
 10
225.113754
 20
11.849996
 40
4.250000
  0
LINE
  8
0
  6
CENTER
 10
152.113754
 20
111.849998
 11
138.238754
 21
111.849998
  0
LINE
  8
0
  6
CENTER
 10
145.113754
 20
105.149994
 11
145.113754
 21
118.649994
  0
CIRCLE
  8
0
  6
CONTINUOUS
 10
145.113754
 20
111.849998
 40
4.250000
  0
LINE
  8
0
  6
CENTER
 10
152.113754
 20
11.849996
 11
138.238754
 21
11.849996
  0
LINE
  8
0
  6
CENTER
 10
145.113754
 20
18.549995
 11
145.113754
 21
5.049996
  0
CIRCLE
  8
0
  6
CONTINUOUS
 10
145.113754
 20
11.849996
 40
4.250000
  0
LINE
  8
0
  6
CONTINUOUS
 10
234.090454
 20
112.496628
 11
235.613754
 21
91.349998
  0
LINE
  8
0
  6
CONTINUOUS
 10
234.090454
 20
11.203436
 11
235.613754
 21
32.349995
  0
LINE
  8
0
  6
CONTINUOUS
 10
159.113754
 20
116.849998
 11
211.113754
 21
116.849998
  0
LINE
  8
0
  6
CONTINUOUS
 10
211.113754
 20
6.849996
 11
159.113754
 21
6.849996
  0
LINE
  8
0
  6
CONTINUOUS
 10
137.113754
 20
77.542183
 11
137.113754
 21
46.157478
  0
ARC
  8
0
  6
CONTINUOUS
 10
185.113754
 20
61.849995
 40
50.500000
 50
18.103800
 51
161.896194
  0
ARC
  8
0
  6
CONTINUOUS
 10
185.113754
 20
61.849995
 40
50.500000
 50
198.103806
 51
341.896210
  0
LINE
  8
0
  6
CONTINUOUS
 10
233.113754
 20
77.542358
 11
233.113754
 21
46.157963
  0
ARC
  8
0
  6
CONTINUOUS
 10
211.113754
 20
111.849998
 40
5.000000
 50
0.000000
 51
90.000000
  0
ARC
  8
0
  6
CONTINUOUS
 10
226.119644
 20
97.886177
 40
5.000000
 50
4.120544
 51
94.120201
  0
ARC
  8
0
  6
CONTINUOUS
 10
225.113754
 20
111.849998
 40
9.000000
 50
180.000000
 51
274.120697
  0
ARC
  8
0
  6
CONTINUOUS
 10
225.113754
 20
111.849998
 40
9.000000
 50
4.120065
 51
90.000000
  0
ARC
  8
0
  6
CONTINUOUS
 10
211.113754
 20
11.849996
 40
5.000000
 50
-90.000000
 51
0.000000
  0
ARC
  8
0
  6
CONTINUOUS
 10
226.119644
 20
25.813816
 40
5.000000
 50
265.879791
 51
355.879486
  0
ARC
  8
0
  6
CONTINUOUS
 10
225.113754
 20
11.849996
 40
9.000000
 50
270.000000
 51
355.879913
  0
ARC
  8
0
  6
CONTINUOUS
 10
225.113754
 20
11.849996
 40
9.000000
 50
85.879837
 51
180.000000
  0
LINE
  8
0
  6
CONTINUOUS
 10
231.106644
 20
98.245453
 11
233.113754
 21
77.542358
  0
LINE
  8
0
  6
CONTINUOUS
 10
231.106644
 20
25.454576
 11
233.113846
 21
46.157959
  0
ARC
  8
0
  6
CONTINUOUS
 10
159.113754
 20
111.849998
 40
5.000000
 50
90.000000
 51
180.000000
  0
ARC
  8
0
  6
CONTINUOUS
 10
145.113754
 20
111.849998
 40
9.000000
 50
-94.120667
 51
0.000000
  0
ARC
  8
0
  6
CONTINUOUS
 10
144.107849
 20
97.886177
 40
5.000000
 50
85.879799
 51
175.879501
  0
LINE
  8
0
  6
CONTINUOUS
 10
139.120743
 20
98.245453
 11
137.113754
 21
77.542358
  0
ARC
  8
0
  6
CONTINUOUS
 10
144.107849
 20
25.813816
 40
5.000000
 50
-175.879501
 51
-85.879791
  0
ARC
  8
0
  6
CONTINUOUS
 10
145.113754
 20
11.849996
 40
9.000000
 50
0.000000
 51
94.120163
  0
ARC
  8
0
  6
CONTINUOUS
 10
159.113754
 20
11.849996
 40
5.000000
 50
180.000000
 51
270.000000
  0
LINE
  8
0
  6
CONTINUOUS
 10
139.120743
 20
25.454576
 11
137.113647
 21
46.157959
  0
ARC
  8
0
  6
CONTINUOUS
 10
145.113754
 20
111.849998
 40
9.000000
 50
90.000000
 51
175.879898
  0
LINE
  8
0
  6
CONTINUOUS
 10
136.136948
 20
112.496628
 11
134.613754
 21
91.349998
  0
LINE
  8
0
  6
CONTINUOUS
 10
136.136948
 20
11.203436
 11
134.613754
 21
32.349995
  0
ARC
  8
0
  6
CONTINUOUS
 10
145.113754
 20
11.849996
 40
9.000000
 50
-175.879898
 51
-90.000000
  0
ARC
  8
0
  6
CONTINUOUS
 10
139.613754
 20
16.150026
 40
5.000000
 50
143.994797
 51
180.000000
  0
ARC
  8
0
  6
CONTINUOUS
 10
132.613754
 20
8.149996
 40
2.000000
 50
-90.000000
 51
0.000000
  0
LINE
  8
0
  6
CONTINUOUS
 10
134.613754
 20
8.149996
 11
134.613754
 21
16.150026
  0
LINE
  8
0
  6
CONTINUOUS
 10
134.613754
 20
91.349998
 11
134.613754
 21
32.349987
  0
LINE
  8
0
  6
CONTINUOUS
 10
62.113739
 20
85.559296
 11
132.613754
 21
85.559296
  0
LINE
  8
0
  6
CONTINUOUS
 10
62.113739
 20
16.740686
 11
133.113754
 21
16.740686
  0
CIRCLE
  8
0
  6
CONTINUOUS
 10
185.113754
 20
76.849998
 40
23.500000
  0
LINE
  8
0
  6
CONTINUOUS
 10
178.738754
 20
39.403225
 11
178.738754
 21
33.849995
  0
LINE
  8
0
  6
CONTINUOUS
 10
181.926254
 20
41.420315
 11
181.926254
 21
43.412502
  0
LINE
  8
0
  6
CONTINUOUS
 10
188.301254
 20
41.420315
 11
188.301254
 21
43.412502
  0
LINE
  8
0
  6
CONTINUOUS
 10
184.491150
 20
42.242088
 11
184.491150
 21
34.895897
  0
LINE
  8
0
  6
CONTINUOUS
 10
185.686554
 20
42.242088
 11
185.686554
 21
34.895897
  0
LINE
  8
0
  6
CONTINUOUS
 10
191.961853
 20
42.242088
 11
191.961853
 21
34.846096
  0
LINE
  8
0
  6
CONTINUOUS
 10
193.057556
 20
38.319977
 11
193.057556
 21
34.846096
  0
LINE
  8
0
  6
CONTINUOUS
 10
177.226257
 20
42.142483
 11
174.154343
 21
42.142483
  0
LINE
  8
0
  6
CONTINUOUS
 10
174.154343
 20
42.142483
 11
173.434555
 21
41.249989
  0
LINE
  8
0
  6
CONTINUOUS
 10
173.521149
 20
43.412502
 11
172.363754
 21
41.930508
  0
LINE
  8
0
  6
CONTINUOUS
 10
173.434555
 20
35.740925
 11
174.165848
 21
34.970608
  0
LINE
  8
0
  6
CONTINUOUS
 10
172.363754
 20
35.090855
 11
173.593552
 21
33.849995
  0
LINE
  8
0
  6
CONTINUOUS
 10
172.363754
 20
41.930508
 11
172.363754
 21
35.090855
  0
LINE
  8
0
  6
CONTINUOUS
 10
173.434555
 20
41.249989
 11
173.434555
 21
35.740925
  0
LINE
  8
0
  6
CONTINUOUS
 10
177.817352
 20
41.571037
 11
177.214157
 21
42.142483
  0
LINE
  8
0
  6
CONTINUOUS
 10
177.807755
 20
43.412502
 11
178.738754
 21
42.379356
  0
LINE
  8
0
  6
CONTINUOUS
 10
177.817352
 20
41.420315
 11
178.738754
 21
41.420315
  0
LINE
  8
0
  6
CONTINUOUS
 10
173.521149
 20
43.412502
 11
177.807755
 21
43.412502
  0
LINE
  8
0
  6
CONTINUOUS
 10
177.817352
 20
38.357327
 11
176.148956
 21
38.357327
  0
LINE
  8
0
  6
CONTINUOUS
 10
177.817352
 20
37.361237
 11
177.817352
 21
38.158108
  0
LINE
  8
0
  6
CONTINUOUS
 10
175.825150
 20
34.970608
 11
174.165848
 21
34.970608
  0
ARC
  8
0
  6
CONTINUOUS
 10
175.825150
 20
36.962795
 40
1.992187
 50
-89.999786
 51
0.000109
  0
LINE
  8
0
  6
CONTINUOUS
 10
177.817352
 20
34.612267
 11
177.817352
 21
33.849995
  0
LINE
  8
0
  6
CONTINUOUS
 10
178.738754
 20
42.379356
 11
178.738754
 21
41.420315
  0
LINE
  8
0
  6
CONTINUOUS
 10
177.817352
 20
38.357327
 11
177.817352
 21
36.962795
  0
LINE
  8
0
  6
CONTINUOUS
 10
176.148956
 20
39.403225
 11
176.148956
 21
38.357327
  0
LINE
  8
0
  6
CONTINUOUS
 10
177.817352
 20
33.849995
 11
178.738754
 21
33.849995
  0
LINE
  8
0
  6
CONTINUOUS
 10
177.817352
 20
34.612267
 11
176.908844
 21
33.849995
  0
LINE
  8
0
  6
CONTINUOUS
 10
185.686554
 20
34.895897
 11
186.084946
 21
34.895897
  0
LINE
  8
0
  6
CONTINUOUS
 10
184.018051
 20
34.895897
 11
184.018051
 21
33.849995
  0
LINE
  8
0
  6
CONTINUOUS
 10
186.084946
 20
34.895897
 11
186.084946
 21
33.849995
  0
LINE
  8
0
  6
CONTINUOUS
 10
187.636246
 20
41.420315
 11
188.301254
 21
41.420315
  0
LINE
  8
0
  6
CONTINUOUS
 10
181.926254
 20
41.420315
 11
182.633850
 21
41.420315
  0
LINE
  8
0
  6
CONTINUOUS
 10
181.926254
 20
43.412502
 11
188.301254
 21
43.412502
  0
LINE
  8
0
  6
CONTINUOUS
 10
184.018051
 20
33.849995
 11
186.084946
 21
33.849995
  0
LINE
  8
0
  6
CONTINUOUS
 10
184.018051
 20
34.895897
 11
184.491150
 21
34.895897
  0
ARC
  8
0
  6
CONTINUOUS
 10
195.311249
 20
40.860004
 40
2.552490
 50
-73.981873
 51
90.003510
  0
ARC
  8
0
  6
CONTINUOUS
 10
195.311249
 20
40.860004
 40
1.557193
 50
-82.585274
 51
62.411850
  0
LINE
  8
0
  6
CONTINUOUS
 10
191.488754
 20
43.412502
 11
195.311249
 21
43.412502
  0
LINE
  8
0
  6
CONTINUOUS
 10
191.488754
 20
43.412502
 11
191.488754
 21
42.242088
  0
LINE
  8
0
  6
CONTINUOUS
 10
193.057556
 20
42.242088
 11
193.057556
 21
39.315838
  0
LINE
  8
0
  6
CONTINUOUS
 10
196.015656
 20
38.406628
 11
197.595444
 21
34.846096
  0
LINE
  8
0
  6
CONTINUOUS
 10
195.098053
 20
38.319977
 11
196.593155
 21
34.846096
  0
LINE
  8
0
  6
CONTINUOUS
 10
191.488754
 20
34.846096
 11
191.961853
 21
34.846096
  0
LINE
  8
0
  6
CONTINUOUS
 10
193.057556
 20
34.846096
 11
193.493347
 21
34.846096
  0
LINE
  8
0
  6
CONTINUOUS
 10
193.493347
 20
33.849995
 11
191.488754
 21
33.849995
  0
LINE
  8
0
  6
CONTINUOUS
 10
196.394547
 20
34.846096
 11
196.593155
 21
34.846096
  0
LINE
  8
0
  6
CONTINUOUS
 10
197.595444
 20
34.846096
 11
197.863754
 21
34.846096
  0
LINE
  8
0
  6
CONTINUOUS
 10
196.394547
 20
33.849995
 11
197.863754
 21
33.849995
  0
LINE
  8
0
  6
CONTINUOUS
 10
197.863754
 20
34.846096
 11
197.863754
 21
33.849995
  0
LINE
  8
0
  6
CONTINUOUS
 10
196.394547
 20
34.846096
 11
196.394547
 21
33.849995
  0
LINE
  8
0
  6
CONTINUOUS
 10
193.493347
 20
34.846096
 11
193.493347
 21
33.849995
  0
LINE
  8
0
  6
CONTINUOUS
 10
191.488754
 20
34.846096
 11
191.488754
 21
33.849995
  0
LINE
  8
0
  6
CONTINUOUS
 10
182.976257
 20
42.242088
 11
182.633850
 21
41.420315
  0
LINE
  8
0
  6
CONTINUOUS
 10
187.347549
 20
42.242088
 11
187.636246
 21
41.420315
  0
LINE
  8
0
  6
CONTINUOUS
 10
185.686554
 20
42.242088
 11
187.347549
 21
42.242088
  0
LINE
  8
0
  6
CONTINUOUS
 10
184.491150
 20
42.242088
 11
182.976257
 21
42.242088
  0
LINE
  8
0
  6
CONTINUOUS
 10
191.488754
 20
42.242088
 11
191.961853
 21
42.242088
  0
LINE
  8
0
  6
CONTINUOUS
 10
193.057556
 20
42.242088
 11
196.032455
 21
42.240154
  0
LINE
  8
0
  6
CONTINUOUS
 10
177.817352
 20
41.571037
 11
177.817352
 21
41.420315
  0
LINE
  8
0
  6
CONTINUOUS
 10
173.593552
 20
33.849995
 11
176.908844
 21
33.849995
  0
LINE
  8
0
  6
CONTINUOUS
 10
193.057556
 20
39.315838
 11
195.512253
 21
39.315838
  0
LINE
  8
0
  6
CONTINUOUS
 10
193.057556
 20
38.319977
 11
195.098053
 21
38.319977
  0
LINE
  8
0
  6
CONTINUOUS
 10
176.148956
 20
39.403225
 11
178.738754
 21
39.403225
  0
LINE
  8
0
  6
CONTINUOUS
 10
171.113754
 20
115.918793
 11
171.113754
 21
110.370605
  0
LINE
  8
0
  6
CONTINUOUS
 10
199.113754
 20
115.918793
 11
199.113754
 21
110.370613
  0
LINE
  8
0
  6
CONTINUOUS
 10
171.113754
 20
13.329386
 11
171.113754
 21
8.055366
  0
LINE
  8
0
  6
CONTINUOUS
 10
199.113754
 20
13.329386
 11
199.113754
 21
8.055366
  0
LINE
  8
0
  6
CENTER
 10
385.113739
 20
-3.850004
 11
385.113739
 21
135.265305
  0
LINE
  8
0
  6
CONTINUOUS
 10
343.113739
 20
99.349983
 11
343.113739
 21
54.349991
  0
LINE
  8
0
  6
CONTINUOUS
 10
422.113739
 20
111.901878
 11
422.113739
 21
11.798076
  0
LINE
  8
0
  6
CENTER
 10
303.613739
 20
76.849998
 11
437.646851
 21
76.849998
  0
LINE
  8
0
  6
CONTINUOUS
 10
347.113739
 20
100.349998
 11
344.113739
 21
100.349998
  0
LINE
  8
0
  6
CONTINUOUS
 10
347.113739
 20
53.349995
 11
344.113739
 21
53.349995
  0
LINE
  8
0
  6
CONTINUOUS
 10
345.579163
 20
120.849998
 11
337.113739
 21
120.849998
  0
LINE
  8
0
  6
CONTINUOUS
 10
345.579163
 20
2.849996
 11
337.113739
 21
2.849996
  0
LINE
  8
0
  6
CONTINUOUS
 10
419.166046
 20
114.901436
 11
349.078857
 21
116.124527
  0
LINE
  8
0
  6
CONTINUOUS
 10
350.636841
 20
7.602106
 11
419.166138
 21
8.798546
  0
LINE
  8
0
  6
CONTINUOUS
 10
420.428253
 20
91.349998
 11
352.279541
 21
91.349998
  0
LINE
  8
0
  6
CONTINUOUS
 10
420.428253
 20
32.349995
 11
350.113739
 21
32.349995
  0
ARC
  8
0
  6
CONTINUOUS
 10
419.113739
 20
111.901878
 40
3.000000
 50
0.000000
 51
89.000359
  0
ARC
  8
0
  6
CONTINUOUS
 10
419.113739
 20
11.798076
 40
3.000000
 50
-88.999687
 51
0.000000
  0
ARC
  8
0
  6
CONTINUOUS
 10
350.113739
 20
29.350016
 40
3.000000
 50
90.000000
 51
180.000000
  0
LINE
  8
0
  6
CENTER
 10
332.051239
 20
11.849996
 11
351.801239
 21
11.849996
  0
LINE
  8
0
  6
CENTER
 10
333.801239
 20
111.849998
 11
350.801239
 21
111.849998
  0
LINE
  8
0
  6
DASHED
 10
337.113739
 20
107.599998
 11
347.113739
 21
107.599998
  0
LINE
  8
0
  6
DASHED
 10
337.113739
 20
116.099998
 11
347.113739
 21
116.099998
  0
LINE
  8
0
  6
DASHED
 10
337.113739
 20
16.099997
 11
347.113739
 21
16.099997
  0
LINE
  8
0
  6
DASHED
 10
337.113739
 20
7.599996
 11
347.113739
 21
7.599996
  0
LINE
  8
0
  6
CONTINUOUS
 10
359.113739
 20
6.149996
 11
411.113739
 21
6.149996
  0
ARC
  8
0
  6
CONTINUOUS
 10
411.113739
 20
9.149996
 40
3.000000
 50
270.000000
 51
351.561890
  0
ARC
  8
0
  6
CONTINUOUS
 10
359.113739
 20
9.149996
 40
3.000000
 50
208.811905
 51
270.000000
  0
ARC
  8
0
  6
CONTINUOUS
 10
344.113739
 20
54.349991
 40
1.000000
 50
180.000000
 51
270.000000
  0
ARC
  8
0
  6
CONTINUOUS
 10
344.113739
 20
99.349983
 40
1.000000
 50
90.000000
 51
180.000000
  0
ARC
  8
0
  6
CONTINUOUS
 10
385.113739
 20
51.149998
 40
45.000000
 50
-34.692108
 51
21.039440
  0
LINE
  8
0
  6
CONTINUOUS
 10
427.113739
 20
99.349983
 11
427.113739
 21
54.349991
  0
LINE
  8
0
  6
CONTINUOUS
 10
424.113739
 20
100.349998
 11
426.113739
 21
100.349998
  0
LINE
  8
0
  6
CONTINUOUS
 10
424.113739
 20
53.349995
 11
426.113739
 21
53.349995
  0
ARC
  8
0
  6
CONTINUOUS
 10
424.113739
 20
102.349998
 40
2.000000
 50
180.000000
 51
270.000000
  0
ARC
  8
0
  6
CONTINUOUS
 10
424.113739
 20
51.350002
 40
2.000000
 50
90.000000
 51
180.000000
  0
ARC
  8
0
  6
CONTINUOUS
 10
426.113739
 20
54.349991
 40
1.000000
 50
-90.000000
 51
0.000000
  0
ARC
  8
0
  6
CONTINUOUS
 10
426.113739
 20
99.349983
 40
1.000000
 50
0.000000
 51
90.000000
  0
LINE
  8
0
  6
CONTINUOUS
 10
337.113739
 20
104.566116
 11
344.551239
 21
103.587494
  0
LINE
  8
0
  6
CONTINUOUS
 10
344.551239
 20
103.587494
 11
349.551239
 21
100.337494
  0
LINE
  8
0
  6
CONTINUOUS
 10
352.465363
 20
90.922493
 11
353.926239
 21
89.962494
  0
LINE
  8
0
  6
CONTINUOUS
 10
353.926239
 20
89.962494
 11
353.426239
 21
83.962494
  0
LINE
  8
0
  6
CONTINUOUS
 10
353.426239
 20
83.962494
 11
351.426239
 21
80.462494
  0
LINE
  8
0
  6
CONTINUOUS
 10
351.426239
 20
80.462494
 11
353.301239
 21
74.962494
  0
LINE
  8
0
  6
CONTINUOUS
 10
353.301239
 20
74.962494
 11
352.676239
 21
69.212494
  0
LINE
  8
0
  6
CONTINUOUS
 10
352.676239
 20
69.212494
 11
352.051239
 21
62.962498
  0
LINE
  8
0
  6
CONTINUOUS
 10
352.051239
 20
62.962498
 11
353.176239
 21
58.337498
  0
LINE
  8
0
  6
CONTINUOUS
 10
353.176239
 20
58.337498
 11
352.051239
 21
54.087498
  0
LINE
  8
0
  6
CONTINUOUS
 10
352.051239
 20
54.087498
 11
348.801239
 21
49.212498
  0
LINE
  8
0
  6
CONTINUOUS
 10
348.801239
 20
49.212498
 11
344.301239
 21
47.212498
  0
LINE
  8
0
  6
CONTINUOUS
 10
344.301239
 20
47.212498
 11
340.051239
 21
44.587498
  0
LINE
  8
0
  6
CONTINUOUS
 10
340.051239
 20
44.587498
 11
337.113739
 21
44.190536
  0
LINE
  8
0
  6
CONTINUOUS
 10
349.551239
 20
100.337494
 11
350.301239
 21
95.899994
  0
LINE
  8
0
  6
CONTINUOUS
 10
350.301239
 20
95.899994
 11
352.465363
 21
90.922493
  0
LINE
  8
0
  6
CONTINUOUS
 10
347.113739
 20
118.849998
 11
347.113739
 21
48.462494
  0
LINE
  8
0
  6
CONTINUOUS
 10
347.113739
 20
5.575216
 11
347.113739
 21
4.849996
  0
LINE
  8
0
  6
CONTINUOUS
 10
337.113739
 20
120.849998
 11
337.113739
 21
85.849998
  0
LINE
  8
0
  6
CONTINUOUS
 10
337.113739
 20
2.849996
 11
337.113739
 21
67.849998
  0
LINE
  8
0
  6
CENTER
 10
331.863739
 20
51.149998
 11
441.363739
 21
51.149998
  0
ARC
  8
0
  6
CONTINUOUS
 10
345.113739
 20
118.849983
 40
2.000000
 50
0.000000
 51
90.000000
  0
ARC
  8
0
  6
CONTINUOUS
 10
345.579163
 20
118.849983
 40
2.000000
 50
15.000500
 51
90.000000
  0
ARC
  8
0
  6
CONTINUOUS
 10
349.113739
 20
118.124245
 40
2.000000
 50
180.000000
 51
269.000610
  0
ARC
  8
0
  6
CONTINUOUS
 10
350.689362
 20
119.096893
 40
3.000000
 50
195.000504
 51
269.000610
  0
LINE
  8
0
  6
CONTINUOUS
 10
347.510956
 20
119.367638
 11
347.791565
 21
118.320396
  0
LINE
  8
0
  6
CONTINUOUS
 10
347.791443
 20
5.379026
 11
347.510956
 21
4.332366
  0
ARC
  8
0
  6
CONTINUOUS
 10
345.113739
 20
4.849996
 40
2.000000
 50
-90.000000
 51
0.000000
  0
ARC
  8
0
  6
CONTINUOUS
 10
345.579163
 20
4.850006
 40
2.000000
 50
270.000000
 51
345.000000
  0
LINE
  8
0
  6
CONTINUOUS
 10
347.113739
 20
5.575216
 11
347.113739
 21
29.350006
  0
ARC
  8
0
  6
CONTINUOUS
 10
349.113739
 20
5.575226
 40
2.000000
 50
91.000633
 51
180.000000
  0
LINE
  8
0
  6
CONTINUOUS
 10
350.636841
 20
7.602106
 11
349.078857
 21
7.574916
  0
ARC
  8
0
  6
CONTINUOUS
 10
350.689148
 20
4.602576
 40
3.000000
 50
91.000526
 51
165.000107
  0
LINE
  8
0
  6
CONTINUOUS
 10
432.113739
 20
77.250496
 11
432.113739
 21
25.049486
  0
LINE
  8
0
  6
CONTINUOUS
 10
411.214264
 20
4.149996
 11
359.013245
 21
4.149996
  0
LINE
  8
0
  6
CONTINUOUS
 10
430.063446
 20
82.200249
 11
427.113739
 21
85.149979
  0
LINE
  8
0
  6
CONTINUOUS
 10
354.063446
 20
6.200236
 11
352.626862
 21
7.636846
  0
ARC
  8
0
  6
CONTINUOUS
 10
359.013245
 20
11.149996
 40
7.000000
 50
225.000107
 51
270.000000
  0
ARC
  8
0
  6
CONTINUOUS
 10
411.214264
 20
11.149996
 40
7.000000
 50
270.000000
 51
315.000000
  0
ARC
  8
0
  6
CONTINUOUS
 10
425.113739
 20
25.049477
 40
7.000000
 50
-44.999882
 51
0.000000
  0
ARC
  8
0
  6
CONTINUOUS
 10
425.113739
 20
77.250473
 40
7.000000
 50
0.000000
 51
45.000229
  0
LINE
  8
0
  6
CONTINUOUS
 10
430.063446
 20
20.099747
 11
422.113739
 21
12.149996
  0
LINE
  8
0
  6
CONTINUOUS
 10
416.164062
 20
6.200246
 11
418.755157
 21
8.791366
  0
LINE
  8
0
  6
CONTINUOUS
 10
311.113739
 20
67.849998
 11
311.113739
 21
85.849998
  0
LINE
  8
0
  6
CONTINUOUS
 10
341.113739
 20
85.849998
 11
311.113739
 21
85.849998
  0
LINE
  8
0
  6
CONTINUOUS
 10
341.113739
 20
67.849998
 11
311.113739
 21
67.849998
  0
LINE
  8
0
  6
CONTINUOUS
 10
341.113739
 20
86.849998
 11
341.113739
 21
66.849998
  0
LINE
  8
0
  6
CONTINUOUS
 10
343.113739
 20
86.849998
 11
341.113739
 21
86.849998
  0
LINE
  8
0
  6
CONTINUOUS
 10
343.113739
 20
66.849998
 11
341.113739
 21
66.849998
  0
ARC
  8
0
  6
CONTINUOUS
 10
335.113739
 20
76.849998
 40
3.000000
 50
-90.000000
 51
90.000000
  0
LINE
  8
0
  6
CONTINUOUS
 10
335.113739
 20
79.849998
 11
311.113739
 21
79.849998
  0
LINE
  8
0
  6
CONTINUOUS
 10
335.113739
 20
73.849998
 11
311.113739
 21
73.849998
  0
LINE
  8
0
  6
CONTINUOUS
 10
190.613754
 20
73.850014
 11
190.613754
 21
79.850014
  0
LINE
  8
0
  6
CONTINUOUS
 10
196.613754
 20
73.850037
 11
196.613754
 21
79.850037
  0
LINE
  8
0
  6
CONTINUOUS
 10
196.613754
 20
73.850037
 11
190.613754
 21
73.850014
  0
LINE
  8
0
  6
CONTINUOUS
 10
196.613754
 20
79.850037
 11
190.613754
 21
79.850014
  0
ARC
  8
0
  6
CONTINUOUS
 10
185.113754
 20
76.849998
 40
9.000000
 50
19.471210
 51
340.528809
  0
LINE
  8
0
  6
CENTER
 10
185.113754
 20
317.084381
 11
185.113754
 21
181.621872
  0
LINE
  8
0
  6
CENTER
 10
-10.459062
 20
261.915009
 11
249.255005
 21
261.915009
  0
LINE
  8
0
  6
CONTINUOUS
 10
231.439636
 20
298.915009
 11
136.562057
 21
298.915009
  0
LINE
  8
0
  6
CONTINUOUS
 10
134.404327
 20
290.917755
 11
134.562744
 21
296.967346
  0
LINE
  8
0
  6
CONTINUOUS
 10
132.455948
 20
306.915009
 11
62.113750
 21
306.915009
  0
LINE
  8
0
  6
CONTINUOUS
 10
62.113750
 20
290.915009
 11
141.456299
 21
290.915009
  0
LINE
  8
0
  6
CONTINUOUS
 10
62.113750
 20
232.914993
 11
132.730621
 21
232.914993
  0
LINE
  8
0
  6
CONTINUOUS
 10
132.586884
 20
216.914993
 11
62.113750
 21
216.914993
  0
LINE
  8
0
  6
CONTINUOUS
 10
133.356827
 20
261.915009
 11
134.613754
 21
213.914993
  0
LINE
  8
0
  6
CONTINUOUS
 10
168.113754
 20
293.915009
 11
168.113754
 21
225.914993
  0
LINE
  8
0
  6
CONTINUOUS
 10
202.113754
 20
293.915009
 11
202.113754
 21
225.914993
  0
LINE
  8
0
  6
CONTINUOUS
 10
141.456299
 20
288.915009
 11
141.456299
 21
225.449997
  0
LINE
  8
0
  6
CONTINUOUS
 10
207.613754
 20
303.915009
 11
162.613754
 21
303.915009
  0
LINE
  8
0
  6
CONTINUOUS
 10
161.613754
 20
302.915009
 11
161.613754
 21
300.915009
  0
LINE
  8
0
  6
CONTINUOUS
 10
208.613754
 20
302.915009
 11
208.613754
 21
300.915009
  0
ARC
  8
0
  6
CONTINUOUS
 10
159.613754
 20
300.915009
 40
2.000000
 50
-90.000000
 51
0.000000
  0
ARC
  8
0
  6
CONTINUOUS
 10
210.613739
 20
300.915009
 40
2.000000
 50
180.000000
 51
270.000000
  0
ARC
  8
0
  6
CONTINUOUS
 10
162.613754
 20
302.915009
 40
1.000000
 50
90.000000
 51
180.000000
  0
ARC
  8
0
  6
CONTINUOUS
 10
207.613754
 20
302.915009
 40
1.000000
 50
0.000000
 51
90.000000
  0
LINE
  8
0
  6
CONTINUOUS
 10
196.613754
 20
187.914993
 11
176.113754
 21
187.914993
  0
LINE
  8
0
  6
CONTINUOUS
 10
176.113754
 20
213.914993
 11
176.113754
 21
187.914993
  0
LINE
  8
0
  6
CONTINUOUS
 10
196.613754
 20
187.914993
 11
196.613754
 21
213.914993
  0
LINE
  8
0
  6
CONTINUOUS
 10
193.598755
 20
187.914993
 11
193.598755
 21
213.914993
  0
LINE
  8
0
  6
CONTINUOUS
 10
134.613754
 20
213.914993
 11
235.613754
 21
213.914993
  0
LINE
  8
0
  6
CONTINUOUS
 10
233.438950
 20
296.967346
 11
235.613754
 21
213.914993
  0
LINE
  8
0
  6
CONTINUOUS
 10
136.404953
 20
223.914993
 11
233.403580
 21
223.914993
  0
ARC
  8
0
  6
CONTINUOUS
 10
233.403580
 20
221.914993
 40
2.000000
 50
1.500000
 51
90.000000
  0
ARC
  8
0
  6
CONTINUOUS
 10
231.439636
 20
296.915009
 40
2.000000
 50
1.500000
 51
90.000000
  0
ARC
  8
0
  6
CONTINUOUS
 10
204.113754
 20
225.914993
 40
2.000000
 50
180.000000
 51
270.000000
  0
ARC
  8
0
  6
CONTINUOUS
 10
166.113754
 20
225.914993
 40
2.000000
 50
-90.000000
 51
0.000000
  0
LINE
  8
0
  6
CONTINUOUS
 10
167.971817
 20
225.175003
 11
202.255692
 21
225.175003
  0
ARC
  8
0
  6
CONTINUOUS
 10
136.404953
 20
221.914993
 40
2.000000
 50
90.000000
 51
181.500000
  0
ARC
  8
0
  6
CONTINUOUS
 10
132.586884
 20
214.914993
 40
2.000000
 50
1.500000
 51
90.000000
  0
LINE
  8
0
  6
CONTINUOUS
 10
134.455261
 20
304.967346
 11
134.562744
 21
300.862640
  0
ARC
  8
0
  6
CONTINUOUS
 10
132.455948
 20
304.915009
 40
2.000000
 50
1.500000
 51
90.000000
  0
ARC
  8
0
  6
CONTINUOUS
 10
136.562057
 20
300.915009
 40
2.000000
 50
181.500000
 51
270.000000
  0
ARC
  8
0
  6
CONTINUOUS
 10
136.562057
 20
296.915009
 40
2.000000
 50
90.000000
 51
178.500000
  0
LINE
  8
0
  6
CENTER
 10
225.113754
 20
206.226410
 11
225.113754
 21
230.089066
  0
LINE
  8
0
  6
DASHED
 10
229.363754
 20
223.914993
 11
229.363754
 21
213.914993
  0
LINE
  8
0
  6
DASHED
 10
220.863754
 20
223.914993
 11
220.863754
 21
213.914993
  0
LINE
  8
0
  6
CENTER
 10
145.113754
 20
206.226410
 11
145.113754
 21
230.089066
  0
LINE
  8
0
  6
DASHED
 10
140.863754
 20
223.914993
 11
140.863754
 21
213.914993
  0
LINE
  8
0
  6
DASHED
 10
149.363754
 20
223.914993
 11
149.363754
 21
213.914993
  0
LINE
  8
0
  6
CONTINUOUS
 10
52.613750
 20
306.915009
 11
62.113750
 21
306.915009
  0
LINE
  8
0
  6
CONTINUOUS
 10
62.113750
 20
290.915009
 11
52.613750
 21
290.915009
  0
LINE
  8
0
  6
CONTINUOUS
 10
52.613750
 20
216.915009
 11
62.113750
 21
216.915009
  0
LINE
  8
0
  6
CONTINUOUS
 10
62.113750
 20
216.915009
 11
62.113750
 21
236.914978
  0
LINE
  8
0
  6
CONTINUOUS
 10
62.113750
 20
232.915009
 11
52.613750
 21
232.915009
  0
LINE
  8
0
  6
CONTINUOUS
 10
62.113750
 20
286.914978
 11
62.113750
 21
306.915009
  0
LINE
  8
0
  6
CONTINUOUS
 10
52.613750
 20
308.915009
 11
52.613750
 21
269.414978
  0
LINE
  8
0
  6
CONTINUOUS
 10
52.613750
 20
290.915009
 11
8.638720
 21
290.915009
  0
LINE
  8
0
  6
CONTINUOUS
 10
52.613750
 20
232.915009
 11
8.638720
 21
232.915009
  0
LINE
  8
0
  6
CONTINUOUS
 10
10.113730
 20
308.915009
 11
52.613750
 21
308.915009
  0
LINE
  8
0
  6
CONTINUOUS
 10
10.113730
 20
214.915009
 11
52.613750
 21
214.915009
  0
ARC
  8
0
  6
CONTINUOUS
 10
10.113760
 20
303.915009
 40
5.000000
 50
90.000000
 51
180.000000
  0
ARC
  8
0
  6
CONTINUOUS
 10
10.113730
 20
219.915009
 40
5.000000
 50
180.000000
 51
270.000000
  0
LINE
  8
0
  6
CONTINUOUS
 10
5.113760
 20
303.915009
 11
5.113730
 21
219.914993
  0
LINE
  8
0
  6
CONTINUOUS
 10
52.113750
 20
269.414978
 11
53.113750
 21
269.414978
  0
ARC
  8
0
  6
CONTINUOUS
 10
52.113770
 20
268.414978
 40
1.000000
 50
90.000000
 51
180.000000
  0
LINE
  8
0
  6
CONTINUOUS
 10
47.613766
 20
265.914978
 11
47.613766
 21
257.914978
  0
LINE
  8
0
  6
CONTINUOUS
 10
47.613766
 20
265.914978
 11
51.113766
 21
267.414978
  0
LINE
  8
0
  6
CONTINUOUS
 10
47.613750
 20
257.914978
 11
51.113750
 21
256.414978
  0
LINE
  8
0
  6
CONTINUOUS
 10
51.113766
 20
268.414978
 11
51.113766
 21
255.414978
  0
LINE
  8
0
  6
CONTINUOUS
 10
52.113750
 20
254.414978
 11
53.113750
 21
254.414978
  0
ARC
  8
0
  6
CONTINUOUS
 10
52.113770
 20
255.414978
 40
1.000000
 50
-180.000000
 51
-90.000000
  0
LINE
  8
0
  6
CONTINUOUS
 10
53.113750
 20
238.914978
 11
53.113750
 21
284.914978
  0
LINE
  8
0
  6
CONTINUOUS
 10
55.113750
 20
286.914978
 11
53.113750
 21
284.914978
  0
LINE
  8
0
  6
CONTINUOUS
 10
55.113750
 20
286.914978
 11
101.113739
 21
286.914978
  0
LINE
  8
0
  6
CONTINUOUS
 10
95.613747
 20
282.414978
 11
95.613747
 21
286.914978
  0
ARC
  8
0
  6
CONTINUOUS
 10
98.613747
 20
282.414978
 40
3.000000
 50
180.000000
 51
270.000000
  0
LINE
  8
0
  6
CONTINUOUS
 10
98.613747
 20
279.414978
 11
103.113739
 21
279.414978
  0
CIRCLE
  8
0
  6
CONTINUOUS
 10
99.613747
 20
283.414978
 40
2.250000
  0
LINE
  8
0
  6
CONTINUOUS
 10
103.113747
 20
238.914978
 11
103.113739
 21
284.914978
  0
LINE
  8
0
  6
CONTINUOUS
 10
101.113739
 20
286.914978
 11
103.113739
 21
284.914978
  0
LINE
  8
0
  6
CONTINUOUS
 10
101.113747
 20
236.914978
 11
103.113747
 21
238.914978
  0
LINE
  8
0
  6
CONTINUOUS
 10
101.113747
 20
236.914978
 11
55.113750
 21
236.914978
  0
LINE
  8
0
  6
CONTINUOUS
 10
53.113750
 20
238.914978
 11
55.113750
 21
236.914978
  0
LINE
  8
0
  6
CONTINUOUS
 10
57.613750
 20
244.414978
 11
53.113762
 21
244.414978
  0
CIRCLE
  8
0
  6
CONTINUOUS
 10
56.613750
 20
240.414978
 40
2.250000
  0
ARC
  8
0
  6
CONTINUOUS
 10
57.613750
 20
241.414978
 40
3.000000
 50
0.000000
 51
90.000000
  0
LINE
  8
0
  6
CONTINUOUS
 10
60.613750
 20
241.414978
 11
60.613750
 21
236.914978
  0
LINE
  8
0
  6
CENTER
 10
78.113747
 20
229.449203
 11
78.113747
 21
293.581238
  0
LINE
  8
0
  6
CONTINUOUS
 10
55.527969
 20
285.915009
 11
54.113754
 21
284.500793
  0
LINE
  8
0
  6
CONTINUOUS
 10
54.113754
 20
244.414993
 11
54.113754
 21
284.500793
  0
LINE
  8
0
  6
CONTINUOUS
 10
95.613747
 20
285.915009
 11
55.527969
 21
285.915009
  0
LINE
  8
0
  6
CONTINUOUS
 10
102.113747
 20
279.415009
 11
102.113747
 21
239.329208
  0
LINE
  8
0
  6
CONTINUOUS
 10
60.613750
 20
237.914993
 11
100.699532
 21
237.914993
  0
LINE
  8
0
  6
CONTINUOUS
 10
100.699532
 20
237.914993
 11
102.113747
 21
239.329208
  0
LINE
  8
0
  6
CONTINUOUS
 10
54.613739
 20
97.649994
 11
101.113739
 21
97.649994
  0
LINE
  8
0
  6
CONTINUOUS
 10
103.113731
 20
127.649994
 11
103.113739
 21
99.649994
  0
LINE
  8
0
  6
CONTINUOUS
 10
53.113739
 20
127.649994
 11
53.113739
 21
99.649994
  0
LINE
  8
0
  6
CONTINUOUS
 10
51.113739
 20
109.649994
 11
103.113739
 21
109.649994
  0
LINE
  8
0
  6
CONTINUOUS
 10
101.113739
 20
97.649994
 11
103.113739
 21
99.649994
  0
LINE
  8
0
  6
CONTINUOUS
 10
53.113739
 20
99.649994
 11
55.113739
 21
97.649994
  0
LINE
  8
0
  6
CONTINUOUS
 10
53.113739
 20
99.649994
 11
103.113739
 21
99.649994
  0
LINE
  8
0
  6
CONTINUOUS
 10
54.113739
 20
128.649994
 11
102.113731
 21
128.649994
  0
LINE
  8
0
  6
CONTINUOUS
 10
102.113731
 20
128.649994
 11
103.113731
 21
127.649994
  0
LINE
  8
0
  6
CONTINUOUS
 10
54.113739
 20
128.649994
 11
53.113739
 21
127.649994
  0
LINE
  8
0
  6
CONTINUOUS
 10
53.113739
 20
127.649994
 11
103.113731
 21
127.649994
  0
LINE
  8
0
  6
CENTER
 10
45.169991
 20
119.149994
 11
57.244991
 21
119.149994
  0
LINE
  8
0
  6
CONTINUOUS
 10
51.113747
 20
125.649994
 11
51.113739
 21
109.649994
  0
LINE
  8
0
  6
CONTINUOUS
 10
52.113739
 20
126.649994
 11
53.113739
 21
126.649994
  0
ARC
  8
0
  6
CONTINUOUS
 10
52.113750
 20
125.649994
 40
1.000000
 50
90.000000
 51
180.000000
  0
LINE
  8
0
  6
CONTINUOUS
 10
47.613747
 20
123.149994
 11
47.613747
 21
115.149994
  0
LINE
  8
0
  6
CONTINUOUS
 10
47.613747
 20
123.149994
 11
51.113747
 21
124.649994
  0
LINE
  8
0
  6
CONTINUOUS
 10
47.613739
 20
115.149994
 11
51.113739
 21
113.649994
  0
LINE
  8
0
  6
CENTER
 10
78.113739
 20
92.956245
 11
78.113739
 21
134.037491
  0
LINE
  8
0
  6
CONTINUOUS
 10
54.613739
 20
97.649994
 11
54.613739
 21
96.149994
  0
LINE
  8
0
  6
CONTINUOUS
 10
100.613739
 20
97.649994
 11
100.613739
 21
96.149994
  0
LINE
  8
0
  6
CONTINUOUS
 10
410.113739
 20
127.649994
 11
410.113739
 21
115.059410
  0
LINE
  8
0
  6
CONTINUOUS
 10
360.113739
 20
127.649994
 11
360.113739
 21
115.931953
  0
LINE
  8
0
  6
CONTINUOUS
 10
361.113739
 20
128.649994
 11
409.113739
 21
128.649994
  0
LINE
  8
0
  6
CONTINUOUS
 10
409.113739
 20
128.649994
 11
410.113739
 21
127.649994
  0
LINE
  8
0
  6
CONTINUOUS
 10
361.113739
 20
128.649994
 11
360.113739
 21
127.649994
  0
LINE
  8
0
  6
CONTINUOUS
 10
360.113739
 20
127.649994
 11
410.113739
 21
127.649994
  0
LINE
  8
0
  6
CONTINUOUS
 10
52.613750
 20
254.414978
 11
52.613750
 21
214.915009
  0
TEXT
  8
0
 10
-10.000000
 20
-6.000000
 40
4.000000
 41
1.000000
  1
HFM-18R-10~240-S90WT
 50
0.000000
  0
ENDSEC
  0
EOF
