  0
SECTION
  2
HEADER
  9
$CLAYER
  8
1
  9
$LTSCALE
 40
3.0
  0
ENDSEC
  0
SECTION
  2
TABLES
  0
TABLE
  2
LTYPE
 70
     4
  0
LTYPE
  2
CONTINUOUS
  3
solid line
 70
    64
 72
    65
 73
     0
 40
0.0
  0
LTYPE
  2
DASHED
  3
__ __ __ __ __ __ __ __ __ __ __ __ __ __ __
 70
    64
 72
    65
 73
     2
 40
0.75
 49
0.5
 49
-0.25
  0
LTYPE
  2
CENTER
  3
____ _ ____ _ ____ _ ____ _ ____ _ ____ _ ____
 70
    64
 72
    65
 73
     4
 40
2.0
 49
1.25
 49
-0.25
 49
0.25
 49
-0.25
  0
LTYPE
  2
PHANTOM
  3
_____ _ _ _____ _ _ _____ _ _ _____ _ _ ____
 70
    64
 72
    65
 73
     6
 40
2.5
 49
1.25
 49
-0.25
 49
0.25
 49
-0.25
 49
0.25
 49
-0.25
  0
ENDTAB
  0
TABLE
  2
LAYER
 70
     1
  0
LAYER
  2
0
 70
    64
 62
     7
  6
CONTINUOUS
  0
ENDTAB
  0
TABLE
  2
STYLE
 70
     1
  0
STYLE
  2
STANDARD
 70
     0
 40
0.000000
 41
1.000000
 50
0.000000
 71
     0
 42
3.000000
  3
txt
  4
BIGFONT
  0
ENDTAB
  0
ENDSEC
  0
SECTION
  2
BLOCKS
  0
ENDSEC
  0
SECTION
  2
ENTITIES
  0
LINE
  8
0
  6
CONTINUOUS
 10
6.295000
 20
17.302500
 11
6.295000
 21
87.302498
  0
LINE
  8
0
  6
CONTINUOUS
 10
10.836450
 20
97.302498
 11
26.795000
 21
97.302498
  0
LINE
  8
0
  6
CONTINUOUS
 10
6.795000
 20
94.302498
 11
6.795000
 21
10.302500
  0
LINE
  8
0
  6
CONTINUOUS
 10
26.795000
 20
86.711800
 11
8.545000
 21
86.711800
  0
ARC
  8
0
  6
CONTINUOUS
 10
6.294999
 20
87.802498
 40
0.500000
 50
-90.000000
 51
0.000000
  0
LINE
  8
0
  6
CONTINUOUS
 10
7.372343
 20
95.302490
 11
6.795000
 21
94.302498
  0
ARC
  8
0
  6
CONTINUOUS
 10
10.836460
 20
93.302513
 40
4.000000
 50
90.000000
 51
150.000397
  0
LINE
  8
0
  6
CONTINUOUS
 10
10.836450
 20
7.302500
 11
26.795000
 21
7.302500
  0
LINE
  8
0
  6
CONTINUOUS
 10
26.795000
 20
17.893200
 11
8.545000
 21
17.893200
  0
ARC
  8
0
  6
CONTINUOUS
 10
6.294999
 20
16.802500
 40
0.500000
 50
0.000000
 51
90.000000
  0
LINE
  8
0
  6
CONTINUOUS
 10
7.372343
 20
9.302510
 11
6.795000
 21
10.302500
  0
ARC
  8
0
  6
CONTINUOUS
 10
10.836460
 20
11.302490
 40
4.000000
 50
-150.000397
 51
-90.000000
  0
LINE
  8
0
  6
CONTINUOUS
 10
26.795000
 20
7.302500
 11
26.795000
 21
97.302498
  0
LINE
  8
0
  6
CENTER
 10
-4.290312
 20
52.302502
 11
121.681702
 21
52.302502
  0
LINE
  8
0
  6
CONTINUOUS
 10
200.294998
 20
33.502499
 11
200.294998
 21
92.502502
  0
LINE
  8
0
  6
CONTINUOUS
 10
26.795000
 20
97.302498
 11
99.640762
 21
97.302498
  0
LINE
  8
0
  6
CONTINUOUS
 10
97.294998
 20
7.302500
 11
26.795000
 21
7.302500
  0
LINE
  8
0
  6
CENTER
 10
114.844704
 20
78.002502
 11
179.256897
 21
78.002502
  0
LINE
  8
0
  6
CENTER
 10
149.794998
 20
130.552505
 11
149.794998
 21
-5.437800
  0
LINE
  8
0
  6
CONTINUOUS
 10
109.794998
 20
122.002502
 11
189.794998
 21
122.002502
  0
LINE
  8
0
  6
CONTINUOUS
 10
109.794998
 20
4.002500
 11
189.794998
 21
4.002500
  0
LINE
  8
0
  6
CENTER
 10
182.794998
 20
113.002502
 11
196.669998
 21
113.002502
  0
LINE
  8
0
  6
CENTER
 10
189.794998
 20
106.302498
 11
189.794998
 21
120.069374
  0
CIRCLE
  8
0
  6
CONTINUOUS
 10
189.794998
 20
113.002502
 40
4.250000
  0
LINE
  8
0
  6
CENTER
 10
182.794998
 20
13.002500
 11
196.669998
 21
13.002500
  0
LINE
  8
0
  6
CENTER
 10
189.794998
 20
19.702499
 11
189.794998
 21
6.202500
  0
CIRCLE
  8
0
  6
CONTINUOUS
 10
189.794998
 20
13.002500
 40
4.250000
  0
LINE
  8
0
  6
CENTER
 10
116.794998
 20
113.002502
 11
102.919998
 21
113.002502
  0
LINE
  8
0
  6
CENTER
 10
109.794998
 20
106.302498
 11
109.794998
 21
119.802498
  0
CIRCLE
  8
0
  6
CONTINUOUS
 10
109.794998
 20
113.002502
 40
4.250000
  0
LINE
  8
0
  6
CENTER
 10
116.794998
 20
13.002500
 11
102.919998
 21
13.002500
  0
LINE
  8
0
  6
CENTER
 10
109.794998
 20
19.702499
 11
109.794998
 21
6.202500
  0
CIRCLE
  8
0
  6
CONTINUOUS
 10
109.794998
 20
13.002500
 40
4.250000
  0
LINE
  8
0
  6
CONTINUOUS
 10
198.771698
 20
113.649132
 11
200.294998
 21
92.502502
  0
LINE
  8
0
  6
CONTINUOUS
 10
198.771698
 20
12.355940
 11
200.294998
 21
33.502499
  0
LINE
  8
0
  6
CONTINUOUS
 10
123.794998
 20
118.002502
 11
175.794998
 21
118.002502
  0
LINE
  8
0
  6
CONTINUOUS
 10
175.794998
 20
8.002500
 11
123.794998
 21
8.002500
  0
LINE
  8
0
  6
CONTINUOUS
 10
101.794998
 20
78.694687
 11
101.794998
 21
47.309982
  0
ARC
  8
0
  6
CONTINUOUS
 10
149.794998
 20
63.002499
 40
50.500000
 50
18.103800
 51
161.896194
  0
ARC
  8
0
  6
CONTINUOUS
 10
149.794998
 20
63.002499
 40
50.500000
 50
198.103806
 51
341.896210
  0
LINE
  8
0
  6
CONTINUOUS
 10
197.794998
 20
78.694862
 11
197.794998
 21
47.310467
  0
ARC
  8
0
  6
CONTINUOUS
 10
175.794998
 20
113.002502
 40
5.000000
 50
0.000000
 51
90.000000
  0
ARC
  8
0
  6
CONTINUOUS
 10
190.800903
 20
99.038681
 40
5.000000
 50
4.120544
 51
94.120201
  0
ARC
  8
0
  6
CONTINUOUS
 10
189.794998
 20
113.002502
 40
9.000000
 50
180.000000
 51
274.120697
  0
ARC
  8
0
  6
CONTINUOUS
 10
189.794998
 20
113.002502
 40
9.000000
 50
4.120065
 51
90.000000
  0
ARC
  8
0
  6
CONTINUOUS
 10
175.794998
 20
13.002500
 40
5.000000
 50
-90.000000
 51
0.000000
  0
ARC
  8
0
  6
CONTINUOUS
 10
190.800903
 20
26.966320
 40
5.000000
 50
265.879791
 51
355.879486
  0
ARC
  8
0
  6
CONTINUOUS
 10
189.794998
 20
13.002500
 40
9.000000
 50
270.000000
 51
355.879913
  0
ARC
  8
0
  6
CONTINUOUS
 10
189.794998
 20
13.002500
 40
9.000000
 50
85.879837
 51
180.000000
  0
LINE
  8
0
  6
CONTINUOUS
 10
195.787903
 20
99.397957
 11
197.794998
 21
78.694862
  0
LINE
  8
0
  6
CONTINUOUS
 10
195.787903
 20
26.607080
 11
197.795105
 21
47.310463
  0
ARC
  8
0
  6
CONTINUOUS
 10
123.794998
 20
113.002502
 40
5.000000
 50
90.000000
 51
180.000000
  0
ARC
  8
0
  6
CONTINUOUS
 10
109.794998
 20
113.002502
 40
9.000000
 50
-94.120667
 51
0.000000
  0
ARC
  8
0
  6
CONTINUOUS
 10
108.789101
 20
99.038681
 40
5.000000
 50
85.879799
 51
175.879501
  0
LINE
  8
0
  6
CONTINUOUS
 10
103.802101
 20
99.397957
 11
101.794998
 21
78.694862
  0
ARC
  8
0
  6
CONTINUOUS
 10
108.789101
 20
26.966320
 40
5.000000
 50
-175.879501
 51
-85.879791
  0
ARC
  8
0
  6
CONTINUOUS
 10
109.794998
 20
13.002500
 40
9.000000
 50
0.000000
 51
94.120163
  0
ARC
  8
0
  6
CONTINUOUS
 10
123.794998
 20
13.002500
 40
5.000000
 50
180.000000
 51
270.000000
  0
LINE
  8
0
  6
CONTINUOUS
 10
103.802101
 20
26.607080
 11
101.794899
 21
47.310463
  0
ARC
  8
0
  6
CONTINUOUS
 10
109.794998
 20
113.002502
 40
9.000000
 50
90.000000
 51
175.879898
  0
LINE
  8
0
  6
CONTINUOUS
 10
100.818199
 20
113.649132
 11
99.294998
 21
92.502502
  0
LINE
  8
0
  6
CONTINUOUS
 10
100.818199
 20
12.355940
 11
99.294998
 21
33.502499
  0
ARC
  8
0
  6
CONTINUOUS
 10
109.794998
 20
13.002500
 40
9.000000
 50
-175.879898
 51
-90.000000
  0
ARC
  8
0
  6
CONTINUOUS
 10
104.294998
 20
17.302530
 40
5.000000
 50
143.994797
 51
180.000000
  0
ARC
  8
0
  6
CONTINUOUS
 10
97.294998
 20
9.302500
 40
2.000000
 50
-90.000000
 51
0.000000
  0
LINE
  8
0
  6
CONTINUOUS
 10
99.294998
 20
9.302500
 11
99.294998
 21
17.302530
  0
LINE
  8
0
  6
CONTINUOUS
 10
99.294998
 20
92.502502
 11
99.294998
 21
33.502491
  0
LINE
  8
0
  6
CONTINUOUS
 10
26.795000
 20
86.711800
 11
97.294998
 21
86.711800
  0
LINE
  8
0
  6
CONTINUOUS
 10
26.795000
 20
17.893190
 11
97.794998
 21
17.893190
  0
CIRCLE
  8
0
  6
CONTINUOUS
 10
149.794998
 20
78.002502
 40
23.500000
  0
LINE
  8
0
  6
CONTINUOUS
 10
143.419998
 20
40.555729
 11
143.419998
 21
35.002499
  0
LINE
  8
0
  6
CONTINUOUS
 10
146.607498
 20
42.572819
 11
146.607498
 21
44.565006
  0
LINE
  8
0
  6
CONTINUOUS
 10
152.982498
 20
42.572819
 11
152.982498
 21
44.565006
  0
LINE
  8
0
  6
CONTINUOUS
 10
149.172394
 20
43.394592
 11
149.172394
 21
36.048401
  0
LINE
  8
0
  6
CONTINUOUS
 10
150.367798
 20
43.394592
 11
150.367798
 21
36.048401
  0
LINE
  8
0
  6
CONTINUOUS
 10
156.643097
 20
43.394592
 11
156.643097
 21
35.998600
  0
LINE
  8
0
  6
CONTINUOUS
 10
157.738800
 20
39.472481
 11
157.738800
 21
35.998600
  0
LINE
  8
0
  6
CONTINUOUS
 10
141.907501
 20
43.294987
 11
138.835602
 21
43.294987
  0
LINE
  8
0
  6
CONTINUOUS
 10
138.835602
 20
43.294987
 11
138.115799
 21
42.402493
  0
LINE
  8
0
  6
CONTINUOUS
 10
138.202393
 20
44.565006
 11
137.044998
 21
43.083012
  0
LINE
  8
0
  6
CONTINUOUS
 10
138.115799
 20
36.893429
 11
138.847107
 21
36.123112
  0
LINE
  8
0
  6
CONTINUOUS
 10
137.044998
 20
36.243359
 11
138.274796
 21
35.002499
  0
LINE
  8
0
  6
CONTINUOUS
 10
137.044998
 20
43.083012
 11
137.044998
 21
36.243359
  0
LINE
  8
0
  6
CONTINUOUS
 10
138.115799
 20
42.402493
 11
138.115799
 21
36.893429
  0
LINE
  8
0
  6
CONTINUOUS
 10
142.498596
 20
42.723541
 11
141.895401
 21
43.294987
  0
LINE
  8
0
  6
CONTINUOUS
 10
142.488998
 20
44.565006
 11
143.419998
 21
43.531860
  0
LINE
  8
0
  6
CONTINUOUS
 10
142.498596
 20
42.572819
 11
143.419998
 21
42.572819
  0
LINE
  8
0
  6
CONTINUOUS
 10
138.202393
 20
44.565006
 11
142.488998
 21
44.565006
  0
LINE
  8
0
  6
CONTINUOUS
 10
142.498596
 20
39.509830
 11
140.830200
 21
39.509830
  0
LINE
  8
0
  6
CONTINUOUS
 10
142.498596
 20
38.513741
 11
142.498596
 21
39.310612
  0
LINE
  8
0
  6
CONTINUOUS
 10
140.506393
 20
36.123112
 11
138.847107
 21
36.123112
  0
ARC
  8
0
  6
CONTINUOUS
 10
140.506393
 20
38.115299
 40
1.992187
 50
-89.999786
 51
0.000109
  0
LINE
  8
0
  6
CONTINUOUS
 10
142.498596
 20
35.764771
 11
142.498596
 21
35.002499
  0
LINE
  8
0
  6
CONTINUOUS
 10
143.419998
 20
43.531860
 11
143.419998
 21
42.572819
  0
LINE
  8
0
  6
CONTINUOUS
 10
142.498596
 20
39.509830
 11
142.498596
 21
38.115299
  0
LINE
  8
0
  6
CONTINUOUS
 10
140.830200
 20
40.555729
 11
140.830200
 21
39.509830
  0
LINE
  8
0
  6
CONTINUOUS
 10
142.498596
 20
35.002499
 11
143.419998
 21
35.002499
  0
LINE
  8
0
  6
CONTINUOUS
 10
142.498596
 20
35.764771
 11
141.590103
 21
35.002499
  0
LINE
  8
0
  6
CONTINUOUS
 10
150.367798
 20
36.048401
 11
150.766205
 21
36.048401
  0
LINE
  8
0
  6
CONTINUOUS
 10
148.699295
 20
36.048401
 11
148.699295
 21
35.002499
  0
LINE
  8
0
  6
CONTINUOUS
 10
150.766205
 20
36.048401
 11
150.766205
 21
35.002499
  0
LINE
  8
0
  6
CONTINUOUS
 10
152.317505
 20
42.572819
 11
152.982498
 21
42.572819
  0
LINE
  8
0
  6
CONTINUOUS
 10
146.607498
 20
42.572819
 11
147.315094
 21
42.572819
  0
LINE
  8
0
  6
CONTINUOUS
 10
146.607498
 20
44.565006
 11
152.982498
 21
44.565006
  0
LINE
  8
0
  6
CONTINUOUS
 10
148.699295
 20
35.002499
 11
150.766205
 21
35.002499
  0
LINE
  8
0
  6
CONTINUOUS
 10
148.699295
 20
36.048401
 11
149.172394
 21
36.048401
  0
ARC
  8
0
  6
CONTINUOUS
 10
159.992493
 20
42.012508
 40
2.552490
 50
-73.981873
 51
90.003510
  0
ARC
  8
0
  6
CONTINUOUS
 10
159.992493
 20
42.012508
 40
1.557193
 50
-82.585274
 51
62.411850
  0
LINE
  8
0
  6
CONTINUOUS
 10
156.169998
 20
44.565006
 11
159.992493
 21
44.565006
  0
LINE
  8
0
  6
CONTINUOUS
 10
156.169998
 20
44.565006
 11
156.169998
 21
43.394592
  0
LINE
  8
0
  6
CONTINUOUS
 10
157.738800
 20
43.394592
 11
157.738800
 21
40.468342
  0
LINE
  8
0
  6
CONTINUOUS
 10
160.696899
 20
39.559132
 11
162.276703
 21
35.998600
  0
LINE
  8
0
  6
CONTINUOUS
 10
159.779297
 20
39.472481
 11
161.274399
 21
35.998600
  0
LINE
  8
0
  6
CONTINUOUS
 10
156.169998
 20
35.998600
 11
156.643097
 21
35.998600
  0
LINE
  8
0
  6
CONTINUOUS
 10
157.738800
 20
35.998600
 11
158.174606
 21
35.998600
  0
LINE
  8
0
  6
CONTINUOUS
 10
158.174606
 20
35.002499
 11
156.169998
 21
35.002499
  0
LINE
  8
0
  6
CONTINUOUS
 10
161.075806
 20
35.998600
 11
161.274399
 21
35.998600
  0
LINE
  8
0
  6
CONTINUOUS
 10
162.276703
 20
35.998600
 11
162.544998
 21
35.998600
  0
LINE
  8
0
  6
CONTINUOUS
 10
161.075806
 20
35.002499
 11
162.544998
 21
35.002499
  0
LINE
  8
0
  6
CONTINUOUS
 10
162.544998
 20
35.998600
 11
162.544998
 21
35.002499
  0
LINE
  8
0
  6
CONTINUOUS
 10
161.075806
 20
35.998600
 11
161.075806
 21
35.002499
  0
LINE
  8
0
  6
CONTINUOUS
 10
158.174606
 20
35.998600
 11
158.174606
 21
35.002499
  0
LINE
  8
0
  6
CONTINUOUS
 10
156.169998
 20
35.998600
 11
156.169998
 21
35.002499
  0
LINE
  8
0
  6
CONTINUOUS
 10
147.657501
 20
43.394592
 11
147.315094
 21
42.572819
  0
LINE
  8
0
  6
CONTINUOUS
 10
152.028793
 20
43.394592
 11
152.317505
 21
42.572819
  0
LINE
  8
0
  6
CONTINUOUS
 10
150.367798
 20
43.394592
 11
152.028793
 21
43.394592
  0
LINE
  8
0
  6
CONTINUOUS
 10
149.172394
 20
43.394592
 11
147.657501
 21
43.394592
  0
LINE
  8
0
  6
CONTINUOUS
 10
156.169998
 20
43.394592
 11
156.643097
 21
43.394592
  0
LINE
  8
0
  6
CONTINUOUS
 10
157.738800
 20
43.394592
 11
160.713699
 21
43.392658
  0
LINE
  8
0
  6
CONTINUOUS
 10
142.498596
 20
42.723541
 11
142.498596
 21
42.572819
  0
LINE
  8
0
  6
CONTINUOUS
 10
138.274796
 20
35.002499
 11
141.590103
 21
35.002499
  0
LINE
  8
0
  6
CONTINUOUS
 10
157.738800
 20
40.468342
 11
160.193497
 21
40.468342
  0
LINE
  8
0
  6
CONTINUOUS
 10
157.738800
 20
39.472481
 11
159.779297
 21
39.472481
  0
LINE
  8
0
  6
CONTINUOUS
 10
140.830200
 20
40.555729
 11
143.419998
 21
40.555729
  0
LINE
  8
0
  6
CONTINUOUS
 10
135.794998
 20
117.071297
 11
135.794998
 21
111.523109
  0
LINE
  8
0
  6
CONTINUOUS
 10
163.794998
 20
117.071297
 11
163.794998
 21
111.523117
  0
LINE
  8
0
  6
CONTINUOUS
 10
135.794998
 20
14.481890
 11
135.794998
 21
9.207870
  0
LINE
  8
0
  6
CONTINUOUS
 10
163.794998
 20
14.481890
 11
163.794998
 21
9.207870
  0
LINE
  8
0
  6
CENTER
 10
349.795013
 20
-2.697500
 11
349.795013
 21
156.229996
  0
LINE
  8
0
  6
CONTINUOUS
 10
307.795013
 20
100.502487
 11
307.795013
 21
55.502495
  0
LINE
  8
0
  6
CONTINUOUS
 10
386.795013
 20
113.054382
 11
386.795013
 21
12.950580
  0
LINE
  8
0
  6
CENTER
 10
268.295013
 20
78.002502
 11
430.295013
 21
78.002502
  0
LINE
  8
0
  6
CONTINUOUS
 10
311.795013
 20
101.502502
 11
308.795013
 21
101.502502
  0
LINE
  8
0
  6
CONTINUOUS
 10
311.795013
 20
54.502499
 11
308.795013
 21
54.502499
  0
LINE
  8
0
  6
CONTINUOUS
 10
310.260406
 20
122.002502
 11
301.795013
 21
122.002502
  0
LINE
  8
0
  6
CONTINUOUS
 10
310.260406
 20
4.002500
 11
301.795013
 21
4.002500
  0
LINE
  8
0
  6
CONTINUOUS
 10
383.847290
 20
116.053940
 11
313.760101
 21
117.277039
  0
LINE
  8
0
  6
CONTINUOUS
 10
383.847412
 20
9.951050
 11
313.760101
 21
8.727420
  0
LINE
  8
0
  6
CONTINUOUS
 10
384.842804
 20
92.502502
 11
316.960785
 21
92.502502
  0
LINE
  8
0
  6
CONTINUOUS
 10
384.842804
 20
33.502499
 11
314.795013
 21
33.502499
  0
ARC
  8
0
  6
CONTINUOUS
 10
383.795013
 20
113.054382
 40
3.000000
 50
0.000000
 51
89.000359
  0
ARC
  8
0
  6
CONTINUOUS
 10
383.795013
 20
12.950580
 40
3.000000
 50
-88.999687
 51
0.000000
  0
ARC
  8
0
  6
CONTINUOUS
 10
314.795013
 20
30.502520
 40
3.000000
 50
90.000000
 51
180.000000
  0
LINE
  8
0
  6
CENTER
 10
296.732513
 20
13.002500
 11
316.482513
 21
13.002500
  0
LINE
  8
0
  6
CENTER
 10
298.482513
 20
113.002502
 11
315.482513
 21
113.002502
  0
LINE
  8
0
  6
DASHED
 10
301.795013
 20
108.752502
 11
311.795013
 21
108.752502
  0
LINE
  8
0
  6
DASHED
 10
301.795013
 20
117.252502
 11
311.795013
 21
117.252502
  0
LINE
  8
0
  6
DASHED
 10
301.795013
 20
17.252501
 11
311.795013
 21
17.252501
  0
LINE
  8
0
  6
DASHED
 10
301.795013
 20
8.752500
 11
311.795013
 21
8.752500
  0
LINE
  8
0
  6
CONTINUOUS
 10
323.795013
 20
7.302500
 11
375.795013
 21
7.302500
  0
ARC
  8
0
  6
CONTINUOUS
 10
375.795013
 20
10.302500
 40
3.000000
 50
270.000000
 51
351.561890
  0
ARC
  8
0
  6
CONTINUOUS
 10
323.795013
 20
10.302500
 40
3.000000
 50
208.811905
 51
270.000000
  0
ARC
  8
0
  6
CONTINUOUS
 10
308.795013
 20
55.502495
 40
1.000000
 50
180.000000
 51
270.000000
  0
ARC
  8
0
  6
CONTINUOUS
 10
308.795013
 20
100.502487
 40
1.000000
 50
90.000000
 51
180.000000
  0
ARC
  8
0
  6
CONTINUOUS
 10
349.795013
 20
52.302502
 40
45.000000
 50
-34.692108
 51
20.421860
  0
LINE
  8
0
  6
CONTINUOUS
 10
391.795013
 20
100.502487
 11
391.795013
 21
55.502495
  0
LINE
  8
0
  6
CONTINUOUS
 10
388.795013
 20
101.502502
 11
390.795013
 21
101.502502
  0
LINE
  8
0
  6
CONTINUOUS
 10
388.795013
 20
54.502499
 11
390.795013
 21
54.502499
  0
ARC
  8
0
  6
CONTINUOUS
 10
388.795013
 20
103.502502
 40
2.000000
 50
180.000000
 51
270.000000
  0
ARC
  8
0
  6
CONTINUOUS
 10
388.795013
 20
52.502506
 40
2.000000
 50
90.000000
 51
180.000000
  0
ARC
  8
0
  6
CONTINUOUS
 10
390.795013
 20
55.502495
 40
1.000000
 50
-90.000000
 51
0.000000
  0
ARC
  8
0
  6
CONTINUOUS
 10
390.795013
 20
100.502487
 40
1.000000
 50
0.000000
 51
90.000000
  0
LINE
  8
0
  6
CONTINUOUS
 10
301.795013
 20
105.718620
 11
309.232513
 21
104.739998
  0
LINE
  8
0
  6
CONTINUOUS
 10
309.232513
 20
104.739998
 11
314.232513
 21
101.489998
  0
LINE
  8
0
  6
CONTINUOUS
 10
317.146606
 20
92.074997
 11
318.607513
 21
91.114998
  0
LINE
  8
0
  6
CONTINUOUS
 10
318.607513
 20
91.114998
 11
318.107513
 21
85.114998
  0
LINE
  8
0
  6
CONTINUOUS
 10
318.107513
 20
85.114998
 11
316.107513
 21
81.614998
  0
LINE
  8
0
  6
CONTINUOUS
 10
316.107513
 20
81.614998
 11
317.982513
 21
76.114998
  0
LINE
  8
0
  6
CONTINUOUS
 10
317.982513
 20
76.114998
 11
317.357513
 21
70.364998
  0
LINE
  8
0
  6
CONTINUOUS
 10
317.357513
 20
70.364998
 11
316.732513
 21
64.114998
  0
LINE
  8
0
  6
CONTINUOUS
 10
316.732513
 20
64.114998
 11
317.857513
 21
59.490002
  0
LINE
  8
0
  6
CONTINUOUS
 10
317.857513
 20
59.490002
 11
316.732513
 21
55.240002
  0
LINE
  8
0
  6
CONTINUOUS
 10
316.732513
 20
55.240002
 11
313.482513
 21
50.365002
  0
LINE
  8
0
  6
CONTINUOUS
 10
313.482513
 20
50.365002
 11
308.982513
 21
48.365002
  0
LINE
  8
0
  6
CONTINUOUS
 10
308.982513
 20
48.365002
 11
304.732513
 21
45.740002
  0
LINE
  8
0
  6
CONTINUOUS
 10
304.732513
 20
45.740002
 11
301.795013
 21
45.343040
  0
LINE
  8
0
  6
CONTINUOUS
 10
314.232513
 20
101.489998
 11
314.982513
 21
97.052498
  0
LINE
  8
0
  6
CONTINUOUS
 10
314.982513
 20
97.052498
 11
317.146606
 21
92.074997
  0
LINE
  8
0
  6
CONTINUOUS
 10
311.795013
 20
120.002502
 11
311.795013
 21
49.614998
  0
LINE
  8
0
  6
CONTINUOUS
 10
311.795013
 20
6.002500
 11
311.795013
 21
30.502510
  0
LINE
  8
0
  6
CONTINUOUS
 10
301.795013
 20
122.002502
 11
301.795013
 21
87.002502
  0
LINE
  8
0
  6
CONTINUOUS
 10
301.795013
 20
4.002500
 11
301.795013
 21
69.002502
  0
LINE
  8
0
  6
CENTER
 10
289.600006
 20
52.302502
 11
406.061890
 21
52.302502
  0
LINE
  8
0
  6
CONTINUOUS
 10
312.192200
 20
120.520142
 11
312.472778
 21
119.472946
  0
ARC
  8
0
  6
CONTINUOUS
 10
309.795013
 20
120.002487
 40
2.000000
 50
0.000000
 51
90.000000
  0
ARC
  8
0
  6
CONTINUOUS
 10
310.260406
 20
120.002487
 40
2.000000
 50
15.000500
 51
90.000000
  0
ARC
  8
0
  6
CONTINUOUS
 10
313.795013
 20
119.276749
 40
2.000000
 50
180.000000
 51
269.000610
  0
ARC
  8
0
  6
CONTINUOUS
 10
315.370605
 20
120.249397
 40
3.000000
 50
195.000504
 51
269.000610
  0
LINE
  8
0
  6
CONTINUOUS
 10
312.192200
 20
5.484870
 11
312.472595
 21
6.531520
  0
ARC
  8
0
  6
CONTINUOUS
 10
309.795013
 20
6.002500
 40
2.000000
 50
-90.000000
 51
0.000000
  0
ARC
  8
0
  6
CONTINUOUS
 10
310.260406
 20
6.002500
 40
2.000000
 50
270.000000
 51
345.000000
  0
ARC
  8
0
  6
CONTINUOUS
 10
313.795013
 20
6.727720
 40
2.000000
 50
91.000526
 51
180.000000
  0
ARC
  8
0
  6
CONTINUOUS
 10
315.370392
 20
5.755080
 40
3.000000
 50
91.000458
 51
165.000305
  0
LINE
  8
0
  6
CONTINUOUS
 10
155.294998
 20
75.002518
 11
155.294998
 21
81.002518
  0
LINE
  8
0
  6
CONTINUOUS
 10
161.294998
 20
75.002541
 11
161.294998
 21
81.002541
  0
LINE
  8
0
  6
CONTINUOUS
 10
161.294998
 20
75.002541
 11
155.294998
 21
75.002518
  0
LINE
  8
0
  6
CONTINUOUS
 10
161.294998
 20
81.002541
 11
155.294998
 21
81.002518
  0
ARC
  8
0
  6
CONTINUOUS
 10
149.794998
 20
78.002502
 40
9.000000
 50
19.471210
 51
340.528809
  0
LINE
  8
0
  6
CONTINUOUS
 10
275.795013
 20
69.002502
 11
275.795013
 21
87.002502
  0
LINE
  8
0
  6
CONTINUOUS
 10
305.795013
 20
87.002502
 11
275.795013
 21
87.002502
  0
LINE
  8
0
  6
CONTINUOUS
 10
305.795013
 20
69.002502
 11
275.795013
 21
69.002502
  0
LINE
  8
0
  6
CONTINUOUS
 10
305.795013
 20
88.002502
 11
305.795013
 21
68.002502
  0
LINE
  8
0
  6
CONTINUOUS
 10
307.795013
 20
88.002502
 11
305.795013
 21
88.002502
  0
LINE
  8
0
  6
CONTINUOUS
 10
307.795013
 20
68.002502
 11
305.795013
 21
68.002502
  0
ARC
  8
0
  6
CONTINUOUS
 10
299.795013
 20
78.002502
 40
3.000000
 50
-90.000000
 51
90.000000
  0
LINE
  8
0
  6
CONTINUOUS
 10
299.795013
 20
81.002502
 11
275.795013
 21
81.002502
  0
LINE
  8
0
  6
CONTINUOUS
 10
299.795013
 20
75.002502
 11
275.795013
 21
75.002502
  0
LINE
  8
0
  6
CONTINUOUS
 10
423.795013
 20
69.002502
 11
423.795013
 21
87.002502
  0
LINE
  8
0
  6
CONTINUOUS
 10
393.795013
 20
87.002502
 11
423.795013
 21
87.002502
  0
LINE
  8
0
  6
CONTINUOUS
 10
393.795013
 20
69.002502
 11
423.795013
 21
69.002502
  0
LINE
  8
0
  6
CONTINUOUS
 10
393.795013
 20
88.002502
 11
393.795013
 21
68.002502
  0
LINE
  8
0
  6
CONTINUOUS
 10
391.795013
 20
88.002502
 11
393.795013
 21
88.002502
  0
LINE
  8
0
  6
CONTINUOUS
 10
391.795013
 20
68.002502
 11
393.795013
 21
68.002502
  0
ARC
  8
0
  6
CONTINUOUS
 10
399.795013
 20
78.002502
 40
3.000000
 50
90.000000
 51
270.000000
  0
LINE
  8
0
  6
CONTINUOUS
 10
399.795013
 20
81.002502
 11
423.795013
 21
81.002502
  0
LINE
  8
0
  6
CONTINUOUS
 10
399.795013
 20
75.002502
 11
423.795013
 21
75.002502
  0
LINE
  8
0
  6
CENTER
 10
149.794998
 20
350.381256
 11
149.794998
 21
189.210632
  0
LINE
  8
0
  6
CENTER
 10
-7.191250
 20
269.503754
 11
213.936249
 21
269.503754
  0
LINE
  8
0
  6
CONTINUOUS
 10
196.120880
 20
306.503754
 11
101.243317
 21
306.503754
  0
LINE
  8
0
  6
CONTINUOUS
 10
6.295000
 20
234.503754
 11
6.295000
 21
304.503754
  0
LINE
  8
0
  6
CONTINUOUS
 10
10.836449
 20
314.503754
 11
26.795000
 21
314.503754
  0
LINE
  8
0
  6
CONTINUOUS
 10
6.795000
 20
311.503754
 11
6.795000
 21
227.503754
  0
LINE
  8
0
  6
CONTINUOUS
 10
26.795000
 20
298.503754
 11
8.545000
 21
298.503754
  0
ARC
  8
0
  6
CONTINUOUS
 10
6.294999
 20
305.003754
 40
0.500000
 50
-90.000000
 51
0.000000
  0
LINE
  8
0
  6
CONTINUOUS
 10
7.372343
 20
312.503754
 11
6.795000
 21
311.503754
  0
ARC
  8
0
  6
CONTINUOUS
 10
10.836463
 20
310.503754
 40
4.000000
 50
90.000000
 51
150.000397
  0
LINE
  8
0
  6
CONTINUOUS
 10
10.836449
 20
224.503754
 11
26.795000
 21
224.503754
  0
ARC
  8
0
  6
CONTINUOUS
 10
6.294999
 20
234.003754
 40
0.500000
 50
0.000000
 51
90.000000
  0
LINE
  8
0
  6
CONTINUOUS
 10
7.372343
 20
226.503754
 11
6.795000
 21
227.503754
  0
ARC
  8
0
  6
CONTINUOUS
 10
10.836463
 20
228.503738
 40
4.000000
 50
-150.000397
 51
-90.000000
  0
LINE
  8
0
  6
CONTINUOUS
 10
26.795000
 20
224.503754
 11
26.795000
 21
244.503723
  0
LINE
  8
0
  6
CONTINUOUS
 10
99.085587
 20
298.506500
 11
99.243996
 21
304.556091
  0
LINE
  8
0
  6
CONTINUOUS
 10
97.137199
 20
314.503754
 11
26.795000
 21
314.503754
  0
LINE
  8
0
  6
CONTINUOUS
 10
26.795000
 20
298.503754
 11
106.137550
 21
298.503754
  0
LINE
  8
0
  6
CONTINUOUS
 10
26.795000
 20
240.503754
 11
8.545000
 21
240.503754
  0
LINE
  8
0
  6
CONTINUOUS
 10
26.795000
 20
240.503754
 11
97.411873
 21
240.503754
  0
LINE
  8
0
  6
CONTINUOUS
 10
97.268127
 20
224.503754
 11
26.795000
 21
224.503754
  0
LINE
  8
0
  6
CONTINUOUS
 10
98.038078
 20
269.503754
 11
99.294998
 21
221.503754
  0
LINE
  8
0
  6
CONTINUOUS
 10
132.794998
 20
301.503754
 11
132.794998
 21
233.503754
  0
LINE
  8
0
  6
CONTINUOUS
 10
166.794998
 20
301.503754
 11
166.794998
 21
233.503754
  0
LINE
  8
0
  6
CONTINUOUS
 10
106.137550
 20
296.503754
 11
106.137550
 21
233.038757
  0
LINE
  8
0
  6
CONTINUOUS
 10
172.294998
 20
311.503754
 11
127.294998
 21
311.503754
  0
LINE
  8
0
  6
CONTINUOUS
 10
126.294998
 20
310.503754
 11
126.294998
 21
308.503754
  0
LINE
  8
0
  6
CONTINUOUS
 10
173.294998
 20
310.503754
 11
173.294998
 21
308.503754
  0
ARC
  8
0
  6
CONTINUOUS
 10
124.294998
 20
308.503754
 40
2.000000
 50
-90.000000
 51
0.000000
  0
ARC
  8
0
  6
CONTINUOUS
 10
175.294998
 20
308.503754
 40
2.000000
 50
180.000000
 51
270.000000
  0
ARC
  8
0
  6
CONTINUOUS
 10
127.295013
 20
310.503754
 40
1.000000
 50
90.000000
 51
180.000000
  0
ARC
  8
0
  6
CONTINUOUS
 10
172.294998
 20
310.503754
 40
1.000000
 50
0.000000
 51
90.000000
  0
LINE
  8
0
  6
CONTINUOUS
 10
161.294998
 20
343.503754
 11
140.794998
 21
343.503754
  0
LINE
  8
0
  6
CONTINUOUS
 10
140.794998
 20
313.503754
 11
140.794998
 21
343.503754
  0
LINE
  8
0
  6
CONTINUOUS
 10
158.794998
 20
313.503754
 11
158.794998
 21
316.503754
  0
LINE
  8
0
  6
CONTINUOUS
 10
139.794998
 20
313.503754
 11
159.794998
 21
313.503754
  0
LINE
  8
0
  6
CONTINUOUS
 10
139.794998
 20
311.503754
 11
139.794998
 21
313.503754
  0
LINE
  8
0
  6
CONTINUOUS
 10
159.794998
 20
311.503754
 11
159.794998
 21
313.503754
  0
LINE
  8
0
  6
CONTINUOUS
 10
161.294998
 20
343.503754
 11
161.294998
 21
316.503754
  0
LINE
  8
0
  6
CONTINUOUS
 10
161.294998
 20
316.503754
 11
158.279999
 21
316.503754
  0
LINE
  8
0
  6
CONTINUOUS
 10
158.279999
 20
343.503754
 11
158.279999
 21
316.503754
  0
LINE
  8
0
  6
CONTINUOUS
 10
161.294998
 20
195.503754
 11
140.794998
 21
195.503754
  0
LINE
  8
0
  6
CONTINUOUS
 10
140.794998
 20
221.503754
 11
140.794998
 21
195.503754
  0
LINE
  8
0
  6
CONTINUOUS
 10
161.294998
 20
195.503754
 11
161.294998
 21
221.503754
  0
LINE
  8
0
  6
CONTINUOUS
 10
158.279999
 20
195.503754
 11
158.279999
 21
221.503754
  0
LINE
  8
0
  6
CONTINUOUS
 10
26.795000
 20
294.503723
 11
26.795000
 21
314.503754
  0
LINE
  8
0
  6
CONTINUOUS
 10
99.294998
 20
221.503754
 11
200.294998
 21
221.503754
  0
LINE
  8
0
  6
CONTINUOUS
 10
198.120193
 20
304.556091
 11
200.294998
 21
221.503754
  0
LINE
  8
0
  6
CONTINUOUS
 10
101.086197
 20
231.503754
 11
198.084824
 21
231.503754
  0
ARC
  8
0
  6
CONTINUOUS
 10
198.084824
 20
229.503754
 40
2.000000
 50
1.500000
 51
90.000000
  0
ARC
  8
0
  6
CONTINUOUS
 10
196.120880
 20
304.503754
 40
2.000000
 50
1.500000
 51
90.000000
  0
ARC
  8
0
  6
CONTINUOUS
 10
168.794998
 20
233.503754
 40
2.000000
 50
180.000000
 51
270.000000
  0
ARC
  8
0
  6
CONTINUOUS
 10
130.794998
 20
233.503754
 40
2.000000
 50
-90.000000
 51
0.000000
  0
LINE
  8
0
  6
CONTINUOUS
 10
132.653061
 20
232.763748
 11
166.936935
 21
232.763748
  0
ARC
  8
0
  6
CONTINUOUS
 10
101.086197
 20
229.503754
 40
2.000000
 50
90.000000
 51
181.500000
  0
ARC
  8
0
  6
CONTINUOUS
 10
97.268127
 20
222.503754
 40
2.000000
 50
1.500000
 51
90.000000
  0
LINE
  8
0
  6
CONTINUOUS
 10
99.136513
 20
312.556091
 11
99.243996
 21
308.451385
  0
ARC
  8
0
  6
CONTINUOUS
 10
97.137199
 20
312.503754
 40
2.000000
 50
1.500000
 51
90.000000
  0
ARC
  8
0
  6
CONTINUOUS
 10
101.243317
 20
308.503754
 40
2.000000
 50
181.500000
 51
270.000000
  0
ARC
  8
0
  6
CONTINUOUS
 10
101.243317
 20
304.503754
 40
2.000000
 50
90.000000
 51
178.500000
  0
LINE
  8
0
  6
CENTER
 10
189.794998
 20
213.815155
 11
189.794998
 21
237.677811
  0
LINE
  8
0
  6
DASHED
 10
194.044998
 20
231.503754
 11
194.044998
 21
221.503754
  0
LINE
  8
0
  6
DASHED
 10
185.544998
 20
231.503754
 11
185.544998
 21
221.503754
  0
LINE
  8
0
  6
CENTER
 10
109.794998
 20
213.815155
 11
109.794998
 21
237.677811
  0
LINE
  8
0
  6
DASHED
 10
105.544998
 20
231.503754
 11
105.544998
 21
221.503754
  0
LINE
  8
0
  6
DASHED
 10
114.044998
 20
231.503754
 11
114.044998
 21
221.503754
  0
LINE
  8
0
  6
CONTINUOUS
 10
17.795000
 20
246.503723
 11
17.795000
 21
292.503723
  0
LINE
  8
0
  6
CONTINUOUS
 10
19.795000
 20
294.503723
 11
17.795000
 21
292.503723
  0
LINE
  8
0
  6
CONTINUOUS
 10
19.795000
 20
294.503723
 11
65.794991
 21
294.503723
  0
LINE
  8
0
  6
CONTINUOUS
 10
60.294998
 20
290.003723
 11
60.294998
 21
294.503723
  0
ARC
  8
0
  6
CONTINUOUS
 10
63.294998
 20
290.003723
 40
3.000000
 50
180.000000
 51
270.000000
  0
LINE
  8
0
  6
CONTINUOUS
 10
63.294998
 20
287.003723
 11
67.794991
 21
287.003723
  0
CIRCLE
  8
0
  6
CONTINUOUS
 10
64.294998
 20
291.003723
 40
2.250000
  0
LINE
  8
0
  6
CONTINUOUS
 10
67.794991
 20
246.503723
 11
67.794991
 21
292.503723
  0
LINE
  8
0
  6
CONTINUOUS
 10
65.794991
 20
294.503723
 11
67.794991
 21
292.503723
  0
LINE
  8
0
  6
CONTINUOUS
 10
65.794991
 20
244.503723
 11
67.794991
 21
246.503723
  0
LINE
  8
0
  6
CONTINUOUS
 10
65.794991
 20
244.503723
 11
19.795000
 21
244.503723
  0
LINE
  8
0
  6
CONTINUOUS
 10
17.795000
 20
246.503723
 11
19.795000
 21
244.503723
  0
LINE
  8
0
  6
CONTINUOUS
 10
22.295000
 20
252.003723
 11
17.795010
 21
252.003723
  0
CIRCLE
  8
0
  6
CONTINUOUS
 10
21.295000
 20
248.003723
 40
2.250000
  0
ARC
  8
0
  6
CONTINUOUS
 10
22.295000
 20
249.003723
 40
3.000000
 50
0.000000
 51
90.000000
  0
LINE
  8
0
  6
CONTINUOUS
 10
25.295000
 20
249.003723
 11
25.295000
 21
244.503723
  0
LINE
  8
0
  6
CENTER
 10
42.794998
 20
237.037949
 11
42.794998
 21
301.169983
  0
LINE
  8
0
  6
CONTINUOUS
 10
18.795006
 20
252.003754
 11
18.795006
 21
287.003754
  0
LINE
  8
0
  6
CONTINUOUS
 10
60.294998
 20
293.503754
 11
25.295019
 21
293.503754
  0
LINE
  8
0
  6
CONTINUOUS
 10
66.794991
 20
287.003754
 11
66.794991
 21
252.003754
  0
LINE
  8
0
  6
CONTINUOUS
 10
25.295000
 20
245.503754
 11
60.294979
 21
245.503754
  0
LINE
  8
0
  6
CONTINUOUS
 10
22.295019
 20
287.003754
 11
17.795019
 21
287.003754
  0
ARC
  8
0
  6
CONTINUOUS
 10
22.295019
 20
290.003754
 40
3.000000
 50
-90.000000
 51
0.000000
  0
LINE
  8
0
  6
CONTINUOUS
 10
25.295019
 20
290.003754
 11
25.295019
 21
294.503754
  0
CIRCLE
  8
0
  6
CONTINUOUS
 10
21.295019
 20
291.003754
 40
2.250000
  0
LINE
  8
0
  6
CONTINUOUS
 10
63.294979
 20
252.003754
 11
67.794983
 21
252.003754
  0
ARC
  8
0
  6
CONTINUOUS
 10
63.294979
 20
249.003754
 40
3.000000
 50
90.000000
 51
180.000000
  0
LINE
  8
0
  6
CONTINUOUS
 10
60.294979
 20
249.003754
 11
60.294979
 21
244.503754
  0
CIRCLE
  8
0
  6
CONTINUOUS
 10
64.294983
 20
248.003754
 40
2.250000
  0
LINE
  8
0
  6
CONTINUOUS
 10
19.295000
 20
98.802498
 11
65.794998
 21
98.802498
  0
LINE
  8
0
  6
CONTINUOUS
 10
67.794983
 20
142.802505
 11
67.794998
 21
100.802498
  0
LINE
  8
0
  6
CONTINUOUS
 10
17.795000
 20
142.802505
 11
17.795000
 21
100.802498
  0
LINE
  8
0
  6
CONTINUOUS
 10
17.795000
 20
110.802498
 11
67.794998
 21
110.802498
  0
LINE
  8
0
  6
CONTINUOUS
 10
65.794998
 20
98.802498
 11
67.794998
 21
100.802498
  0
LINE
  8
0
  6
CONTINUOUS
 10
17.795000
 20
100.802498
 11
19.795000
 21
98.802498
  0
LINE
  8
0
  6
CONTINUOUS
 10
17.795000
 20
100.802498
 11
67.794998
 21
100.802498
  0
LINE
  8
0
  6
CONTINUOUS
 10
17.795000
 20
111.802498
 11
67.794991
 21
111.802498
  0
LINE
  8
0
  6
CONTINUOUS
 10
18.795000
 20
143.802505
 11
66.794983
 21
143.802505
  0
LINE
  8
0
  6
CONTINUOUS
 10
66.794983
 20
143.802505
 11
67.794983
 21
142.802505
  0
LINE
  8
0
  6
CONTINUOUS
 10
18.795000
 20
143.802505
 11
17.795000
 21
142.802505
  0
LINE
  8
0
  6
CONTINUOUS
 10
17.795000
 20
142.802505
 11
67.794983
 21
142.802505
  0
LINE
  8
0
  6
CENTER
 10
42.794998
 20
92.412987
 11
42.794998
 21
149.112991
  0
LINE
  8
0
  6
CENTER
 10
15.420000
 20
126.802498
 11
20.045000
 21
126.802498
  0
LINE
  8
0
  6
CONTINUOUS
 10
19.295000
 20
98.802498
 11
19.295000
 21
97.302498
  0
LINE
  8
0
  6
CONTINUOUS
 10
65.294998
 20
98.802498
 11
65.294998
 21
97.302498
  0
LINE
  8
0
  6
CONTINUOUS
 10
16.920000
 20
137.302505
 11
18.920000
 21
137.302505
  0
LINE
  8
0
  6
CONTINUOUS
 10
16.920000
 20
116.302498
 11
18.920000
 21
116.302498
  0
LINE
  8
0
  6
CONTINUOUS
 10
374.794983
 20
142.802505
 11
374.794983
 21
116.211914
  0
LINE
  8
0
  6
CONTINUOUS
 10
324.795013
 20
142.802505
 11
324.795013
 21
117.084473
  0
LINE
  8
0
  6
CONTINUOUS
 10
325.795013
 20
143.802505
 11
373.794983
 21
143.802505
  0
LINE
  8
0
  6
CONTINUOUS
 10
373.794983
 20
143.802505
 11
374.794983
 21
142.802505
  0
LINE
  8
0
  6
CONTINUOUS
 10
325.795013
 20
143.802505
 11
324.795013
 21
142.802505
  0
LINE
  8
0
  6
CONTINUOUS
 10
324.795013
 20
142.802505
 11
374.794983
 21
142.802505
  0
TEXT
  8
0
 10
-7.000000
 20
-5.000000
 40
4.000000
 41
1.000000
  1
HFM-18T-160~240-S40WK
 50
0.000000
  0
ENDSEC
  0
EOF
