  0
SECTION
  2
HEADER
  9
$CLAYER
  8
1
  9
$LTSCALE
 40
3.0
  0
ENDSEC
  0
SECTION
  2
TABLES
  0
TABLE
  2
LTYPE
 70
     4
  0
LTYPE
  2
CONTINUOUS
  3
solid line
 70
    64
 72
    65
 73
     0
 40
0.0
  0
LTYPE
  2
DASHED
  3
__ __ __ __ __ __ __ __ __ __ __ __ __ __ __
 70
    64
 72
    65
 73
     2
 40
0.75
 49
0.5
 49
-0.25
  0
LTYPE
  2
CENTER
  3
____ _ ____ _ ____ _ ____ _ ____ _ ____ _ ____
 70
    64
 72
    65
 73
     4
 40
2.0
 49
1.25
 49
-0.25
 49
0.25
 49
-0.25
  0
LTYPE
  2
PHANTOM
  3
_____ _ _ _____ _ _ _____ _ _ _____ _ _ ____
 70
    64
 72
    65
 73
     6
 40
2.5
 49
1.25
 49
-0.25
 49
0.25
 49
-0.25
 49
0.25
 49
-0.25
  0
ENDTAB
  0
TABLE
  2
LAYER
 70
     1
  0
LAYER
  2
0
 70
    64
 62
     7
  6
CONTINUOUS
  0
ENDTAB
  0
TABLE
  2
STYLE
 70
     1
  0
STYLE
  2
STANDARD
 70
     0
 40
0.000000
 41
1.000000
 50
0.000000
 71
     0
 42
3.000000
  3
txt
  4
BIGFONT
  0
ENDTAB
  0
ENDSEC
  0
SECTION
  2
BLOCKS
  0
ENDSEC
  0
SECTION
  2
ENTITIES
  0
LINE
  8
0
  6
CONTINUOUS
 10
52.977489
 20
99.097496
 11
62.477489
 21
99.097496
  0
LINE
  8
0
  6
CONTINUOUS
 10
62.477489
 20
88.506798
 11
52.977489
 21
88.506798
  0
LINE
  8
0
  6
CONTINUOUS
 10
52.977489
 20
9.097496
 11
62.477489
 21
9.097496
  0
LINE
  8
0
  6
CONTINUOUS
 10
62.477489
 20
19.688196
 11
52.977489
 21
19.688196
  0
LINE
  8
0
  6
CONTINUOUS
 10
52.977489
 20
101.097496
 11
52.977489
 21
7.097496
  0
LINE
  8
0
  6
CONTINUOUS
 10
52.977489
 20
83.097496
 11
9.002490
 21
83.097496
  0
LINE
  8
0
  6
CONTINUOUS
 10
52.977489
 20
25.097496
 11
9.002489
 21
25.097496
  0
LINE
  8
0
  6
CONTINUOUS
 10
63.477489
 20
100.597496
 11
63.477489
 21
99.097496
  0
LINE
  8
0
  6
CONTINUOUS
 10
55.477489
 20
100.597496
 11
55.477489
 21
99.097496
  0
LINE
  8
0
  6
CONTINUOUS
 10
55.477489
 20
100.597496
 11
63.477489
 21
100.597496
  0
LINE
  8
0
  6
CONTINUOUS
 10
60.377491
 20
113.597496
 11
60.377491
 21
100.597496
  0
LINE
  8
0
  6
CONTINUOUS
 10
58.577492
 20
114.222496
 11
58.577492
 21
100.597496
  0
LINE
  8
0
  6
CONTINUOUS
 10
56.777489
 20
112.159996
 11
56.777489
 21
100.597496
  0
LINE
  8
0
  6
CONTINUOUS
 10
62.177490
 20
112.972496
 11
62.177490
 21
100.597496
  0
LINE
  8
0
  6
CONTINUOUS
 10
58.577492
 20
114.222496
 11
60.377491
 21
113.597496
  0
LINE
  8
0
  6
CONTINUOUS
 10
56.777489
 20
112.159996
 11
58.577492
 21
112.784996
  0
LINE
  8
0
  6
CONTINUOUS
 10
62.177490
 20
112.972496
 11
60.378502
 21
112.524788
  0
LINE
  8
0
  6
CONTINUOUS
 10
10.477488
 20
101.097496
 11
52.977489
 21
101.097496
  0
LINE
  8
0
  6
CONTINUOUS
 10
10.477488
 20
7.097496
 11
52.977489
 21
7.097496
  0
ARC
  8
0
  6
CONTINUOUS
 10
10.477513
 20
96.097527
 40
5.000000
 50
90.000000
 51
180.000000
  0
ARC
  8
0
  6
CONTINUOUS
 10
10.477487
 20
12.097496
 40
5.000000
 50
180.000000
 51
270.000000
  0
LINE
  8
0
  6
CONTINUOUS
 10
5.477513
 20
96.097504
 11
5.477488
 21
12.097486
  0
LINE
  8
0
  6
CONTINUOUS
 10
62.477489
 20
9.097496
 11
62.477489
 21
99.097496
  0
LINE
  8
0
  6
CENTER
 10
-3.949375
 20
54.097496
 11
157.364197
 21
54.097496
  0
LINE
  8
0
  6
CONTINUOUS
 10
235.977493
 20
35.297497
 11
235.977493
 21
94.297493
  0
LINE
  8
0
  6
CONTINUOUS
 10
62.477489
 20
99.097496
 11
135.323196
 21
99.097496
  0
LINE
  8
0
  6
CONTINUOUS
 10
132.977493
 20
9.097496
 11
62.477489
 21
9.097496
  0
LINE
  8
0
  6
CENTER
 10
150.527206
 20
79.797493
 11
220.056870
 21
79.797493
  0
LINE
  8
0
  6
CENTER
 10
185.477493
 20
132.347488
 11
185.477493
 21
-3.642804
  0
LINE
  8
0
  6
CONTINUOUS
 10
145.477493
 20
123.797493
 11
225.477493
 21
123.797493
  0
LINE
  8
0
  6
CONTINUOUS
 10
145.477493
 20
5.797496
 11
225.477493
 21
5.797496
  0
LINE
  8
0
  6
CENTER
 10
218.477493
 20
114.797493
 11
232.352493
 21
114.797493
  0
LINE
  8
0
  6
CENTER
 10
225.477493
 20
108.097496
 11
225.477493
 21
121.597496
  0
CIRCLE
  8
0
  6
CONTINUOUS
 10
225.477493
 20
114.797493
 40
4.250000
  0
LINE
  8
0
  6
CENTER
 10
218.477493
 20
14.797496
 11
232.352493
 21
14.797496
  0
LINE
  8
0
  6
CENTER
 10
225.477493
 20
21.497496
 11
225.477493
 21
7.997496
  0
CIRCLE
  8
0
  6
CONTINUOUS
 10
225.477493
 20
14.797496
 40
4.250000
  0
LINE
  8
0
  6
CENTER
 10
152.477493
 20
114.797493
 11
138.602493
 21
114.797493
  0
LINE
  8
0
  6
CENTER
 10
145.477493
 20
108.097496
 11
145.477493
 21
121.597496
  0
CIRCLE
  8
0
  6
CONTINUOUS
 10
145.477493
 20
114.797493
 40
4.250000
  0
LINE
  8
0
  6
CENTER
 10
152.477493
 20
14.797496
 11
138.602493
 21
14.797496
  0
LINE
  8
0
  6
CENTER
 10
145.477493
 20
21.497496
 11
145.477493
 21
7.997496
  0
CIRCLE
  8
0
  6
CONTINUOUS
 10
145.477493
 20
14.797496
 40
4.250000
  0
LINE
  8
0
  6
CONTINUOUS
 10
234.454193
 20
115.444122
 11
235.977493
 21
94.297493
  0
LINE
  8
0
  6
CONTINUOUS
 10
234.454193
 20
14.150936
 11
235.977493
 21
35.297497
  0
LINE
  8
0
  6
CONTINUOUS
 10
159.477493
 20
119.797493
 11
211.477493
 21
119.797493
  0
LINE
  8
0
  6
CONTINUOUS
 10
211.477493
 20
9.797496
 11
159.477493
 21
9.797496
  0
LINE
  8
0
  6
CONTINUOUS
 10
137.477493
 20
80.489685
 11
137.477493
 21
49.104977
  0
ARC
  8
0
  6
CONTINUOUS
 10
185.477493
 20
64.797493
 40
50.500000
 50
18.103800
 51
161.896194
  0
ARC
  8
0
  6
CONTINUOUS
 10
185.477493
 20
64.797493
 40
50.500000
 50
198.103806
 51
341.896210
  0
LINE
  8
0
  6
CONTINUOUS
 10
233.477493
 20
80.489853
 11
233.477493
 21
49.105461
  0
ARC
  8
0
  6
CONTINUOUS
 10
211.477493
 20
114.797493
 40
5.000000
 50
0.000000
 51
90.000000
  0
ARC
  8
0
  6
CONTINUOUS
 10
226.483398
 20
100.833679
 40
5.000000
 50
4.120544
 51
94.120201
  0
ARC
  8
0
  6
CONTINUOUS
 10
225.477493
 20
114.797493
 40
9.000000
 50
180.000000
 51
274.120697
  0
ARC
  8
0
  6
CONTINUOUS
 10
225.477493
 20
114.797493
 40
9.000000
 50
4.120065
 51
90.000000
  0
ARC
  8
0
  6
CONTINUOUS
 10
211.477493
 20
14.797496
 40
5.000000
 50
-90.000000
 51
0.000000
  0
ARC
  8
0
  6
CONTINUOUS
 10
226.483398
 20
28.761316
 40
5.000000
 50
265.879791
 51
355.879486
  0
ARC
  8
0
  6
CONTINUOUS
 10
225.477493
 20
14.797496
 40
9.000000
 50
270.000000
 51
355.879913
  0
ARC
  8
0
  6
CONTINUOUS
 10
225.477493
 20
14.797496
 40
9.000000
 50
85.879837
 51
180.000000
  0
LINE
  8
0
  6
CONTINUOUS
 10
231.470398
 20
101.192955
 11
233.477493
 21
80.489853
  0
LINE
  8
0
  6
CONTINUOUS
 10
231.470398
 20
28.402077
 11
233.477600
 21
49.105457
  0
ARC
  8
0
  6
CONTINUOUS
 10
159.477493
 20
114.797493
 40
5.000000
 50
90.000000
 51
180.000000
  0
ARC
  8
0
  6
CONTINUOUS
 10
145.477493
 20
114.797493
 40
9.000000
 50
-94.120667
 51
0.000000
  0
ARC
  8
0
  6
CONTINUOUS
 10
144.471603
 20
100.833679
 40
5.000000
 50
85.879799
 51
175.879501
  0
LINE
  8
0
  6
CONTINUOUS
 10
139.484497
 20
101.192955
 11
137.477493
 21
80.489853
  0
ARC
  8
0
  6
CONTINUOUS
 10
144.471603
 20
28.761316
 40
5.000000
 50
-175.879501
 51
-85.879791
  0
ARC
  8
0
  6
CONTINUOUS
 10
145.477493
 20
14.797496
 40
9.000000
 50
0.000000
 51
94.120163
  0
ARC
  8
0
  6
CONTINUOUS
 10
159.477493
 20
14.797496
 40
5.000000
 50
180.000000
 51
270.000000
  0
LINE
  8
0
  6
CONTINUOUS
 10
139.484497
 20
28.402077
 11
137.477402
 21
49.105457
  0
ARC
  8
0
  6
CONTINUOUS
 10
145.477493
 20
114.797493
 40
9.000000
 50
90.000000
 51
175.879898
  0
LINE
  8
0
  6
CONTINUOUS
 10
136.500702
 20
115.444122
 11
134.977493
 21
94.297493
  0
LINE
  8
0
  6
CONTINUOUS
 10
136.500702
 20
14.150936
 11
134.977493
 21
35.297497
  0
ARC
  8
0
  6
CONTINUOUS
 10
145.477493
 20
14.797496
 40
9.000000
 50
-175.879898
 51
-90.000000
  0
ARC
  8
0
  6
CONTINUOUS
 10
139.977493
 20
19.097527
 40
5.000000
 50
143.994797
 51
180.000000
  0
ARC
  8
0
  6
CONTINUOUS
 10
132.977493
 20
11.097496
 40
2.000000
 50
-90.000000
 51
0.000000
  0
LINE
  8
0
  6
CONTINUOUS
 10
134.977493
 20
11.097496
 11
134.977493
 21
19.097527
  0
LINE
  8
0
  6
CONTINUOUS
 10
134.977493
 20
94.297493
 11
134.977493
 21
35.297485
  0
LINE
  8
0
  6
CONTINUOUS
 10
62.477489
 20
88.506798
 11
132.977493
 21
88.506798
  0
LINE
  8
0
  6
CONTINUOUS
 10
62.477489
 20
19.688187
 11
133.477493
 21
19.688187
  0
CIRCLE
  8
0
  6
CONTINUOUS
 10
185.477493
 20
79.797493
 40
23.500000
  0
LINE
  8
0
  6
CONTINUOUS
 10
179.102493
 20
42.350727
 11
179.102493
 21
36.797497
  0
LINE
  8
0
  6
CONTINUOUS
 10
182.289993
 20
44.367813
 11
182.289993
 21
46.360001
  0
LINE
  8
0
  6
CONTINUOUS
 10
188.664993
 20
44.367813
 11
188.664993
 21
46.360001
  0
LINE
  8
0
  6
CONTINUOUS
 10
184.854904
 20
45.189590
 11
184.854904
 21
37.843395
  0
LINE
  8
0
  6
CONTINUOUS
 10
186.050293
 20
45.189590
 11
186.050293
 21
37.843395
  0
LINE
  8
0
  6
CONTINUOUS
 10
192.325607
 20
45.189590
 11
192.325607
 21
37.793594
  0
LINE
  8
0
  6
CONTINUOUS
 10
193.421295
 20
41.267475
 11
193.421295
 21
37.793594
  0
LINE
  8
0
  6
CONTINUOUS
 10
177.589996
 20
45.089981
 11
174.518097
 21
45.089981
  0
LINE
  8
0
  6
CONTINUOUS
 10
174.518097
 20
45.089981
 11
173.798294
 21
44.197487
  0
LINE
  8
0
  6
CONTINUOUS
 10
173.884903
 20
46.360001
 11
172.727493
 21
44.878006
  0
LINE
  8
0
  6
CONTINUOUS
 10
173.798294
 20
38.688427
 11
174.529602
 21
37.918106
  0
LINE
  8
0
  6
CONTINUOUS
 10
172.727493
 20
38.038357
 11
173.957306
 21
36.797497
  0
LINE
  8
0
  6
CONTINUOUS
 10
172.727493
 20
44.878006
 11
172.727493
 21
38.038357
  0
LINE
  8
0
  6
CONTINUOUS
 10
173.798294
 20
44.197487
 11
173.798294
 21
38.688427
  0
LINE
  8
0
  6
CONTINUOUS
 10
178.181107
 20
44.518539
 11
177.577896
 21
45.089981
  0
LINE
  8
0
  6
CONTINUOUS
 10
178.171494
 20
46.360001
 11
179.102493
 21
45.326859
  0
LINE
  8
0
  6
CONTINUOUS
 10
178.181107
 20
44.367813
 11
179.102493
 21
44.367813
  0
LINE
  8
0
  6
CONTINUOUS
 10
173.884903
 20
46.360001
 11
178.171494
 21
46.360001
  0
LINE
  8
0
  6
CONTINUOUS
 10
178.181107
 20
41.304825
 11
176.512695
 21
41.304825
  0
LINE
  8
0
  6
CONTINUOUS
 10
178.181107
 20
40.308735
 11
178.181107
 21
41.105606
  0
LINE
  8
0
  6
CONTINUOUS
 10
176.188904
 20
37.918106
 11
174.529602
 21
37.918106
  0
ARC
  8
0
  6
CONTINUOUS
 10
176.188904
 20
39.910297
 40
1.992187
 50
-89.999786
 51
0.000109
  0
LINE
  8
0
  6
CONTINUOUS
 10
178.181107
 20
37.559765
 11
178.181107
 21
36.797497
  0
LINE
  8
0
  6
CONTINUOUS
 10
179.102493
 20
45.326859
 11
179.102493
 21
44.367813
  0
LINE
  8
0
  6
CONTINUOUS
 10
178.181107
 20
41.304825
 11
178.181107
 21
39.910297
  0
LINE
  8
0
  6
CONTINUOUS
 10
176.512695
 20
42.350727
 11
176.512695
 21
41.304825
  0
LINE
  8
0
  6
CONTINUOUS
 10
178.181107
 20
36.797497
 11
179.102493
 21
36.797497
  0
LINE
  8
0
  6
CONTINUOUS
 10
178.181107
 20
37.559765
 11
177.272598
 21
36.797497
  0
LINE
  8
0
  6
CONTINUOUS
 10
186.050293
 20
37.843395
 11
186.448700
 21
37.843395
  0
LINE
  8
0
  6
CONTINUOUS
 10
184.381805
 20
37.843395
 11
184.381805
 21
36.797497
  0
LINE
  8
0
  6
CONTINUOUS
 10
186.448700
 20
37.843395
 11
186.448700
 21
36.797497
  0
LINE
  8
0
  6
CONTINUOUS
 10
188.000000
 20
44.367813
 11
188.664993
 21
44.367813
  0
LINE
  8
0
  6
CONTINUOUS
 10
182.289993
 20
44.367813
 11
182.997604
 21
44.367813
  0
LINE
  8
0
  6
CONTINUOUS
 10
182.289993
 20
46.360001
 11
188.664993
 21
46.360001
  0
LINE
  8
0
  6
CONTINUOUS
 10
184.381805
 20
36.797497
 11
186.448700
 21
36.797497
  0
LINE
  8
0
  6
CONTINUOUS
 10
184.381805
 20
37.843395
 11
184.854904
 21
37.843395
  0
ARC
  8
0
  6
CONTINUOUS
 10
195.675003
 20
43.807507
 40
2.552490
 50
-73.981873
 51
90.003510
  0
ARC
  8
0
  6
CONTINUOUS
 10
195.675003
 20
43.807507
 40
1.557193
 50
-82.585274
 51
62.411850
  0
LINE
  8
0
  6
CONTINUOUS
 10
191.852493
 20
46.360001
 11
195.675003
 21
46.360001
  0
LINE
  8
0
  6
CONTINUOUS
 10
191.852493
 20
46.360001
 11
191.852493
 21
45.189590
  0
LINE
  8
0
  6
CONTINUOUS
 10
193.421295
 20
45.189590
 11
193.421295
 21
42.263336
  0
LINE
  8
0
  6
CONTINUOUS
 10
196.379395
 20
41.354126
 11
197.959198
 21
37.793594
  0
LINE
  8
0
  6
CONTINUOUS
 10
195.461807
 20
41.267475
 11
196.956894
 21
37.793594
  0
LINE
  8
0
  6
CONTINUOUS
 10
191.852493
 20
37.793594
 11
192.325607
 21
37.793594
  0
LINE
  8
0
  6
CONTINUOUS
 10
193.421295
 20
37.793594
 11
193.857101
 21
37.793594
  0
LINE
  8
0
  6
CONTINUOUS
 10
193.857101
 20
36.797497
 11
191.852493
 21
36.797497
  0
LINE
  8
0
  6
CONTINUOUS
 10
196.758301
 20
37.793594
 11
196.956894
 21
37.793594
  0
LINE
  8
0
  6
CONTINUOUS
 10
197.959198
 20
37.793594
 11
198.227493
 21
37.793594
  0
LINE
  8
0
  6
CONTINUOUS
 10
196.758301
 20
36.797497
 11
198.227493
 21
36.797497
  0
LINE
  8
0
  6
CONTINUOUS
 10
198.227493
 20
37.793594
 11
198.227493
 21
36.797497
  0
LINE
  8
0
  6
CONTINUOUS
 10
196.758301
 20
37.793594
 11
196.758301
 21
36.797497
  0
LINE
  8
0
  6
CONTINUOUS
 10
193.857101
 20
37.793594
 11
193.857101
 21
36.797497
  0
LINE
  8
0
  6
CONTINUOUS
 10
191.852493
 20
37.793594
 11
191.852493
 21
36.797497
  0
LINE
  8
0
  6
CONTINUOUS
 10
183.339996
 20
45.189590
 11
182.997604
 21
44.367813
  0
LINE
  8
0
  6
CONTINUOUS
 10
187.711304
 20
45.189590
 11
188.000000
 21
44.367813
  0
LINE
  8
0
  6
CONTINUOUS
 10
186.050293
 20
45.189590
 11
187.711304
 21
45.189590
  0
LINE
  8
0
  6
CONTINUOUS
 10
184.854904
 20
45.189590
 11
183.339996
 21
45.189590
  0
LINE
  8
0
  6
CONTINUOUS
 10
191.852493
 20
45.189590
 11
192.325607
 21
45.189590
  0
LINE
  8
0
  6
CONTINUOUS
 10
193.421295
 20
45.189590
 11
196.396194
 21
45.187653
  0
LINE
  8
0
  6
CONTINUOUS
 10
178.181107
 20
44.518539
 11
178.181107
 21
44.367813
  0
LINE
  8
0
  6
CONTINUOUS
 10
173.957306
 20
36.797497
 11
177.272598
 21
36.797497
  0
LINE
  8
0
  6
CONTINUOUS
 10
193.421295
 20
42.263336
 11
195.876007
 21
42.263336
  0
LINE
  8
0
  6
CONTINUOUS
 10
193.421295
 20
41.267475
 11
195.461807
 21
41.267475
  0
LINE
  8
0
  6
CONTINUOUS
 10
176.512695
 20
42.350727
 11
179.102493
 21
42.350727
  0
LINE
  8
0
  6
CONTINUOUS
 10
171.477493
 20
118.866295
 11
171.477493
 21
113.318108
  0
LINE
  8
0
  6
CONTINUOUS
 10
199.477493
 20
118.866295
 11
199.477493
 21
113.318115
  0
LINE
  8
0
  6
CONTINUOUS
 10
171.477493
 20
16.276886
 11
171.477493
 21
11.002866
  0
LINE
  8
0
  6
CONTINUOUS
 10
199.477493
 20
16.276886
 11
199.477493
 21
11.002866
  0
LINE
  8
0
  6
CONTINUOUS
 10
190.977493
 20
76.797516
 11
190.977493
 21
82.797516
  0
LINE
  8
0
  6
CONTINUOUS
 10
196.977493
 20
76.797539
 11
196.977493
 21
82.797539
  0
LINE
  8
0
  6
CONTINUOUS
 10
196.977493
 20
76.797539
 11
190.977493
 21
76.797516
  0
LINE
  8
0
  6
CONTINUOUS
 10
196.977493
 20
82.797539
 11
190.977493
 21
82.797516
  0
ARC
  8
0
  6
CONTINUOUS
 10
185.477493
 20
79.797493
 40
9.000000
 50
19.471210
 51
340.528809
  0
LINE
  8
0
  6
CENTER
 10
385.477509
 20
-0.902504
 11
385.477509
 21
129.597488
  0
LINE
  8
0
  6
CONTINUOUS
 10
343.477509
 20
102.297485
 11
343.477509
 21
57.297489
  0
LINE
  8
0
  6
CONTINUOUS
 10
422.477509
 20
114.849373
 11
422.477509
 21
14.745576
  0
LINE
  8
0
  6
CENTER
 10
303.977509
 20
79.797493
 11
465.977509
 21
79.797493
  0
LINE
  8
0
  6
CONTINUOUS
 10
347.477509
 20
103.297493
 11
344.477509
 21
103.297493
  0
LINE
  8
0
  6
CONTINUOUS
 10
347.477509
 20
56.297493
 11
344.477509
 21
56.297493
  0
LINE
  8
0
  6
CONTINUOUS
 10
345.942902
 20
123.797493
 11
337.477509
 21
123.797493
  0
LINE
  8
0
  6
CONTINUOUS
 10
345.942902
 20
5.797496
 11
337.477509
 21
5.797496
  0
LINE
  8
0
  6
CONTINUOUS
 10
419.529785
 20
117.848938
 11
349.442596
 21
119.072037
  0
LINE
  8
0
  6
CONTINUOUS
 10
419.529907
 20
11.746046
 11
349.442596
 21
10.522416
  0
LINE
  8
0
  6
CONTINUOUS
 10
420.346497
 20
94.297493
 11
352.643311
 21
94.297493
  0
LINE
  8
0
  6
CONTINUOUS
 10
420.346497
 20
35.297497
 11
350.477509
 21
35.297497
  0
ARC
  8
0
  6
CONTINUOUS
 10
419.477509
 20
114.849373
 40
3.000000
 50
0.000000
 51
89.000359
  0
ARC
  8
0
  6
CONTINUOUS
 10
419.477509
 20
14.745576
 40
3.000000
 50
-88.999687
 51
0.000000
  0
ARC
  8
0
  6
CONTINUOUS
 10
350.477509
 20
32.297516
 40
3.000000
 50
90.000000
 51
180.000000
  0
LINE
  8
0
  6
CENTER
 10
332.415009
 20
14.797496
 11
352.165009
 21
14.797496
  0
LINE
  8
0
  6
CENTER
 10
334.165009
 20
114.797493
 11
351.165009
 21
114.797493
  0
LINE
  8
0
  6
DASHED
 10
337.477509
 20
110.547493
 11
347.477509
 21
110.547493
  0
LINE
  8
0
  6
DASHED
 10
337.477509
 20
119.047493
 11
347.477509
 21
119.047493
  0
LINE
  8
0
  6
DASHED
 10
337.477509
 20
19.047497
 11
347.477509
 21
19.047497
  0
LINE
  8
0
  6
DASHED
 10
337.477509
 20
10.547496
 11
347.477509
 21
10.547496
  0
LINE
  8
0
  6
CONTINUOUS
 10
359.477509
 20
9.097496
 11
411.477509
 21
9.097496
  0
ARC
  8
0
  6
CONTINUOUS
 10
411.477509
 20
12.097496
 40
3.000000
 50
270.000000
 51
351.561890
  0
ARC
  8
0
  6
CONTINUOUS
 10
359.477509
 20
12.097496
 40
3.000000
 50
208.811905
 51
270.000000
  0
ARC
  8
0
  6
CONTINUOUS
 10
344.477509
 20
57.297489
 40
1.000000
 50
180.000000
 51
270.000000
  0
ARC
  8
0
  6
CONTINUOUS
 10
344.477509
 20
102.297485
 40
1.000000
 50
90.000000
 51
180.000000
  0
ARC
  8
0
  6
CONTINUOUS
 10
385.477509
 20
54.097496
 40
45.000000
 50
-34.692108
 51
20.421860
  0
LINE
  8
0
  6
CONTINUOUS
 10
427.477509
 20
102.297485
 11
427.477509
 21
57.297489
  0
LINE
  8
0
  6
CONTINUOUS
 10
424.477509
 20
103.297493
 11
426.477509
 21
103.297493
  0
LINE
  8
0
  6
CONTINUOUS
 10
424.477509
 20
56.297493
 11
426.477509
 21
56.297493
  0
ARC
  8
0
  6
CONTINUOUS
 10
424.477509
 20
105.297493
 40
2.000000
 50
180.000000
 51
270.000000
  0
ARC
  8
0
  6
CONTINUOUS
 10
424.477509
 20
54.297504
 40
2.000000
 50
90.000000
 51
180.000000
  0
ARC
  8
0
  6
CONTINUOUS
 10
426.477509
 20
57.297489
 40
1.000000
 50
-90.000000
 51
0.000000
  0
ARC
  8
0
  6
CONTINUOUS
 10
426.477509
 20
102.297485
 40
1.000000
 50
0.000000
 51
90.000000
  0
LINE
  8
0
  6
CONTINUOUS
 10
337.477509
 20
107.513618
 11
344.915009
 21
106.534996
  0
LINE
  8
0
  6
CONTINUOUS
 10
344.915009
 20
106.534996
 11
349.915009
 21
103.284996
  0
LINE
  8
0
  6
CONTINUOUS
 10
352.829102
 20
93.869995
 11
354.290009
 21
92.909996
  0
LINE
  8
0
  6
CONTINUOUS
 10
354.290009
 20
92.909996
 11
353.790009
 21
86.909996
  0
LINE
  8
0
  6
CONTINUOUS
 10
353.790009
 20
86.909996
 11
351.790009
 21
83.409996
  0
LINE
  8
0
  6
CONTINUOUS
 10
351.790009
 20
83.409996
 11
353.665009
 21
77.909996
  0
LINE
  8
0
  6
CONTINUOUS
 10
353.665009
 20
77.909996
 11
353.040009
 21
72.159996
  0
LINE
  8
0
  6
CONTINUOUS
 10
353.040009
 20
72.159996
 11
352.415009
 21
65.909996
  0
LINE
  8
0
  6
CONTINUOUS
 10
352.415009
 20
65.909996
 11
353.540009
 21
61.284996
  0
LINE
  8
0
  6
CONTINUOUS
 10
353.540009
 20
61.284996
 11
352.415009
 21
57.034996
  0
LINE
  8
0
  6
CONTINUOUS
 10
352.415009
 20
57.034996
 11
349.165009
 21
52.159996
  0
LINE
  8
0
  6
CONTINUOUS
 10
349.165009
 20
52.159996
 11
344.665009
 21
50.159996
  0
LINE
  8
0
  6
CONTINUOUS
 10
344.665009
 20
50.159996
 11
340.415009
 21
47.534996
  0
LINE
  8
0
  6
CONTINUOUS
 10
340.415009
 20
47.534996
 11
337.477509
 21
47.138039
  0
LINE
  8
0
  6
CONTINUOUS
 10
349.915009
 20
103.284996
 11
350.665009
 21
98.847496
  0
LINE
  8
0
  6
CONTINUOUS
 10
350.665009
 20
98.847496
 11
352.829102
 21
93.869995
  0
LINE
  8
0
  6
CONTINUOUS
 10
347.477509
 20
121.797493
 11
347.477509
 21
51.409992
  0
LINE
  8
0
  6
CONTINUOUS
 10
347.477509
 20
7.797496
 11
347.477509
 21
32.297504
  0
LINE
  8
0
  6
CONTINUOUS
 10
337.477509
 20
123.797493
 11
337.477509
 21
88.797493
  0
LINE
  8
0
  6
CONTINUOUS
 10
337.477509
 20
5.797496
 11
337.477509
 21
70.797493
  0
LINE
  8
0
  6
CENTER
 10
331.772888
 20
54.097496
 11
437.482391
 21
54.097496
  0
LINE
  8
0
  6
CONTINUOUS
 10
347.874695
 20
122.315140
 11
348.155304
 21
121.267906
  0
ARC
  8
0
  6
CONTINUOUS
 10
345.477509
 20
121.797485
 40
2.000000
 50
0.000000
 51
90.000000
  0
ARC
  8
0
  6
CONTINUOUS
 10
345.942902
 20
121.797485
 40
2.000000
 50
15.000290
 51
90.000000
  0
ARC
  8
0
  6
CONTINUOUS
 10
349.477509
 20
121.071747
 40
2.000000
 50
180.000000
 51
269.000610
  0
ARC
  8
0
  6
CONTINUOUS
 10
351.053101
 20
122.044403
 40
3.000000
 50
195.000504
 51
269.000488
  0
LINE
  8
0
  6
CONTINUOUS
 10
347.874695
 20
7.279856
 11
348.164795
 21
8.362766
  0
ARC
  8
0
  6
CONTINUOUS
 10
345.477509
 20
7.797486
 40
2.000000
 50
-90.000000
 51
0.000000
  0
ARC
  8
0
  6
CONTINUOUS
 10
345.942902
 20
7.797496
 40
2.000000
 50
270.000000
 51
345.000000
  0
ARC
  8
0
  6
CONTINUOUS
 10
349.477509
 20
8.522726
 40
2.000000
 50
91.000633
 51
180.000000
  0
ARC
  8
0
  6
CONTINUOUS
 10
351.065887
 20
7.550306
 40
3.000000
 50
91.000526
 51
164.352097
  0
LINE
  8
0
  6
CONTINUOUS
 10
432.477509
 20
27.996986
 11
432.477509
 21
70.797493
  0
LINE
  8
0
  6
CONTINUOUS
 10
411.578003
 20
7.097496
 11
359.377014
 21
7.097496
  0
LINE
  8
0
  6
CONTINUOUS
 10
354.427185
 20
9.147736
 11
352.977509
 21
10.597486
  0
ARC
  8
0
  6
CONTINUOUS
 10
359.377014
 20
14.097496
 40
7.000000
 50
225.000107
 51
270.000000
  0
ARC
  8
0
  6
CONTINUOUS
 10
411.578003
 20
14.097496
 40
7.000000
 50
270.000000
 51
315.000092
  0
ARC
  8
0
  6
CONTINUOUS
 10
425.477509
 20
27.996977
 40
7.000000
 50
-44.999882
 51
0.000000
  0
LINE
  8
0
  6
CONTINUOUS
 10
430.427185
 20
23.047247
 11
422.477509
 21
15.097496
  0
LINE
  8
0
  6
CONTINUOUS
 10
416.527802
 20
9.147746
 11
419.118896
 21
11.738866
  0
LINE
  8
0
  6
CONTINUOUS
 10
459.477509
 20
70.797493
 11
459.477509
 21
88.797493
  0
LINE
  8
0
  6
CONTINUOUS
 10
429.477509
 20
88.797493
 11
459.477509
 21
88.797493
  0
LINE
  8
0
  6
CONTINUOUS
 10
429.477509
 20
70.797493
 11
459.477509
 21
70.797493
  0
LINE
  8
0
  6
CONTINUOUS
 10
429.477509
 20
89.797493
 11
429.477509
 21
69.797493
  0
LINE
  8
0
  6
CONTINUOUS
 10
427.477509
 20
89.797493
 11
429.477509
 21
89.797493
  0
LINE
  8
0
  6
CONTINUOUS
 10
427.477509
 20
69.797493
 11
429.477509
 21
69.797493
  0
ARC
  8
0
  6
CONTINUOUS
 10
435.477509
 20
79.797493
 40
3.000000
 50
90.000000
 51
270.000000
  0
LINE
  8
0
  6
CONTINUOUS
 10
435.477509
 20
82.797493
 11
459.477509
 21
82.797493
  0
LINE
  8
0
  6
CONTINUOUS
 10
435.477509
 20
76.797493
 11
459.477509
 21
76.797493
  0
LINE
  8
0
  6
CONTINUOUS
 10
311.477509
 20
70.797493
 11
311.477509
 21
88.797493
  0
LINE
  8
0
  6
CONTINUOUS
 10
341.477509
 20
88.797493
 11
311.477509
 21
88.797493
  0
LINE
  8
0
  6
CONTINUOUS
 10
341.477509
 20
70.797493
 11
311.477509
 21
70.797493
  0
LINE
  8
0
  6
CONTINUOUS
 10
341.477509
 20
89.797493
 11
341.477509
 21
69.797493
  0
LINE
  8
0
  6
CONTINUOUS
 10
343.477509
 20
89.797493
 11
341.477509
 21
89.797493
  0
LINE
  8
0
  6
CONTINUOUS
 10
343.477509
 20
69.797493
 11
341.477509
 21
69.797493
  0
ARC
  8
0
  6
CONTINUOUS
 10
335.477509
 20
79.797493
 40
3.000000
 50
-90.000000
 51
90.000000
  0
LINE
  8
0
  6
CONTINUOUS
 10
335.477509
 20
82.797493
 11
311.477509
 21
82.797493
  0
LINE
  8
0
  6
CONTINUOUS
 10
335.477509
 20
76.797493
 11
311.477509
 21
76.797493
  0
LINE
  8
0
  6
CENTER
 10
185.477493
 20
321.431549
 11
185.477493
 21
160.260941
  0
LINE
  8
0
  6
CENTER
 10
-9.770937
 20
240.554062
 11
249.618744
 21
240.554062
  0
LINE
  8
0
  6
CONTINUOUS
 10
231.803391
 20
277.554077
 11
136.925812
 21
277.554077
  0
LINE
  8
0
  6
CONTINUOUS
 10
134.768082
 20
269.556793
 11
134.926498
 21
275.606415
  0
LINE
  8
0
  6
CONTINUOUS
 10
132.819702
 20
285.554077
 11
62.477501
 21
285.554077
  0
LINE
  8
0
  6
CONTINUOUS
 10
62.477501
 20
269.554077
 11
141.820053
 21
269.554077
  0
LINE
  8
0
  6
CONTINUOUS
 10
62.477501
 20
211.554062
 11
133.094376
 21
211.554062
  0
LINE
  8
0
  6
CONTINUOUS
 10
132.950623
 20
195.554062
 11
62.477501
 21
195.554062
  0
LINE
  8
0
  6
CONTINUOUS
 10
133.720581
 20
240.554062
 11
134.977493
 21
192.554062
  0
LINE
  8
0
  6
CONTINUOUS
 10
168.477493
 20
272.554077
 11
168.477493
 21
204.554062
  0
LINE
  8
0
  6
CONTINUOUS
 10
202.477493
 20
272.554077
 11
202.477493
 21
204.554062
  0
LINE
  8
0
  6
CONTINUOUS
 10
141.820053
 20
267.554077
 11
141.820053
 21
204.089066
  0
LINE
  8
0
  6
CONTINUOUS
 10
207.977509
 20
282.554077
 11
162.977493
 21
282.554077
  0
LINE
  8
0
  6
CONTINUOUS
 10
161.977493
 20
281.554077
 11
161.977493
 21
279.554077
  0
LINE
  8
0
  6
CONTINUOUS
 10
208.977509
 20
281.554077
 11
208.977509
 21
279.554077
  0
ARC
  8
0
  6
CONTINUOUS
 10
159.977493
 20
279.554077
 40
2.000000
 50
-90.000000
 51
0.000000
  0
ARC
  8
0
  6
CONTINUOUS
 10
210.977493
 20
279.554077
 40
2.000000
 50
180.000000
 51
270.000000
  0
ARC
  8
0
  6
CONTINUOUS
 10
162.977509
 20
281.554077
 40
1.000000
 50
90.000000
 51
180.000000
  0
ARC
  8
0
  6
CONTINUOUS
 10
207.977509
 20
281.554077
 40
1.000000
 50
0.000000
 51
90.000000
  0
LINE
  8
0
  6
CONTINUOUS
 10
196.977493
 20
314.554077
 11
176.477493
 21
314.554077
  0
LINE
  8
0
  6
CONTINUOUS
 10
176.477493
 20
284.554077
 11
176.477493
 21
314.554077
  0
LINE
  8
0
  6
CONTINUOUS
 10
194.477493
 20
284.554077
 11
194.477493
 21
287.554077
  0
LINE
  8
0
  6
CONTINUOUS
 10
175.477493
 20
284.554077
 11
195.477493
 21
284.554077
  0
LINE
  8
0
  6
CONTINUOUS
 10
175.477493
 20
282.554077
 11
175.477493
 21
284.554077
  0
LINE
  8
0
  6
CONTINUOUS
 10
195.477493
 20
282.554077
 11
195.477493
 21
284.554077
  0
LINE
  8
0
  6
CONTINUOUS
 10
196.977493
 20
314.554077
 11
196.977493
 21
287.554077
  0
LINE
  8
0
  6
CONTINUOUS
 10
196.977493
 20
287.554077
 11
193.962494
 21
287.554077
  0
LINE
  8
0
  6
CONTINUOUS
 10
193.962494
 20
314.554077
 11
193.962494
 21
287.554077
  0
LINE
  8
0
  6
CONTINUOUS
 10
196.977493
 20
166.554062
 11
176.477493
 21
166.554062
  0
LINE
  8
0
  6
CONTINUOUS
 10
176.477493
 20
192.554062
 11
176.477493
 21
166.554062
  0
LINE
  8
0
  6
CONTINUOUS
 10
196.977493
 20
166.554062
 11
196.977493
 21
192.554062
  0
LINE
  8
0
  6
CONTINUOUS
 10
193.962494
 20
166.554062
 11
193.962494
 21
192.554062
  0
LINE
  8
0
  6
CONTINUOUS
 10
134.977493
 20
192.554062
 11
235.977493
 21
192.554062
  0
LINE
  8
0
  6
CONTINUOUS
 10
233.802704
 20
275.606415
 11
235.977493
 21
192.554062
  0
LINE
  8
0
  6
CONTINUOUS
 10
136.768692
 20
202.554062
 11
233.767334
 21
202.554062
  0
ARC
  8
0
  6
CONTINUOUS
 10
233.767334
 20
200.554062
 40
2.000000
 50
1.500000
 51
90.000000
  0
ARC
  8
0
  6
CONTINUOUS
 10
231.803391
 20
275.554077
 40
2.000000
 50
1.500000
 51
90.000000
  0
ARC
  8
0
  6
CONTINUOUS
 10
204.477493
 20
204.554062
 40
2.000000
 50
180.000000
 51
270.000000
  0
ARC
  8
0
  6
CONTINUOUS
 10
166.477493
 20
204.554062
 40
2.000000
 50
-90.000000
 51
0.000000
  0
LINE
  8
0
  6
CONTINUOUS
 10
168.335571
 20
203.814056
 11
202.619431
 21
203.814056
  0
ARC
  8
0
  6
CONTINUOUS
 10
136.768692
 20
200.554062
 40
2.000000
 50
90.000000
 51
181.500000
  0
ARC
  8
0
  6
CONTINUOUS
 10
132.950623
 20
193.554062
 40
2.000000
 50
1.500000
 51
90.000000
  0
LINE
  8
0
  6
CONTINUOUS
 10
134.819016
 20
283.606415
 11
134.926498
 21
279.501709
  0
ARC
  8
0
  6
CONTINUOUS
 10
132.819702
 20
283.554077
 40
2.000000
 50
1.500000
 51
90.000000
  0
ARC
  8
0
  6
CONTINUOUS
 10
136.925812
 20
279.554077
 40
2.000000
 50
181.500000
 51
270.000000
  0
ARC
  8
0
  6
CONTINUOUS
 10
136.925812
 20
275.554077
 40
2.000000
 50
90.000000
 51
178.500000
  0
LINE
  8
0
  6
CENTER
 10
225.477493
 20
184.865463
 11
225.477493
 21
208.728119
  0
LINE
  8
0
  6
DASHED
 10
229.727493
 20
202.554062
 11
229.727493
 21
192.554062
  0
LINE
  8
0
  6
DASHED
 10
221.227493
 20
202.554062
 11
221.227493
 21
192.554062
  0
LINE
  8
0
  6
CENTER
 10
145.477493
 20
184.865463
 11
145.477493
 21
208.728119
  0
LINE
  8
0
  6
DASHED
 10
141.227493
 20
202.554062
 11
141.227493
 21
192.554062
  0
LINE
  8
0
  6
DASHED
 10
149.727493
 20
202.554062
 11
149.727493
 21
192.554062
  0
LINE
  8
0
  6
CONTINUOUS
 10
52.977501
 20
285.554077
 11
62.477501
 21
285.554077
  0
LINE
  8
0
  6
CONTINUOUS
 10
62.477501
 20
269.554077
 11
52.977501
 21
269.554077
  0
LINE
  8
0
  6
CONTINUOUS
 10
52.977501
 20
195.554062
 11
62.477501
 21
195.554062
  0
LINE
  8
0
  6
CONTINUOUS
 10
62.477501
 20
195.554062
 11
62.477501
 21
233.688034
  0
LINE
  8
0
  6
CONTINUOUS
 10
62.477501
 20
211.554062
 11
52.977501
 21
211.554062
  0
LINE
  8
0
  6
CONTINUOUS
 10
55.977501
 20
234.554062
 11
55.977501
 21
246.554062
  0
LINE
  8
0
  6
CONTINUOUS
 10
62.977501
 20
234.554062
 11
62.977501
 21
246.554062
  0
LINE
  8
0
  6
CONTINUOUS
 10
56.977501
 20
247.554062
 11
61.977501
 21
247.554062
  0
LINE
  8
0
  6
CONTINUOUS
 10
61.977501
 20
233.554062
 11
56.977501
 21
233.554062
  0
ARC
  8
0
  6
CONTINUOUS
 10
61.977501
 20
246.554062
 40
1.000000
 50
0.000000
 51
90.000000
  0
ARC
  8
0
  6
CONTINUOUS
 10
56.977501
 20
246.554062
 40
1.000000
 50
90.000000
 51
180.000000
  0
ARC
  8
0
  6
CONTINUOUS
 10
56.977501
 20
234.554062
 40
1.000000
 50
180.000000
 51
270.000000
  0
ARC
  8
0
  6
CONTINUOUS
 10
61.977501
 20
234.554062
 40
1.000000
 50
-90.000000
 51
0.000000
  0
LINE
  8
0
  6
CONTINUOUS
 10
60.477501
 20
237.054062
 11
60.477501
 21
244.054062
  0
LINE
  8
0
  6
CONTINUOUS
 10
58.477501
 20
237.054062
 11
58.477501
 21
244.054062
  0
ARC
  8
0
  6
CONTINUOUS
 10
59.477501
 20
244.054062
 40
1.000000
 50
90.000000
 51
180.000000
  0
ARC
  8
0
  6
CONTINUOUS
 10
59.477501
 20
244.054062
 40
1.000000
 50
0.000000
 51
90.000000
  0
ARC
  8
0
  6
CONTINUOUS
 10
59.477501
 20
237.054062
 40
1.000000
 50
180.000000
 51
270.000000
  0
ARC
  8
0
  6
CONTINUOUS
 10
59.477501
 20
237.054062
 40
1.000000
 50
-90.000000
 51
0.000000
  0
LINE
  8
0
  6
CONTINUOUS
 10
62.477501
 20
247.420090
 11
62.477501
 21
285.554077
  0
LINE
  8
0
  6
CONTINUOUS
 10
52.977501
 20
287.554077
 11
52.977501
 21
193.554062
  0
LINE
  8
0
  6
CONTINUOUS
 10
52.977501
 20
269.554077
 11
9.002470
 21
269.554077
  0
LINE
  8
0
  6
CONTINUOUS
 10
52.977501
 20
211.554062
 11
9.002470
 21
211.554062
  0
LINE
  8
0
  6
CONTINUOUS
 10
10.477480
 20
287.554077
 11
52.977501
 21
287.554077
  0
LINE
  8
0
  6
CONTINUOUS
 10
10.477480
 20
193.554062
 11
52.977501
 21
193.554062
  0
ARC
  8
0
  6
CONTINUOUS
 10
10.477510
 20
282.554077
 40
5.000000
 50
90.000000
 51
180.000000
  0
ARC
  8
0
  6
CONTINUOUS
 10
10.477480
 20
198.554062
 40
5.000000
 50
180.000000
 51
270.000000
  0
LINE
  8
0
  6
CONTINUOUS
 10
5.477510
 20
282.554077
 11
5.477480
 21
198.554047
  0
TEXT
  8
0
 10
-9.000000
 20
-3.000000
 40
4.000000
 41
1.000000
  1
HFM-18T-10~240-S60
 50
0.000000
  0
ENDSEC
  0
EOF
