  0
SECTION
  2
HEADER
  9
$CLAYER
  8
1
  9
$LTSCALE
 40
3.0
  0
ENDSEC
  0
SECTION
  2
TABLES
  0
TABLE
  2
LTYPE
 70
     4
  0
LTYPE
  2
CONTINUOUS
  3
solid line
 70
    64
 72
    65
 73
     0
 40
0.0
  0
LTYPE
  2
DASHED
  3
__ __ __ __ __ __ __ __ __ __ __ __ __ __ __
 70
    64
 72
    65
 73
     2
 40
0.75
 49
0.5
 49
-0.25
  0
LTYPE
  2
CENTER
  3
____ _ ____ _ ____ _ ____ _ ____ _ ____ _ ____
 70
    64
 72
    65
 73
     4
 40
2.0
 49
1.25
 49
-0.25
 49
0.25
 49
-0.25
  0
LTYPE
  2
PHANTOM
  3
_____ _ _ _____ _ _ _____ _ _ _____ _ _ ____
 70
    64
 72
    65
 73
     6
 40
2.5
 49
1.25
 49
-0.25
 49
0.25
 49
-0.25
 49
0.25
 49
-0.25
  0
ENDTAB
  0
TABLE
  2
LAYER
 70
     1
  0
LAYER
  2
0
 70
    64
 62
     7
  6
CONTINUOUS
  0
ENDTAB
  0
TABLE
  2
STYLE
 70
     1
  0
STYLE
  2
STANDARD
 70
     0
 40
0.000000
 41
1.000000
 50
0.000000
 71
     0
 42
3.000000
  3
txt
  4
BIGFONT
  0
ENDTAB
  0
ENDSEC
  0
SECTION
  2
BLOCKS
  0
ENDSEC
  0
SECTION
  2
ENTITIES
  0
LINE
  8
0
  6
CONTINUOUS
 10
51.757488
 20
97.298744
 11
61.257488
 21
97.298744
  0
LINE
  8
0
  6
CONTINUOUS
 10
61.257488
 20
86.708046
 11
51.757488
 21
86.708046
  0
LINE
  8
0
  6
CONTINUOUS
 10
51.757488
 20
7.298746
 11
61.257488
 21
7.298746
  0
LINE
  8
0
  6
CONTINUOUS
 10
61.257488
 20
17.889446
 11
51.757488
 21
17.889446
  0
LINE
  8
0
  6
CONTINUOUS
 10
51.757488
 20
99.298744
 11
51.757488
 21
5.298746
  0
LINE
  8
0
  6
CONTINUOUS
 10
51.757488
 20
81.298744
 11
7.782490
 21
81.298744
  0
LINE
  8
0
  6
CONTINUOUS
 10
51.757488
 20
23.298746
 11
7.782489
 21
23.298746
  0
LINE
  8
0
  6
CONTINUOUS
 10
9.257488
 20
99.298744
 11
51.757488
 21
99.298744
  0
LINE
  8
0
  6
CONTINUOUS
 10
9.257488
 20
5.298746
 11
51.757488
 21
5.298746
  0
ARC
  8
0
  6
CONTINUOUS
 10
9.257513
 20
94.298775
 40
5.000000
 50
90.000000
 51
180.000000
  0
ARC
  8
0
  6
CONTINUOUS
 10
9.257487
 20
10.298746
 40
5.000000
 50
180.000000
 51
270.000000
  0
LINE
  8
0
  6
CENTER
 10
-5.992510
 20
52.298744
 11
61.257488
 21
52.298744
  0
LINE
  8
0
  6
CONTINUOUS
 10
4.257513
 20
94.298759
 11
4.257488
 21
10.298736
  0
LINE
  8
0
  6
CONTINUOUS
 10
61.257488
 20
7.298746
 11
61.257488
 21
97.298744
  0
LINE
  8
0
  6
CENTER
 10
61.257488
 20
52.298744
 11
156.144196
 21
52.298744
  0
LINE
  8
0
  6
CONTINUOUS
 10
234.757507
 20
33.498745
 11
234.757507
 21
92.498749
  0
LINE
  8
0
  6
CONTINUOUS
 10
61.257488
 20
97.298744
 11
134.103195
 21
97.298744
  0
LINE
  8
0
  6
CONTINUOUS
 10
131.757507
 20
7.298746
 11
61.257488
 21
7.298746
  0
LINE
  8
0
  6
CENTER
 10
149.307205
 20
77.998749
 11
217.113754
 21
77.998749
  0
LINE
  8
0
  6
CENTER
 10
184.257507
 20
130.548752
 11
184.257507
 21
-5.441554
  0
LINE
  8
0
  6
CONTINUOUS
 10
144.257507
 20
121.998749
 11
224.257507
 21
121.998749
  0
LINE
  8
0
  6
CONTINUOUS
 10
144.257507
 20
3.998746
 11
224.257507
 21
3.998746
  0
LINE
  8
0
  6
CENTER
 10
217.257507
 20
112.998749
 11
231.132507
 21
112.998749
  0
LINE
  8
0
  6
CENTER
 10
224.257507
 20
106.298744
 11
224.257507
 21
119.798744
  0
CIRCLE
  8
0
  6
CONTINUOUS
 10
224.257507
 20
112.998749
 40
4.250000
  0
LINE
  8
0
  6
CENTER
 10
217.257507
 20
12.998746
 11
231.132507
 21
12.998746
  0
LINE
  8
0
  6
CENTER
 10
224.257507
 20
19.698746
 11
224.257507
 21
6.198746
  0
CIRCLE
  8
0
  6
CONTINUOUS
 10
224.257507
 20
12.998746
 40
4.250000
  0
LINE
  8
0
  6
CENTER
 10
151.257507
 20
112.998749
 11
137.382507
 21
112.998749
  0
LINE
  8
0
  6
CENTER
 10
144.257507
 20
106.298744
 11
144.257507
 21
119.798744
  0
CIRCLE
  8
0
  6
CONTINUOUS
 10
144.257507
 20
112.998749
 40
4.250000
  0
LINE
  8
0
  6
CENTER
 10
151.257507
 20
12.998746
 11
137.382507
 21
12.998746
  0
LINE
  8
0
  6
CENTER
 10
144.257507
 20
19.698746
 11
144.257507
 21
6.198746
  0
CIRCLE
  8
0
  6
CONTINUOUS
 10
144.257507
 20
12.998746
 40
4.250000
  0
LINE
  8
0
  6
CONTINUOUS
 10
233.234207
 20
113.645378
 11
234.757507
 21
92.498749
  0
LINE
  8
0
  6
CONTINUOUS
 10
233.234207
 20
12.352186
 11
234.757507
 21
33.498745
  0
LINE
  8
0
  6
CONTINUOUS
 10
158.257507
 20
117.998749
 11
210.257507
 21
117.998749
  0
LINE
  8
0
  6
CONTINUOUS
 10
210.257507
 20
7.998746
 11
158.257507
 21
7.998746
  0
LINE
  8
0
  6
CONTINUOUS
 10
136.257507
 20
78.690933
 11
136.257507
 21
47.306229
  0
ARC
  8
0
  6
CONTINUOUS
 10
184.257507
 20
62.998745
 40
50.500000
 50
18.103800
 51
161.896194
  0
ARC
  8
0
  6
CONTINUOUS
 10
184.257507
 20
62.998745
 40
50.500000
 50
198.103806
 51
341.896210
  0
LINE
  8
0
  6
CONTINUOUS
 10
232.257507
 20
78.691109
 11
232.257507
 21
47.306709
  0
ARC
  8
0
  6
CONTINUOUS
 10
210.257507
 20
112.998749
 40
5.000000
 50
0.000000
 51
90.000000
  0
ARC
  8
0
  6
CONTINUOUS
 10
225.263397
 20
99.034927
 40
5.000000
 50
4.120544
 51
94.120201
  0
ARC
  8
0
  6
CONTINUOUS
 10
224.257507
 20
112.998749
 40
9.000000
 50
180.000000
 51
274.120697
  0
ARC
  8
0
  6
CONTINUOUS
 10
224.257507
 20
112.998749
 40
9.000000
 50
4.120065
 51
90.000000
  0
ARC
  8
0
  6
CONTINUOUS
 10
210.257507
 20
12.998746
 40
5.000000
 50
-90.000000
 51
0.000000
  0
ARC
  8
0
  6
CONTINUOUS
 10
225.263397
 20
26.962566
 40
5.000000
 50
265.879791
 51
355.879486
  0
ARC
  8
0
  6
CONTINUOUS
 10
224.257507
 20
12.998746
 40
9.000000
 50
270.000000
 51
355.879913
  0
ARC
  8
0
  6
CONTINUOUS
 10
224.257507
 20
12.998746
 40
9.000000
 50
85.879837
 51
180.000000
  0
LINE
  8
0
  6
CONTINUOUS
 10
230.250397
 20
99.394203
 11
232.257507
 21
78.691109
  0
LINE
  8
0
  6
CONTINUOUS
 10
230.250397
 20
26.603327
 11
232.257599
 21
47.306709
  0
ARC
  8
0
  6
CONTINUOUS
 10
158.257507
 20
112.998749
 40
5.000000
 50
90.000000
 51
180.000000
  0
ARC
  8
0
  6
CONTINUOUS
 10
144.257507
 20
112.998749
 40
9.000000
 50
-94.120667
 51
0.000000
  0
ARC
  8
0
  6
CONTINUOUS
 10
143.251602
 20
99.034927
 40
5.000000
 50
85.879799
 51
175.879501
  0
LINE
  8
0
  6
CONTINUOUS
 10
138.264496
 20
99.394203
 11
136.257507
 21
78.691109
  0
ARC
  8
0
  6
CONTINUOUS
 10
143.251602
 20
26.962566
 40
5.000000
 50
-175.879501
 51
-85.879791
  0
ARC
  8
0
  6
CONTINUOUS
 10
144.257507
 20
12.998746
 40
9.000000
 50
0.000000
 51
94.120163
  0
ARC
  8
0
  6
CONTINUOUS
 10
158.257507
 20
12.998746
 40
5.000000
 50
180.000000
 51
270.000000
  0
LINE
  8
0
  6
CONTINUOUS
 10
138.264496
 20
26.603327
 11
136.257401
 21
47.306709
  0
ARC
  8
0
  6
CONTINUOUS
 10
144.257507
 20
112.998749
 40
9.000000
 50
90.000000
 51
175.879898
  0
LINE
  8
0
  6
CONTINUOUS
 10
135.280701
 20
113.645378
 11
133.757507
 21
92.498749
  0
LINE
  8
0
  6
CONTINUOUS
 10
135.280701
 20
12.352186
 11
133.757507
 21
33.498745
  0
ARC
  8
0
  6
CONTINUOUS
 10
144.257507
 20
12.998746
 40
9.000000
 50
-175.879898
 51
-90.000000
  0
ARC
  8
0
  6
CONTINUOUS
 10
138.757507
 20
17.298777
 40
5.000000
 50
143.994797
 51
180.000000
  0
ARC
  8
0
  6
CONTINUOUS
 10
131.757507
 20
9.298746
 40
2.000000
 50
-90.000000
 51
0.000000
  0
LINE
  8
0
  6
CONTINUOUS
 10
133.757507
 20
9.298746
 11
133.757507
 21
17.298777
  0
LINE
  8
0
  6
CONTINUOUS
 10
133.757507
 20
92.498749
 11
133.757507
 21
33.498737
  0
LINE
  8
0
  6
CONTINUOUS
 10
61.257488
 20
86.708046
 11
131.757507
 21
86.708046
  0
LINE
  8
0
  6
CONTINUOUS
 10
61.257488
 20
17.889437
 11
132.257507
 21
17.889437
  0
CIRCLE
  8
0
  6
CONTINUOUS
 10
184.257507
 20
77.998749
 40
23.500000
  0
LINE
  8
0
  6
CONTINUOUS
 10
177.882507
 20
40.551975
 11
177.882507
 21
34.998745
  0
LINE
  8
0
  6
CONTINUOUS
 10
181.070007
 20
42.569061
 11
181.070007
 21
44.561253
  0
LINE
  8
0
  6
CONTINUOUS
 10
187.445007
 20
42.569061
 11
187.445007
 21
44.561253
  0
LINE
  8
0
  6
CONTINUOUS
 10
183.634903
 20
43.390839
 11
183.634903
 21
36.044647
  0
LINE
  8
0
  6
CONTINUOUS
 10
184.830307
 20
43.390839
 11
184.830307
 21
36.044647
  0
LINE
  8
0
  6
CONTINUOUS
 10
191.105606
 20
43.390839
 11
191.105606
 21
35.994846
  0
LINE
  8
0
  6
CONTINUOUS
 10
192.201294
 20
39.468727
 11
192.201294
 21
35.994846
  0
LINE
  8
0
  6
CONTINUOUS
 10
176.369995
 20
43.291229
 11
173.298096
 21
43.291229
  0
LINE
  8
0
  6
CONTINUOUS
 10
173.298096
 20
43.291229
 11
172.578293
 21
42.398739
  0
LINE
  8
0
  6
CONTINUOUS
 10
172.664902
 20
44.561253
 11
171.507507
 21
43.079254
  0
LINE
  8
0
  6
CONTINUOUS
 10
172.578293
 20
36.889675
 11
173.309601
 21
36.119354
  0
LINE
  8
0
  6
CONTINUOUS
 10
171.507507
 20
36.239605
 11
172.737305
 21
34.998745
  0
LINE
  8
0
  6
CONTINUOUS
 10
171.507507
 20
43.079254
 11
171.507507
 21
36.239605
  0
LINE
  8
0
  6
CONTINUOUS
 10
172.578293
 20
42.398739
 11
172.578293
 21
36.889675
  0
LINE
  8
0
  6
CONTINUOUS
 10
176.961105
 20
42.719788
 11
176.357895
 21
43.291229
  0
LINE
  8
0
  6
CONTINUOUS
 10
176.951508
 20
44.561253
 11
177.882507
 21
43.528107
  0
LINE
  8
0
  6
CONTINUOUS
 10
176.961105
 20
42.569061
 11
177.882507
 21
42.569061
  0
LINE
  8
0
  6
CONTINUOUS
 10
172.664902
 20
44.561253
 11
176.951508
 21
44.561253
  0
LINE
  8
0
  6
CONTINUOUS
 10
176.961105
 20
39.506077
 11
175.292694
 21
39.506077
  0
LINE
  8
0
  6
CONTINUOUS
 10
176.961105
 20
38.509987
 11
176.961105
 21
39.306854
  0
LINE
  8
0
  6
CONTINUOUS
 10
174.968903
 20
36.119354
 11
173.309601
 21
36.119354
  0
ARC
  8
0
  6
CONTINUOUS
 10
174.968903
 20
38.111546
 40
1.992187
 50
-89.999786
 51
0.000109
  0
LINE
  8
0
  6
CONTINUOUS
 10
176.961105
 20
35.761017
 11
176.961105
 21
34.998745
  0
LINE
  8
0
  6
CONTINUOUS
 10
177.882507
 20
43.528107
 11
177.882507
 21
42.569061
  0
LINE
  8
0
  6
CONTINUOUS
 10
176.961105
 20
39.506077
 11
176.961105
 21
38.111546
  0
LINE
  8
0
  6
CONTINUOUS
 10
175.292694
 20
40.551975
 11
175.292694
 21
39.506077
  0
LINE
  8
0
  6
CONTINUOUS
 10
176.961105
 20
34.998745
 11
177.882507
 21
34.998745
  0
LINE
  8
0
  6
CONTINUOUS
 10
176.961105
 20
35.761017
 11
176.052597
 21
34.998745
  0
LINE
  8
0
  6
CONTINUOUS
 10
184.830307
 20
36.044647
 11
185.228699
 21
36.044647
  0
LINE
  8
0
  6
CONTINUOUS
 10
183.161804
 20
36.044647
 11
183.161804
 21
34.998745
  0
LINE
  8
0
  6
CONTINUOUS
 10
185.228699
 20
36.044647
 11
185.228699
 21
34.998745
  0
LINE
  8
0
  6
CONTINUOUS
 10
186.779999
 20
42.569061
 11
187.445007
 21
42.569061
  0
LINE
  8
0
  6
CONTINUOUS
 10
181.070007
 20
42.569061
 11
181.777603
 21
42.569061
  0
LINE
  8
0
  6
CONTINUOUS
 10
181.070007
 20
44.561253
 11
187.445007
 21
44.561253
  0
LINE
  8
0
  6
CONTINUOUS
 10
183.161804
 20
34.998745
 11
185.228699
 21
34.998745
  0
LINE
  8
0
  6
CONTINUOUS
 10
183.161804
 20
36.044647
 11
183.634903
 21
36.044647
  0
ARC
  8
0
  6
CONTINUOUS
 10
194.455002
 20
42.008755
 40
2.552490
 50
-73.981873
 51
90.003510
  0
ARC
  8
0
  6
CONTINUOUS
 10
194.455002
 20
42.008755
 40
1.557193
 50
-82.585274
 51
62.411850
  0
LINE
  8
0
  6
CONTINUOUS
 10
190.632507
 20
44.561253
 11
194.455002
 21
44.561253
  0
LINE
  8
0
  6
CONTINUOUS
 10
190.632507
 20
44.561253
 11
190.632507
 21
43.390839
  0
LINE
  8
0
  6
CONTINUOUS
 10
192.201294
 20
43.390839
 11
192.201294
 21
40.464584
  0
LINE
  8
0
  6
CONTINUOUS
 10
195.159393
 20
39.555374
 11
196.739197
 21
35.994846
  0
LINE
  8
0
  6
CONTINUOUS
 10
194.241806
 20
39.468727
 11
195.736893
 21
35.994846
  0
LINE
  8
0
  6
CONTINUOUS
 10
190.632507
 20
35.994846
 11
191.105606
 21
35.994846
  0
LINE
  8
0
  6
CONTINUOUS
 10
192.201294
 20
35.994846
 11
192.637100
 21
35.994846
  0
LINE
  8
0
  6
CONTINUOUS
 10
192.637100
 20
34.998745
 11
190.632507
 21
34.998745
  0
LINE
  8
0
  6
CONTINUOUS
 10
195.538300
 20
35.994846
 11
195.736893
 21
35.994846
  0
LINE
  8
0
  6
CONTINUOUS
 10
196.739197
 20
35.994846
 11
197.007507
 21
35.994846
  0
LINE
  8
0
  6
CONTINUOUS
 10
195.538300
 20
34.998745
 11
197.007507
 21
34.998745
  0
LINE
  8
0
  6
CONTINUOUS
 10
197.007507
 20
35.994846
 11
197.007507
 21
34.998745
  0
LINE
  8
0
  6
CONTINUOUS
 10
195.538300
 20
35.994846
 11
195.538300
 21
34.998745
  0
LINE
  8
0
  6
CONTINUOUS
 10
192.637100
 20
35.994846
 11
192.637100
 21
34.998745
  0
LINE
  8
0
  6
CONTINUOUS
 10
190.632507
 20
35.994846
 11
190.632507
 21
34.998745
  0
LINE
  8
0
  6
CONTINUOUS
 10
182.119995
 20
43.390839
 11
181.777603
 21
42.569061
  0
LINE
  8
0
  6
CONTINUOUS
 10
186.491302
 20
43.390839
 11
186.779999
 21
42.569061
  0
LINE
  8
0
  6
CONTINUOUS
 10
184.830307
 20
43.390839
 11
186.491302
 21
43.390839
  0
LINE
  8
0
  6
CONTINUOUS
 10
183.634903
 20
43.390839
 11
182.119995
 21
43.390839
  0
LINE
  8
0
  6
CONTINUOUS
 10
190.632507
 20
43.390839
 11
191.105606
 21
43.390839
  0
LINE
  8
0
  6
CONTINUOUS
 10
192.201294
 20
43.390839
 11
195.176193
 21
43.388905
  0
LINE
  8
0
  6
CONTINUOUS
 10
176.961105
 20
42.719788
 11
176.961105
 21
42.569061
  0
LINE
  8
0
  6
CONTINUOUS
 10
172.737305
 20
34.998745
 11
176.052597
 21
34.998745
  0
LINE
  8
0
  6
CONTINUOUS
 10
192.201294
 20
40.464584
 11
194.656006
 21
40.464584
  0
LINE
  8
0
  6
CONTINUOUS
 10
192.201294
 20
39.468727
 11
194.241806
 21
39.468727
  0
LINE
  8
0
  6
CONTINUOUS
 10
175.292694
 20
40.551975
 11
177.882507
 21
40.551975
  0
LINE
  8
0
  6
CONTINUOUS
 10
170.257507
 20
117.067543
 11
170.257507
 21
111.519356
  0
LINE
  8
0
  6
CONTINUOUS
 10
198.257507
 20
117.067543
 11
198.257507
 21
111.519363
  0
LINE
  8
0
  6
CONTINUOUS
 10
170.257507
 20
14.478136
 11
170.257507
 21
9.204116
  0
LINE
  8
0
  6
CONTINUOUS
 10
198.257507
 20
14.478136
 11
198.257507
 21
9.204116
  0
LINE
  8
0
  6
CONTINUOUS
 10
189.757507
 20
74.998764
 11
189.757507
 21
80.998764
  0
LINE
  8
0
  6
CONTINUOUS
 10
195.757507
 20
74.998787
 11
195.757507
 21
80.998787
  0
LINE
  8
0
  6
CONTINUOUS
 10
195.757507
 20
74.998787
 11
189.757507
 21
74.998764
  0
LINE
  8
0
  6
CONTINUOUS
 10
195.757507
 20
80.998787
 11
189.757507
 21
80.998764
  0
ARC
  8
0
  6
CONTINUOUS
 10
184.257507
 20
77.998749
 40
9.000000
 50
19.471210
 51
340.528809
  0
LINE
  8
0
  6
CENTER
 10
384.257507
 20
-2.701254
 11
384.257507
 21
137.706406
  0
LINE
  8
0
  6
CONTINUOUS
 10
342.257507
 20
100.498734
 11
342.257507
 21
55.498737
  0
LINE
  8
0
  6
CONTINUOUS
 10
421.257507
 20
113.050629
 11
421.257507
 21
12.946826
  0
LINE
  8
0
  6
CENTER
 10
302.757507
 20
77.998749
 11
464.757507
 21
77.998749
  0
LINE
  8
0
  6
CONTINUOUS
 10
346.257507
 20
101.498749
 11
343.257507
 21
101.498749
  0
LINE
  8
0
  6
CONTINUOUS
 10
346.257507
 20
54.498741
 11
343.257507
 21
54.498741
  0
LINE
  8
0
  6
CONTINUOUS
 10
344.722900
 20
121.998749
 11
336.257507
 21
121.998749
  0
LINE
  8
0
  6
CONTINUOUS
 10
344.722900
 20
3.998746
 11
336.257507
 21
3.998746
  0
LINE
  8
0
  6
CONTINUOUS
 10
418.309814
 20
116.050186
 11
348.222595
 21
117.273285
  0
LINE
  8
0
  6
CONTINUOUS
 10
418.309906
 20
9.947296
 11
348.222595
 21
8.723666
  0
LINE
  8
0
  6
CONTINUOUS
 10
419.126495
 20
92.498749
 11
351.423309
 21
92.498749
  0
LINE
  8
0
  6
CONTINUOUS
 10
419.126495
 20
33.498745
 11
349.257507
 21
33.498745
  0
ARC
  8
0
  6
CONTINUOUS
 10
418.257507
 20
113.050629
 40
3.000000
 50
0.000000
 51
89.000359
  0
ARC
  8
0
  6
CONTINUOUS
 10
418.257507
 20
12.946826
 40
3.000000
 50
-88.999687
 51
0.000000
  0
ARC
  8
0
  6
CONTINUOUS
 10
349.257507
 20
30.498766
 40
3.000000
 50
90.000000
 51
180.000000
  0
LINE
  8
0
  6
CENTER
 10
331.195007
 20
12.998746
 11
350.945007
 21
12.998746
  0
LINE
  8
0
  6
CENTER
 10
332.945007
 20
112.998749
 11
349.945007
 21
112.998749
  0
LINE
  8
0
  6
DASHED
 10
336.257507
 20
108.748749
 11
346.257507
 21
108.748749
  0
LINE
  8
0
  6
DASHED
 10
336.257507
 20
117.248749
 11
346.257507
 21
117.248749
  0
LINE
  8
0
  6
DASHED
 10
336.257507
 20
17.248747
 11
346.257507
 21
17.248747
  0
LINE
  8
0
  6
DASHED
 10
336.257507
 20
8.748746
 11
346.257507
 21
8.748746
  0
LINE
  8
0
  6
CONTINUOUS
 10
358.257507
 20
7.298746
 11
410.257507
 21
7.298746
  0
ARC
  8
0
  6
CONTINUOUS
 10
410.257507
 20
10.298746
 40
3.000000
 50
270.000000
 51
351.561890
  0
ARC
  8
0
  6
CONTINUOUS
 10
358.257507
 20
10.298746
 40
3.000000
 50
208.811905
 51
270.000000
  0
ARC
  8
0
  6
CONTINUOUS
 10
343.257507
 20
55.498741
 40
1.000000
 50
180.000000
 51
270.000000
  0
ARC
  8
0
  6
CONTINUOUS
 10
343.257507
 20
100.498734
 40
1.000000
 50
90.000000
 51
180.000000
  0
ARC
  8
0
  6
CONTINUOUS
 10
384.257507
 20
52.298744
 40
45.000000
 50
-34.692108
 51
20.421860
  0
LINE
  8
0
  6
CONTINUOUS
 10
426.257507
 20
100.498734
 11
426.257507
 21
55.498737
  0
LINE
  8
0
  6
CONTINUOUS
 10
423.257507
 20
101.498749
 11
425.257507
 21
101.498749
  0
LINE
  8
0
  6
CONTINUOUS
 10
423.257507
 20
54.498741
 11
425.257507
 21
54.498741
  0
ARC
  8
0
  6
CONTINUOUS
 10
423.257507
 20
103.498749
 40
2.000000
 50
180.000000
 51
270.000000
  0
ARC
  8
0
  6
CONTINUOUS
 10
423.257507
 20
52.498753
 40
2.000000
 50
90.000000
 51
180.000000
  0
ARC
  8
0
  6
CONTINUOUS
 10
425.257507
 20
55.498741
 40
1.000000
 50
-90.000000
 51
0.000000
  0
ARC
  8
0
  6
CONTINUOUS
 10
425.257507
 20
100.498734
 40
1.000000
 50
0.000000
 51
90.000000
  0
LINE
  8
0
  6
CONTINUOUS
 10
336.257507
 20
105.714867
 11
343.695007
 21
104.736244
  0
LINE
  8
0
  6
CONTINUOUS
 10
343.695007
 20
104.736244
 11
348.695007
 21
101.486244
  0
LINE
  8
0
  6
CONTINUOUS
 10
351.609100
 20
92.071243
 11
353.070007
 21
91.111244
  0
LINE
  8
0
  6
CONTINUOUS
 10
353.070007
 20
91.111244
 11
352.570007
 21
85.111244
  0
LINE
  8
0
  6
CONTINUOUS
 10
352.570007
 20
85.111244
 11
350.570007
 21
81.611244
  0
LINE
  8
0
  6
CONTINUOUS
 10
350.570007
 20
81.611244
 11
352.445007
 21
76.111244
  0
LINE
  8
0
  6
CONTINUOUS
 10
352.445007
 20
76.111244
 11
351.820007
 21
70.361244
  0
LINE
  8
0
  6
CONTINUOUS
 10
351.820007
 20
70.361244
 11
351.195007
 21
64.111244
  0
LINE
  8
0
  6
CONTINUOUS
 10
351.195007
 20
64.111244
 11
352.320007
 21
59.486244
  0
LINE
  8
0
  6
CONTINUOUS
 10
352.320007
 20
59.486244
 11
351.195007
 21
55.236244
  0
LINE
  8
0
  6
CONTINUOUS
 10
351.195007
 20
55.236244
 11
347.945007
 21
50.361244
  0
LINE
  8
0
  6
CONTINUOUS
 10
347.945007
 20
50.361244
 11
343.445007
 21
48.361244
  0
LINE
  8
0
  6
CONTINUOUS
 10
343.445007
 20
48.361244
 11
339.195007
 21
45.736244
  0
LINE
  8
0
  6
CONTINUOUS
 10
339.195007
 20
45.736244
 11
336.257507
 21
45.339287
  0
LINE
  8
0
  6
CONTINUOUS
 10
348.695007
 20
101.486244
 11
349.445007
 21
97.048744
  0
LINE
  8
0
  6
CONTINUOUS
 10
349.445007
 20
97.048744
 11
351.609100
 21
92.071243
  0
LINE
  8
0
  6
CONTINUOUS
 10
346.257507
 20
119.998749
 11
346.257507
 21
49.611244
  0
LINE
  8
0
  6
CONTINUOUS
 10
346.257507
 20
5.998746
 11
346.257507
 21
30.498756
  0
LINE
  8
0
  6
CONTINUOUS
 10
336.257507
 20
121.998749
 11
336.257507
 21
86.998749
  0
LINE
  8
0
  6
CONTINUOUS
 10
336.257507
 20
3.998746
 11
336.257507
 21
68.998749
  0
LINE
  8
0
  6
CENTER
 10
330.552887
 20
52.298744
 11
436.262390
 21
52.298744
  0
LINE
  8
0
  6
CONTINUOUS
 10
346.654694
 20
120.516388
 11
346.935303
 21
119.469154
  0
ARC
  8
0
  6
CONTINUOUS
 10
344.257507
 20
119.998734
 40
2.000000
 50
0.000000
 51
90.000000
  0
ARC
  8
0
  6
CONTINUOUS
 10
344.722900
 20
119.998734
 40
2.000000
 50
15.000290
 51
90.000000
  0
ARC
  8
0
  6
CONTINUOUS
 10
348.257507
 20
119.272995
 40
2.000000
 50
180.000000
 51
269.000610
  0
ARC
  8
0
  6
CONTINUOUS
 10
349.833099
 20
120.245659
 40
3.000000
 50
195.000504
 51
269.000488
  0
LINE
  8
0
  6
CONTINUOUS
 10
346.654694
 20
5.481106
 11
346.944794
 21
6.564016
  0
ARC
  8
0
  6
CONTINUOUS
 10
344.257507
 20
5.998736
 40
2.000000
 50
-90.000000
 51
0.000000
  0
ARC
  8
0
  6
CONTINUOUS
 10
344.722900
 20
5.998746
 40
2.000000
 50
270.000000
 51
345.000000
  0
ARC
  8
0
  6
CONTINUOUS
 10
348.257507
 20
6.723976
 40
2.000000
 50
91.000633
 51
180.000000
  0
ARC
  8
0
  6
CONTINUOUS
 10
349.845886
 20
5.751556
 40
3.000000
 50
91.000526
 51
164.352097
  0
LINE
  8
0
  6
CONTINUOUS
 10
431.257507
 20
26.198236
 11
431.257507
 21
68.998749
  0
LINE
  8
0
  6
CONTINUOUS
 10
410.358002
 20
5.298746
 11
358.157013
 21
5.298746
  0
LINE
  8
0
  6
CONTINUOUS
 10
353.207214
 20
7.348986
 11
351.757507
 21
8.798736
  0
ARC
  8
0
  6
CONTINUOUS
 10
358.157013
 20
12.298746
 40
7.000000
 50
225.000107
 51
270.000000
  0
ARC
  8
0
  6
CONTINUOUS
 10
410.358002
 20
12.298746
 40
7.000000
 50
270.000000
 51
315.000092
  0
ARC
  8
0
  6
CONTINUOUS
 10
424.257507
 20
26.198227
 40
7.000000
 50
-44.999882
 51
0.000000
  0
LINE
  8
0
  6
CONTINUOUS
 10
429.207214
 20
21.248495
 11
421.257507
 21
13.298746
  0
LINE
  8
0
  6
CONTINUOUS
 10
415.307800
 20
7.348996
 11
417.898895
 21
9.940116
  0
LINE
  8
0
  6
CONTINUOUS
 10
458.257507
 20
68.998749
 11
458.257507
 21
86.998749
  0
LINE
  8
0
  6
CONTINUOUS
 10
428.257507
 20
86.998749
 11
458.257507
 21
86.998749
  0
LINE
  8
0
  6
CONTINUOUS
 10
428.257507
 20
68.998749
 11
458.257507
 21
68.998749
  0
LINE
  8
0
  6
CONTINUOUS
 10
428.257507
 20
87.998749
 11
428.257507
 21
67.998749
  0
LINE
  8
0
  6
CONTINUOUS
 10
426.257507
 20
87.998749
 11
428.257507
 21
87.998749
  0
LINE
  8
0
  6
CONTINUOUS
 10
426.257507
 20
67.998749
 11
428.257507
 21
67.998749
  0
ARC
  8
0
  6
CONTINUOUS
 10
434.257507
 20
77.998749
 40
3.000000
 50
90.000000
 51
270.000000
  0
LINE
  8
0
  6
CONTINUOUS
 10
434.257507
 20
80.998749
 11
458.257507
 21
80.998749
  0
LINE
  8
0
  6
CONTINUOUS
 10
434.257507
 20
74.998749
 11
458.257507
 21
74.998749
  0
LINE
  8
0
  6
CONTINUOUS
 10
310.257507
 20
68.998749
 11
310.257507
 21
86.998749
  0
LINE
  8
0
  6
CONTINUOUS
 10
340.257507
 20
86.998749
 11
310.257507
 21
86.998749
  0
LINE
  8
0
  6
CONTINUOUS
 10
340.257507
 20
68.998749
 11
310.257507
 21
68.998749
  0
LINE
  8
0
  6
CONTINUOUS
 10
340.257507
 20
87.998749
 11
340.257507
 21
67.998749
  0
LINE
  8
0
  6
CONTINUOUS
 10
342.257507
 20
87.998749
 11
340.257507
 21
87.998749
  0
LINE
  8
0
  6
CONTINUOUS
 10
342.257507
 20
67.998749
 11
340.257507
 21
67.998749
  0
ARC
  8
0
  6
CONTINUOUS
 10
334.257507
 20
77.998749
 40
3.000000
 50
-90.000000
 51
90.000000
  0
LINE
  8
0
  6
CONTINUOUS
 10
334.257507
 20
80.998749
 11
310.257507
 21
80.998749
  0
LINE
  8
0
  6
CONTINUOUS
 10
334.257507
 20
74.998749
 11
310.257507
 21
74.998749
  0
LINE
  8
0
  6
CENTER
 10
184.257507
 20
343.821869
 11
184.257507
 21
182.651245
  0
LINE
  8
0
  6
CENTER
 10
-10.990937
 20
262.944366
 11
248.398743
 21
262.944366
  0
LINE
  8
0
  6
CONTINUOUS
 10
230.583389
 20
299.944366
 11
135.705811
 21
299.944366
  0
LINE
  8
0
  6
CONTINUOUS
 10
133.548080
 20
291.947113
 11
133.706497
 21
297.996735
  0
LINE
  8
0
  6
CONTINUOUS
 10
131.599701
 20
307.944366
 11
61.257500
 21
307.944366
  0
LINE
  8
0
  6
CONTINUOUS
 10
61.257500
 20
291.944366
 11
140.600052
 21
291.944366
  0
LINE
  8
0
  6
CONTINUOUS
 10
61.257500
 20
233.944382
 11
131.874374
 21
233.944382
  0
LINE
  8
0
  6
CONTINUOUS
 10
131.730621
 20
217.944382
 11
61.257500
 21
217.944382
  0
LINE
  8
0
  6
CONTINUOUS
 10
132.500580
 20
262.944366
 11
133.757507
 21
214.944382
  0
LINE
  8
0
  6
CONTINUOUS
 10
167.257507
 20
294.944366
 11
167.257507
 21
226.944382
  0
LINE
  8
0
  6
CONTINUOUS
 10
201.257507
 20
294.944366
 11
201.257507
 21
226.944382
  0
LINE
  8
0
  6
CONTINUOUS
 10
140.600052
 20
289.944366
 11
140.600052
 21
226.479370
  0
LINE
  8
0
  6
CONTINUOUS
 10
206.757507
 20
304.944366
 11
161.757507
 21
304.944366
  0
LINE
  8
0
  6
CONTINUOUS
 10
160.757507
 20
303.944366
 11
160.757507
 21
301.944366
  0
LINE
  8
0
  6
CONTINUOUS
 10
207.757507
 20
303.944366
 11
207.757507
 21
301.944366
  0
ARC
  8
0
  6
CONTINUOUS
 10
158.757507
 20
301.944366
 40
2.000000
 50
-90.000000
 51
0.000000
  0
ARC
  8
0
  6
CONTINUOUS
 10
209.757492
 20
301.944366
 40
2.000000
 50
180.000000
 51
270.000000
  0
ARC
  8
0
  6
CONTINUOUS
 10
161.757507
 20
303.944366
 40
1.000000
 50
90.000000
 51
180.000000
  0
ARC
  8
0
  6
CONTINUOUS
 10
206.757507
 20
303.944366
 40
1.000000
 50
0.000000
 51
90.000000
  0
LINE
  8
0
  6
CONTINUOUS
 10
195.757507
 20
336.944366
 11
175.257507
 21
336.944366
  0
LINE
  8
0
  6
CONTINUOUS
 10
175.257507
 20
306.944366
 11
175.257507
 21
336.944366
  0
LINE
  8
0
  6
CONTINUOUS
 10
193.257507
 20
306.944366
 11
193.257507
 21
309.944366
  0
LINE
  8
0
  6
CONTINUOUS
 10
174.257507
 20
306.944366
 11
194.257507
 21
306.944366
  0
LINE
  8
0
  6
CONTINUOUS
 10
174.257507
 20
304.944366
 11
174.257507
 21
306.944366
  0
LINE
  8
0
  6
CONTINUOUS
 10
194.257507
 20
304.944366
 11
194.257507
 21
306.944366
  0
LINE
  8
0
  6
CONTINUOUS
 10
195.757507
 20
336.944366
 11
195.757507
 21
309.944366
  0
LINE
  8
0
  6
CONTINUOUS
 10
195.757507
 20
309.944366
 11
192.742493
 21
309.944366
  0
LINE
  8
0
  6
CONTINUOUS
 10
192.742493
 20
336.944366
 11
192.742493
 21
309.944366
  0
LINE
  8
0
  6
CONTINUOUS
 10
195.757507
 20
188.944382
 11
175.257507
 21
188.944382
  0
LINE
  8
0
  6
CONTINUOUS
 10
175.257507
 20
214.944382
 11
175.257507
 21
188.944382
  0
LINE
  8
0
  6
CONTINUOUS
 10
195.757507
 20
188.944382
 11
195.757507
 21
214.944382
  0
LINE
  8
0
  6
CONTINUOUS
 10
192.742493
 20
188.944382
 11
192.742493
 21
214.944382
  0
LINE
  8
0
  6
CONTINUOUS
 10
133.757507
 20
214.944382
 11
234.757507
 21
214.944382
  0
LINE
  8
0
  6
CONTINUOUS
 10
232.582703
 20
297.996735
 11
234.757507
 21
214.944382
  0
LINE
  8
0
  6
CONTINUOUS
 10
135.548691
 20
224.944382
 11
232.547333
 21
224.944382
  0
ARC
  8
0
  6
CONTINUOUS
 10
232.547333
 20
222.944382
 40
2.000000
 50
1.500000
 51
90.000000
  0
ARC
  8
0
  6
CONTINUOUS
 10
230.583389
 20
297.944366
 40
2.000000
 50
1.500000
 51
90.000000
  0
ARC
  8
0
  6
CONTINUOUS
 10
203.257507
 20
226.944382
 40
2.000000
 50
180.000000
 51
270.000000
  0
ARC
  8
0
  6
CONTINUOUS
 10
165.257507
 20
226.944382
 40
2.000000
 50
-90.000000
 51
0.000000
  0
LINE
  8
0
  6
CONTINUOUS
 10
167.115570
 20
226.204376
 11
201.399429
 21
226.204376
  0
ARC
  8
0
  6
CONTINUOUS
 10
135.548691
 20
222.944382
 40
2.000000
 50
90.000000
 51
181.500000
  0
ARC
  8
0
  6
CONTINUOUS
 10
131.730621
 20
215.944382
 40
2.000000
 50
1.500000
 51
90.000000
  0
LINE
  8
0
  6
CONTINUOUS
 10
133.599014
 20
305.996735
 11
133.706497
 21
301.892029
  0
ARC
  8
0
  6
CONTINUOUS
 10
131.599701
 20
305.944366
 40
2.000000
 50
1.500000
 51
90.000000
  0
ARC
  8
0
  6
CONTINUOUS
 10
135.705811
 20
301.944366
 40
2.000000
 50
181.500000
 51
270.000000
  0
ARC
  8
0
  6
CONTINUOUS
 10
135.705811
 20
297.944366
 40
2.000000
 50
90.000000
 51
178.500000
  0
LINE
  8
0
  6
CENTER
 10
224.257507
 20
207.255783
 11
224.257507
 21
231.118439
  0
LINE
  8
0
  6
DASHED
 10
228.507507
 20
224.944382
 11
228.507507
 21
214.944382
  0
LINE
  8
0
  6
DASHED
 10
220.007507
 20
224.944382
 11
220.007507
 21
214.944382
  0
LINE
  8
0
  6
CENTER
 10
144.257507
 20
207.255783
 11
144.257507
 21
231.118439
  0
LINE
  8
0
  6
DASHED
 10
140.007507
 20
224.944382
 11
140.007507
 21
214.944382
  0
LINE
  8
0
  6
DASHED
 10
148.507507
 20
224.944382
 11
148.507507
 21
214.944382
  0
LINE
  8
0
  6
CONTINUOUS
 10
51.757500
 20
307.944366
 11
61.257500
 21
307.944366
  0
LINE
  8
0
  6
CONTINUOUS
 10
61.257500
 20
291.944366
 11
51.757500
 21
291.944366
  0
LINE
  8
0
  6
CONTINUOUS
 10
51.757500
 20
217.944382
 11
61.257500
 21
217.944382
  0
LINE
  8
0
  6
CONTINUOUS
 10
61.257500
 20
217.944382
 11
61.257500
 21
237.944351
  0
LINE
  8
0
  6
CONTINUOUS
 10
61.257500
 20
233.944382
 11
51.757500
 21
233.944382
  0
LINE
  8
0
  6
CONTINUOUS
 10
61.257500
 20
287.944366
 11
61.257500
 21
307.944366
  0
LINE
  8
0
  6
CONTINUOUS
 10
51.757500
 20
309.944366
 11
51.757500
 21
270.444366
  0
LINE
  8
0
  6
CONTINUOUS
 10
51.757500
 20
291.944366
 11
7.782470
 21
291.944366
  0
LINE
  8
0
  6
CONTINUOUS
 10
51.757500
 20
233.944382
 11
7.782470
 21
233.944382
  0
LINE
  8
0
  6
CONTINUOUS
 10
9.257480
 20
309.944366
 11
51.757500
 21
309.944366
  0
LINE
  8
0
  6
CONTINUOUS
 10
9.257480
 20
215.944382
 11
51.757500
 21
215.944382
  0
ARC
  8
0
  6
CONTINUOUS
 10
9.257510
 20
304.944366
 40
5.000000
 50
90.000000
 51
180.000000
  0
ARC
  8
0
  6
CONTINUOUS
 10
9.257480
 20
220.944382
 40
5.000000
 50
180.000000
 51
270.000000
  0
LINE
  8
0
  6
CONTINUOUS
 10
4.257510
 20
304.944366
 11
4.257480
 21
220.944366
  0
LINE
  8
0
  6
CONTINUOUS
 10
51.257500
 20
270.444366
 11
52.257500
 21
270.444366
  0
ARC
  8
0
  6
CONTINUOUS
 10
51.257519
 20
269.444366
 40
1.000000
 50
90.000000
 51
180.000000
  0
LINE
  8
0
  6
CONTINUOUS
 10
46.757515
 20
266.944366
 11
46.757515
 21
258.944366
  0
LINE
  8
0
  6
CONTINUOUS
 10
46.757515
 20
266.944366
 11
50.257515
 21
268.444366
  0
LINE
  8
0
  6
CONTINUOUS
 10
46.757500
 20
258.944366
 11
50.257500
 21
257.444366
  0
LINE
  8
0
  6
CONTINUOUS
 10
50.257515
 20
269.444366
 11
50.257515
 21
256.444366
  0
LINE
  8
0
  6
CONTINUOUS
 10
51.257500
 20
255.444351
 11
52.257500
 21
255.444351
  0
ARC
  8
0
  6
CONTINUOUS
 10
51.257519
 20
256.444366
 40
1.000000
 50
-180.000000
 51
-90.000000
  0
LINE
  8
0
  6
CONTINUOUS
 10
52.257500
 20
239.944351
 11
52.257500
 21
285.944366
  0
LINE
  8
0
  6
CONTINUOUS
 10
54.257500
 20
287.944366
 11
52.257500
 21
285.944366
  0
LINE
  8
0
  6
CONTINUOUS
 10
54.257500
 20
287.944366
 11
100.257492
 21
287.944366
  0
LINE
  8
0
  6
CONTINUOUS
 10
94.757500
 20
283.444366
 11
94.757500
 21
287.944366
  0
ARC
  8
0
  6
CONTINUOUS
 10
97.757500
 20
283.444366
 40
3.000000
 50
180.000000
 51
270.000000
  0
LINE
  8
0
  6
CONTINUOUS
 10
97.757500
 20
280.444366
 11
102.257492
 21
280.444366
  0
CIRCLE
  8
0
  6
CONTINUOUS
 10
98.757500
 20
284.444366
 40
2.250000
  0
LINE
  8
0
  6
CONTINUOUS
 10
102.257492
 20
239.944351
 11
102.257492
 21
285.944366
  0
LINE
  8
0
  6
CONTINUOUS
 10
100.257492
 20
287.944366
 11
102.257492
 21
285.944366
  0
LINE
  8
0
  6
CONTINUOUS
 10
100.257492
 20
237.944351
 11
102.257492
 21
239.944351
  0
LINE
  8
0
  6
CONTINUOUS
 10
100.257492
 20
237.944351
 11
54.257500
 21
237.944351
  0
LINE
  8
0
  6
CONTINUOUS
 10
52.257500
 20
239.944351
 11
54.257500
 21
237.944351
  0
LINE
  8
0
  6
CONTINUOUS
 10
56.757500
 20
245.444351
 11
52.257511
 21
245.444351
  0
CIRCLE
  8
0
  6
CONTINUOUS
 10
55.757500
 20
241.444351
 40
2.250000
  0
ARC
  8
0
  6
CONTINUOUS
 10
56.757500
 20
242.444351
 40
3.000000
 50
0.000000
 51
90.000000
  0
LINE
  8
0
  6
CONTINUOUS
 10
59.757500
 20
242.444351
 11
59.757500
 21
237.944351
  0
LINE
  8
0
  6
CENTER
 10
77.257500
 20
230.478577
 11
77.257500
 21
294.610596
  0
LINE
  8
0
  6
CONTINUOUS
 10
54.671719
 20
286.944366
 11
53.257507
 21
285.530151
  0
LINE
  8
0
  6
CONTINUOUS
 10
53.257507
 20
245.444382
 11
53.257507
 21
285.530151
  0
LINE
  8
0
  6
CONTINUOUS
 10
94.757500
 20
286.944366
 11
54.671719
 21
286.944366
  0
LINE
  8
0
  6
CONTINUOUS
 10
101.257492
 20
280.444366
 11
101.257492
 21
240.358582
  0
LINE
  8
0
  6
CONTINUOUS
 10
59.757500
 20
238.944382
 11
99.843285
 21
238.944382
  0
LINE
  8
0
  6
CONTINUOUS
 10
99.843285
 20
238.944382
 11
101.257492
 21
240.358582
  0
LINE
  8
0
  6
CONTINUOUS
 10
53.757488
 20
98.798744
 11
100.257492
 21
98.798744
  0
LINE
  8
0
  6
CONTINUOUS
 10
102.257477
 20
128.798752
 11
102.257492
 21
100.798744
  0
LINE
  8
0
  6
CONTINUOUS
 10
52.257488
 20
128.798752
 11
52.257488
 21
100.798744
  0
LINE
  8
0
  6
CONTINUOUS
 10
50.257488
 20
110.798744
 11
102.257492
 21
110.798744
  0
LINE
  8
0
  6
CONTINUOUS
 10
100.257492
 20
98.798744
 11
102.257492
 21
100.798744
  0
LINE
  8
0
  6
CONTINUOUS
 10
52.257488
 20
100.798744
 11
54.257488
 21
98.798744
  0
LINE
  8
0
  6
CONTINUOUS
 10
52.257488
 20
100.798744
 11
102.257492
 21
100.798744
  0
LINE
  8
0
  6
CONTINUOUS
 10
53.257488
 20
129.798752
 11
101.257477
 21
129.798752
  0
LINE
  8
0
  6
CONTINUOUS
 10
101.257477
 20
129.798752
 11
102.257477
 21
128.798752
  0
LINE
  8
0
  6
CONTINUOUS
 10
53.257488
 20
129.798752
 11
52.257488
 21
128.798752
  0
LINE
  8
0
  6
CONTINUOUS
 10
52.257488
 20
128.798752
 11
102.257477
 21
128.798752
  0
LINE
  8
0
  6
CENTER
 10
44.313744
 20
120.298744
 11
56.388741
 21
120.298744
  0
LINE
  8
0
  6
CONTINUOUS
 10
50.257500
 20
126.798744
 11
50.257488
 21
110.798744
  0
LINE
  8
0
  6
CONTINUOUS
 10
51.257488
 20
127.798744
 11
52.257488
 21
127.798744
  0
ARC
  8
0
  6
CONTINUOUS
 10
51.257500
 20
126.798744
 40
1.000000
 50
90.000000
 51
180.000000
  0
LINE
  8
0
  6
CONTINUOUS
 10
46.757500
 20
124.298744
 11
46.757500
 21
116.298744
  0
LINE
  8
0
  6
CONTINUOUS
 10
46.757500
 20
124.298744
 11
50.257500
 21
125.798744
  0
LINE
  8
0
  6
CONTINUOUS
 10
46.757488
 20
116.298744
 11
50.257488
 21
114.798744
  0
LINE
  8
0
  6
CENTER
 10
77.257492
 20
94.104996
 11
77.257492
 21
135.186249
  0
LINE
  8
0
  6
CONTINUOUS
 10
53.757488
 20
98.798744
 11
53.757488
 21
97.298744
  0
LINE
  8
0
  6
CONTINUOUS
 10
99.757492
 20
98.798744
 11
99.757492
 21
97.298744
  0
LINE
  8
0
  6
CONTINUOUS
 10
409.257477
 20
128.798752
 11
409.257477
 21
116.208160
  0
LINE
  8
0
  6
CONTINUOUS
 10
359.257507
 20
128.798752
 11
359.257507
 21
117.080711
  0
LINE
  8
0
  6
CONTINUOUS
 10
360.257507
 20
129.798752
 11
408.257477
 21
129.798752
  0
LINE
  8
0
  6
CONTINUOUS
 10
408.257477
 20
129.798752
 11
409.257477
 21
128.798752
  0
LINE
  8
0
  6
CONTINUOUS
 10
360.257507
 20
129.798752
 11
359.257507
 21
128.798752
  0
LINE
  8
0
  6
CONTINUOUS
 10
359.257507
 20
128.798752
 11
409.257477
 21
128.798752
  0
LINE
  8
0
  6
CONTINUOUS
 10
51.757500
 20
255.444351
 11
51.757500
 21
215.944382
  0
TEXT
  8
0
 10
-10.000000
 20
-5.000000
 40
4.000000
 41
1.000000
  1
HFM-18T-10~240-S90WT
 50
0.000000
  0
ENDSEC
  0
EOF
