  0
SECTION
  2
HEADER
  9
$CLAYER
  8
1
  9
$LTSCALE
 40
3.0
  0
ENDSEC
  0
SECTION
  2
TABLES
  0
TABLE
  2
LTYPE
 70
     4
  0
LTYPE
  2
CONTINUOUS
  3
solid line
 70
    64
 72
    65
 73
     0
 40
0.0
  0
LTYPE
  2
DASHED
  3
__ __ __ __ __ __ __ __ __ __ __ __ __ __ __
 70
    64
 72
    65
 73
     2
 40
0.75
 49
0.5
 49
-0.25
  0
LTYPE
  2
CENTER
  3
____ _ ____ _ ____ _ ____ _ ____ _ ____ _ ____
 70
    64
 72
    65
 73
     4
 40
2.0
 49
1.25
 49
-0.25
 49
0.25
 49
-0.25
  0
LTYPE
  2
PHANTOM
  3
_____ _ _ _____ _ _ _____ _ _ _____ _ _ ____
 70
    64
 72
    65
 73
     6
 40
2.5
 49
1.25
 49
-0.25
 49
0.25
 49
-0.25
 49
0.25
 49
-0.25
  0
ENDTAB
  0
TABLE
  2
LAYER
 70
     1
  0
LAYER
  2
0
 70
    64
 62
     7
  6
CONTINUOUS
  0
ENDTAB
  0
TABLE
  2
STYLE
 70
     1
  0
STYLE
  2
STANDARD
 70
     0
 40
0.000000
 41
1.000000
 50
0.000000
 71
     0
 42
3.000000
  3
txt
  4
BIGFONT
  0
ENDTAB
  0
ENDSEC
  0
SECTION
  2
BLOCKS
  0
ENDSEC
  0
SECTION
  2
ENTITIES
  0
LINE
  8
0
  6
CONTINUOUS
 10
3.977500
 20
15.240000
 11
3.977500
 21
85.239998
  0
LINE
  8
0
  6
CONTINUOUS
 10
8.518950
 20
95.239998
 11
24.477501
 21
95.239998
  0
LINE
  8
0
  6
CONTINUOUS
 10
4.477500
 20
92.239998
 11
4.477500
 21
8.240000
  0
LINE
  8
0
  6
CONTINUOUS
 10
24.477501
 20
84.649300
 11
6.227500
 21
84.649300
  0
ARC
  8
0
  6
CONTINUOUS
 10
3.977499
 20
85.739998
 40
0.500000
 50
-90.000000
 51
0.000000
  0
LINE
  8
0
  6
CONTINUOUS
 10
5.054843
 20
93.239990
 11
4.477500
 21
92.239998
  0
ARC
  8
0
  6
CONTINUOUS
 10
8.518960
 20
91.240013
 40
4.000000
 50
90.000000
 51
150.000397
  0
LINE
  8
0
  6
CONTINUOUS
 10
8.518950
 20
5.240000
 11
24.477501
 21
5.240000
  0
LINE
  8
0
  6
CONTINUOUS
 10
24.477501
 20
15.830700
 11
6.227500
 21
15.830700
  0
ARC
  8
0
  6
CONTINUOUS
 10
3.977499
 20
14.740000
 40
0.500000
 50
0.000000
 51
90.000000
  0
LINE
  8
0
  6
CONTINUOUS
 10
5.054843
 20
7.240010
 11
4.477500
 21
8.240000
  0
ARC
  8
0
  6
CONTINUOUS
 10
8.518960
 20
9.239990
 40
4.000000
 50
-150.000397
 51
-90.000000
  0
LINE
  8
0
  6
CONTINUOUS
 10
24.977501
 20
96.739998
 11
24.977501
 21
95.239998
  0
LINE
  8
0
  6
CONTINUOUS
 10
17.977501
 20
96.739998
 11
17.977501
 21
95.239998
  0
LINE
  8
0
  6
CONTINUOUS
 10
17.977501
 20
96.739998
 11
24.977501
 21
96.739998
  0
LINE
  8
0
  6
CONTINUOUS
 10
22.377501
 20
109.739998
 11
22.377501
 21
96.739998
  0
LINE
  8
0
  6
CONTINUOUS
 10
20.577499
 20
110.364998
 11
20.577499
 21
96.739998
  0
LINE
  8
0
  6
CONTINUOUS
 10
18.777500
 20
108.302498
 11
18.777500
 21
96.739998
  0
LINE
  8
0
  6
CONTINUOUS
 10
24.177500
 20
109.114998
 11
24.177500
 21
96.739998
  0
LINE
  8
0
  6
CONTINUOUS
 10
20.577499
 20
110.364998
 11
22.377501
 21
109.739998
  0
LINE
  8
0
  6
CONTINUOUS
 10
18.777500
 20
108.302498
 11
20.577499
 21
108.927498
  0
LINE
  8
0
  6
CONTINUOUS
 10
24.177500
 20
109.114998
 11
22.378510
 21
108.667290
  0
LINE
  8
0
  6
CONTINUOUS
 10
24.477501
 20
5.240000
 11
24.477501
 21
95.239998
  0
LINE
  8
0
  6
CENTER
 10
-6.607812
 20
50.240002
 11
119.364197
 21
50.240002
  0
LINE
  8
0
  6
CONTINUOUS
 10
197.977493
 20
31.440001
 11
197.977493
 21
90.440002
  0
LINE
  8
0
  6
CONTINUOUS
 10
24.477501
 20
95.239998
 11
97.323257
 21
95.239998
  0
LINE
  8
0
  6
CONTINUOUS
 10
94.977501
 20
5.240000
 11
24.477501
 21
5.240000
  0
LINE
  8
0
  6
CENTER
 10
112.527199
 20
75.940002
 11
176.939407
 21
75.940002
  0
LINE
  8
0
  6
CENTER
 10
147.477493
 20
128.490005
 11
147.477493
 21
-7.500300
  0
LINE
  8
0
  6
CONTINUOUS
 10
107.477501
 20
119.940002
 11
187.477493
 21
119.940002
  0
LINE
  8
0
  6
CONTINUOUS
 10
107.477501
 20
1.940000
 11
187.477493
 21
1.940000
  0
LINE
  8
0
  6
CENTER
 10
180.477493
 20
110.940002
 11
194.352493
 21
110.940002
  0
LINE
  8
0
  6
CENTER
 10
187.477493
 20
104.239998
 11
187.477493
 21
118.006874
  0
CIRCLE
  8
0
  6
CONTINUOUS
 10
187.477493
 20
110.940002
 40
4.250000
  0
LINE
  8
0
  6
CENTER
 10
180.477493
 20
10.940000
 11
194.352493
 21
10.940000
  0
LINE
  8
0
  6
CENTER
 10
187.477493
 20
17.639999
 11
187.477493
 21
4.140000
  0
CIRCLE
  8
0
  6
CONTINUOUS
 10
187.477493
 20
10.940000
 40
4.250000
  0
LINE
  8
0
  6
CENTER
 10
114.477501
 20
110.940002
 11
100.602501
 21
110.940002
  0
LINE
  8
0
  6
CENTER
 10
107.477501
 20
104.239998
 11
107.477501
 21
117.739998
  0
CIRCLE
  8
0
  6
CONTINUOUS
 10
107.477501
 20
110.940002
 40
4.250000
  0
LINE
  8
0
  6
CENTER
 10
114.477501
 20
10.940000
 11
100.602501
 21
10.940000
  0
LINE
  8
0
  6
CENTER
 10
107.477501
 20
17.639999
 11
107.477501
 21
4.140000
  0
CIRCLE
  8
0
  6
CONTINUOUS
 10
107.477501
 20
10.940000
 40
4.250000
  0
LINE
  8
0
  6
CONTINUOUS
 10
196.454193
 20
111.586632
 11
197.977493
 21
90.440002
  0
LINE
  8
0
  6
CONTINUOUS
 10
196.454193
 20
10.293440
 11
197.977493
 21
31.440001
  0
LINE
  8
0
  6
CONTINUOUS
 10
121.477501
 20
115.940002
 11
173.477493
 21
115.940002
  0
LINE
  8
0
  6
CONTINUOUS
 10
173.477493
 20
5.940000
 11
121.477501
 21
5.940000
  0
LINE
  8
0
  6
CONTINUOUS
 10
99.477501
 20
76.632187
 11
99.477501
 21
45.247482
  0
ARC
  8
0
  6
CONTINUOUS
 10
147.477493
 20
60.939999
 40
50.500000
 50
18.103800
 51
161.896194
  0
ARC
  8
0
  6
CONTINUOUS
 10
147.477493
 20
60.939999
 40
50.500000
 50
198.103806
 51
341.896210
  0
LINE
  8
0
  6
CONTINUOUS
 10
195.477493
 20
76.632362
 11
195.477493
 21
45.247967
  0
ARC
  8
0
  6
CONTINUOUS
 10
173.477493
 20
110.940002
 40
5.000000
 50
0.000000
 51
90.000000
  0
ARC
  8
0
  6
CONTINUOUS
 10
188.483398
 20
96.976181
 40
5.000000
 50
4.120544
 51
94.120201
  0
ARC
  8
0
  6
CONTINUOUS
 10
187.477493
 20
110.940002
 40
9.000000
 50
180.000000
 51
274.120697
  0
ARC
  8
0
  6
CONTINUOUS
 10
187.477493
 20
110.940002
 40
9.000000
 50
4.120065
 51
90.000000
  0
ARC
  8
0
  6
CONTINUOUS
 10
173.477493
 20
10.940000
 40
5.000000
 50
-90.000000
 51
0.000000
  0
ARC
  8
0
  6
CONTINUOUS
 10
188.483398
 20
24.903820
 40
5.000000
 50
265.879791
 51
355.879486
  0
ARC
  8
0
  6
CONTINUOUS
 10
187.477493
 20
10.940000
 40
9.000000
 50
270.000000
 51
355.879913
  0
ARC
  8
0
  6
CONTINUOUS
 10
187.477493
 20
10.940000
 40
9.000000
 50
85.879837
 51
180.000000
  0
LINE
  8
0
  6
CONTINUOUS
 10
193.470398
 20
97.335457
 11
195.477493
 21
76.632362
  0
LINE
  8
0
  6
CONTINUOUS
 10
193.470398
 20
24.544580
 11
195.477600
 21
45.247963
  0
ARC
  8
0
  6
CONTINUOUS
 10
121.477501
 20
110.940002
 40
5.000000
 50
90.000000
 51
180.000000
  0
ARC
  8
0
  6
CONTINUOUS
 10
107.477501
 20
110.940002
 40
9.000000
 50
-94.120667
 51
0.000000
  0
ARC
  8
0
  6
CONTINUOUS
 10
106.471603
 20
96.976181
 40
5.000000
 50
85.879799
 51
175.879501
  0
LINE
  8
0
  6
CONTINUOUS
 10
101.484596
 20
97.335457
 11
99.477501
 21
76.632362
  0
ARC
  8
0
  6
CONTINUOUS
 10
106.471603
 20
24.903820
 40
5.000000
 50
-175.879501
 51
-85.879791
  0
ARC
  8
0
  6
CONTINUOUS
 10
107.477501
 20
10.940000
 40
9.000000
 50
0.000000
 51
94.120163
  0
ARC
  8
0
  6
CONTINUOUS
 10
121.477501
 20
10.940000
 40
5.000000
 50
180.000000
 51
270.000000
  0
LINE
  8
0
  6
CONTINUOUS
 10
101.484596
 20
24.544580
 11
99.477402
 21
45.247963
  0
ARC
  8
0
  6
CONTINUOUS
 10
107.477501
 20
110.940002
 40
9.000000
 50
90.000000
 51
175.879898
  0
LINE
  8
0
  6
CONTINUOUS
 10
98.500702
 20
111.586632
 11
96.977501
 21
90.440002
  0
LINE
  8
0
  6
CONTINUOUS
 10
98.500702
 20
10.293440
 11
96.977501
 21
31.440001
  0
ARC
  8
0
  6
CONTINUOUS
 10
107.477501
 20
10.940000
 40
9.000000
 50
-175.879898
 51
-90.000000
  0
ARC
  8
0
  6
CONTINUOUS
 10
101.977501
 20
15.240030
 40
5.000000
 50
143.994797
 51
180.000000
  0
ARC
  8
0
  6
CONTINUOUS
 10
94.977501
 20
7.240000
 40
2.000000
 50
-90.000000
 51
0.000000
  0
LINE
  8
0
  6
CONTINUOUS
 10
96.977501
 20
7.240000
 11
96.977501
 21
15.240030
  0
LINE
  8
0
  6
CONTINUOUS
 10
96.977501
 20
90.440002
 11
96.977501
 21
31.439989
  0
LINE
  8
0
  6
CONTINUOUS
 10
24.477501
 20
84.649300
 11
94.977501
 21
84.649300
  0
LINE
  8
0
  6
CONTINUOUS
 10
24.477501
 20
15.830690
 11
95.477501
 21
15.830690
  0
CIRCLE
  8
0
  6
CONTINUOUS
 10
147.477493
 20
75.940002
 40
23.500000
  0
LINE
  8
0
  6
CONTINUOUS
 10
141.102493
 20
38.493229
 11
141.102493
 21
32.939999
  0
LINE
  8
0
  6
CONTINUOUS
 10
144.289993
 20
40.510319
 11
144.289993
 21
42.502506
  0
LINE
  8
0
  6
CONTINUOUS
 10
150.664993
 20
40.510319
 11
150.664993
 21
42.502506
  0
LINE
  8
0
  6
CONTINUOUS
 10
146.854904
 20
41.332092
 11
146.854904
 21
33.985901
  0
LINE
  8
0
  6
CONTINUOUS
 10
148.050293
 20
41.332092
 11
148.050293
 21
33.985901
  0
LINE
  8
0
  6
CONTINUOUS
 10
154.325607
 20
41.332092
 11
154.325607
 21
33.936100
  0
LINE
  8
0
  6
CONTINUOUS
 10
155.421295
 20
37.409981
 11
155.421295
 21
33.936100
  0
LINE
  8
0
  6
CONTINUOUS
 10
139.589996
 20
41.232487
 11
136.518097
 21
41.232487
  0
LINE
  8
0
  6
CONTINUOUS
 10
136.518097
 20
41.232487
 11
135.798294
 21
40.339993
  0
LINE
  8
0
  6
CONTINUOUS
 10
135.884903
 20
42.502506
 11
134.727493
 21
41.020512
  0
LINE
  8
0
  6
CONTINUOUS
 10
135.798294
 20
34.830929
 11
136.529602
 21
34.060612
  0
LINE
  8
0
  6
CONTINUOUS
 10
134.727493
 20
34.180859
 11
135.957306
 21
32.939999
  0
LINE
  8
0
  6
CONTINUOUS
 10
134.727493
 20
41.020512
 11
134.727493
 21
34.180859
  0
LINE
  8
0
  6
CONTINUOUS
 10
135.798294
 20
40.339993
 11
135.798294
 21
34.830929
  0
LINE
  8
0
  6
CONTINUOUS
 10
140.181107
 20
40.661041
 11
139.577896
 21
41.232487
  0
LINE
  8
0
  6
CONTINUOUS
 10
140.171494
 20
42.502506
 11
141.102493
 21
41.469360
  0
LINE
  8
0
  6
CONTINUOUS
 10
140.181107
 20
40.510319
 11
141.102493
 21
40.510319
  0
LINE
  8
0
  6
CONTINUOUS
 10
135.884903
 20
42.502506
 11
140.171494
 21
42.502506
  0
LINE
  8
0
  6
CONTINUOUS
 10
140.181107
 20
37.447330
 11
138.512695
 21
37.447330
  0
LINE
  8
0
  6
CONTINUOUS
 10
140.181107
 20
36.451241
 11
140.181107
 21
37.248112
  0
LINE
  8
0
  6
CONTINUOUS
 10
138.188904
 20
34.060612
 11
136.529602
 21
34.060612
  0
ARC
  8
0
  6
CONTINUOUS
 10
138.188904
 20
36.052799
 40
1.992187
 50
-89.999786
 51
0.000109
  0
LINE
  8
0
  6
CONTINUOUS
 10
140.181107
 20
33.702271
 11
140.181107
 21
32.939999
  0
LINE
  8
0
  6
CONTINUOUS
 10
141.102493
 20
41.469360
 11
141.102493
 21
40.510319
  0
LINE
  8
0
  6
CONTINUOUS
 10
140.181107
 20
37.447330
 11
140.181107
 21
36.052799
  0
LINE
  8
0
  6
CONTINUOUS
 10
138.512695
 20
38.493229
 11
138.512695
 21
37.447330
  0
LINE
  8
0
  6
CONTINUOUS
 10
140.181107
 20
32.939999
 11
141.102493
 21
32.939999
  0
LINE
  8
0
  6
CONTINUOUS
 10
140.181107
 20
33.702271
 11
139.272598
 21
32.939999
  0
LINE
  8
0
  6
CONTINUOUS
 10
148.050293
 20
33.985901
 11
148.448700
 21
33.985901
  0
LINE
  8
0
  6
CONTINUOUS
 10
146.381805
 20
33.985901
 11
146.381805
 21
32.939999
  0
LINE
  8
0
  6
CONTINUOUS
 10
148.448700
 20
33.985901
 11
148.448700
 21
32.939999
  0
LINE
  8
0
  6
CONTINUOUS
 10
150.000000
 20
40.510319
 11
150.664993
 21
40.510319
  0
LINE
  8
0
  6
CONTINUOUS
 10
144.289993
 20
40.510319
 11
144.997604
 21
40.510319
  0
LINE
  8
0
  6
CONTINUOUS
 10
144.289993
 20
42.502506
 11
150.664993
 21
42.502506
  0
LINE
  8
0
  6
CONTINUOUS
 10
146.381805
 20
32.939999
 11
148.448700
 21
32.939999
  0
LINE
  8
0
  6
CONTINUOUS
 10
146.381805
 20
33.985901
 11
146.854904
 21
33.985901
  0
ARC
  8
0
  6
CONTINUOUS
 10
157.675003
 20
39.950008
 40
2.552490
 50
-73.981873
 51
90.003510
  0
ARC
  8
0
  6
CONTINUOUS
 10
157.675003
 20
39.950008
 40
1.557193
 50
-82.585274
 51
62.411850
  0
LINE
  8
0
  6
CONTINUOUS
 10
153.852493
 20
42.502506
 11
157.675003
 21
42.502506
  0
LINE
  8
0
  6
CONTINUOUS
 10
153.852493
 20
42.502506
 11
153.852493
 21
41.332092
  0
LINE
  8
0
  6
CONTINUOUS
 10
155.421295
 20
41.332092
 11
155.421295
 21
38.405842
  0
LINE
  8
0
  6
CONTINUOUS
 10
158.379395
 20
37.496632
 11
159.959198
 21
33.936100
  0
LINE
  8
0
  6
CONTINUOUS
 10
157.461807
 20
37.409981
 11
158.956894
 21
33.936100
  0
LINE
  8
0
  6
CONTINUOUS
 10
153.852493
 20
33.936100
 11
154.325607
 21
33.936100
  0
LINE
  8
0
  6
CONTINUOUS
 10
155.421295
 20
33.936100
 11
155.857101
 21
33.936100
  0
LINE
  8
0
  6
CONTINUOUS
 10
155.857101
 20
32.939999
 11
153.852493
 21
32.939999
  0
LINE
  8
0
  6
CONTINUOUS
 10
158.758301
 20
33.936100
 11
158.956894
 21
33.936100
  0
LINE
  8
0
  6
CONTINUOUS
 10
159.959198
 20
33.936100
 11
160.227493
 21
33.936100
  0
LINE
  8
0
  6
CONTINUOUS
 10
158.758301
 20
32.939999
 11
160.227493
 21
32.939999
  0
LINE
  8
0
  6
CONTINUOUS
 10
160.227493
 20
33.936100
 11
160.227493
 21
32.939999
  0
LINE
  8
0
  6
CONTINUOUS
 10
158.758301
 20
33.936100
 11
158.758301
 21
32.939999
  0
LINE
  8
0
  6
CONTINUOUS
 10
155.857101
 20
33.936100
 11
155.857101
 21
32.939999
  0
LINE
  8
0
  6
CONTINUOUS
 10
153.852493
 20
33.936100
 11
153.852493
 21
32.939999
  0
LINE
  8
0
  6
CONTINUOUS
 10
145.339996
 20
41.332092
 11
144.997604
 21
40.510319
  0
LINE
  8
0
  6
CONTINUOUS
 10
149.711304
 20
41.332092
 11
150.000000
 21
40.510319
  0
LINE
  8
0
  6
CONTINUOUS
 10
148.050293
 20
41.332092
 11
149.711304
 21
41.332092
  0
LINE
  8
0
  6
CONTINUOUS
 10
146.854904
 20
41.332092
 11
145.339996
 21
41.332092
  0
LINE
  8
0
  6
CONTINUOUS
 10
153.852493
 20
41.332092
 11
154.325607
 21
41.332092
  0
LINE
  8
0
  6
CONTINUOUS
 10
155.421295
 20
41.332092
 11
158.396194
 21
41.330158
  0
LINE
  8
0
  6
CONTINUOUS
 10
140.181107
 20
40.661041
 11
140.181107
 21
40.510319
  0
LINE
  8
0
  6
CONTINUOUS
 10
135.957306
 20
32.939999
 11
139.272598
 21
32.939999
  0
LINE
  8
0
  6
CONTINUOUS
 10
155.421295
 20
38.405842
 11
157.876007
 21
38.405842
  0
LINE
  8
0
  6
CONTINUOUS
 10
155.421295
 20
37.409981
 11
157.461807
 21
37.409981
  0
LINE
  8
0
  6
CONTINUOUS
 10
138.512695
 20
38.493229
 11
141.102493
 21
38.493229
  0
LINE
  8
0
  6
CONTINUOUS
 10
133.477493
 20
115.008797
 11
133.477493
 21
109.460609
  0
LINE
  8
0
  6
CONTINUOUS
 10
161.477493
 20
115.008797
 11
161.477493
 21
109.460617
  0
LINE
  8
0
  6
CONTINUOUS
 10
133.477493
 20
12.419390
 11
133.477493
 21
7.145370
  0
LINE
  8
0
  6
CONTINUOUS
 10
161.477493
 20
12.419390
 11
161.477493
 21
7.145370
  0
LINE
  8
0
  6
CENTER
 10
347.477509
 20
-4.760000
 11
347.477509
 21
125.739998
  0
LINE
  8
0
  6
CONTINUOUS
 10
305.477509
 20
98.439987
 11
305.477509
 21
53.439995
  0
LINE
  8
0
  6
CONTINUOUS
 10
384.477509
 20
110.991882
 11
384.477509
 21
10.888080
  0
LINE
  8
0
  6
CENTER
 10
265.977509
 20
75.940002
 11
427.977509
 21
75.940002
  0
LINE
  8
0
  6
CONTINUOUS
 10
309.477509
 20
99.440002
 11
306.477509
 21
99.440002
  0
LINE
  8
0
  6
CONTINUOUS
 10
309.477509
 20
52.439999
 11
306.477509
 21
52.439999
  0
LINE
  8
0
  6
CONTINUOUS
 10
307.942902
 20
119.940002
 11
299.477509
 21
119.940002
  0
LINE
  8
0
  6
CONTINUOUS
 10
307.942902
 20
1.940000
 11
299.477509
 21
1.940000
  0
LINE
  8
0
  6
CONTINUOUS
 10
381.529785
 20
113.991440
 11
311.442596
 21
115.214539
  0
LINE
  8
0
  6
CONTINUOUS
 10
381.529907
 20
7.888550
 11
311.442596
 21
6.664920
  0
LINE
  8
0
  6
CONTINUOUS
 10
382.525299
 20
90.440002
 11
314.643311
 21
90.440002
  0
LINE
  8
0
  6
CONTINUOUS
 10
382.525299
 20
31.440001
 11
312.477509
 21
31.440001
  0
ARC
  8
0
  6
CONTINUOUS
 10
381.477509
 20
110.991882
 40
3.000000
 50
0.000000
 51
89.000359
  0
ARC
  8
0
  6
CONTINUOUS
 10
381.477509
 20
10.888080
 40
3.000000
 50
-88.999687
 51
0.000000
  0
ARC
  8
0
  6
CONTINUOUS
 10
312.477509
 20
28.440020
 40
3.000000
 50
90.000000
 51
180.000000
  0
LINE
  8
0
  6
CENTER
 10
294.415009
 20
10.940000
 11
314.165009
 21
10.940000
  0
LINE
  8
0
  6
CENTER
 10
296.165009
 20
110.940002
 11
313.165009
 21
110.940002
  0
LINE
  8
0
  6
DASHED
 10
299.477509
 20
106.690002
 11
309.477509
 21
106.690002
  0
LINE
  8
0
  6
DASHED
 10
299.477509
 20
115.190002
 11
309.477509
 21
115.190002
  0
LINE
  8
0
  6
DASHED
 10
299.477509
 20
15.190000
 11
309.477509
 21
15.190000
  0
LINE
  8
0
  6
DASHED
 10
299.477509
 20
6.690000
 11
309.477509
 21
6.690000
  0
LINE
  8
0
  6
CONTINUOUS
 10
321.477509
 20
5.240000
 11
373.477509
 21
5.240000
  0
ARC
  8
0
  6
CONTINUOUS
 10
373.477509
 20
8.240000
 40
3.000000
 50
270.000000
 51
351.561890
  0
ARC
  8
0
  6
CONTINUOUS
 10
321.477509
 20
8.240000
 40
3.000000
 50
208.811905
 51
270.000000
  0
ARC
  8
0
  6
CONTINUOUS
 10
306.477509
 20
53.439995
 40
1.000000
 50
180.000000
 51
270.000000
  0
ARC
  8
0
  6
CONTINUOUS
 10
306.477509
 20
98.439987
 40
1.000000
 50
90.000000
 51
180.000000
  0
ARC
  8
0
  6
CONTINUOUS
 10
347.477509
 20
50.240002
 40
45.000000
 50
-34.692108
 51
20.421860
  0
LINE
  8
0
  6
CONTINUOUS
 10
389.477509
 20
98.439987
 11
389.477509
 21
53.439995
  0
LINE
  8
0
  6
CONTINUOUS
 10
386.477509
 20
99.440002
 11
388.477509
 21
99.440002
  0
LINE
  8
0
  6
CONTINUOUS
 10
386.477509
 20
52.439999
 11
388.477509
 21
52.439999
  0
ARC
  8
0
  6
CONTINUOUS
 10
386.477509
 20
101.440002
 40
2.000000
 50
180.000000
 51
270.000000
  0
ARC
  8
0
  6
CONTINUOUS
 10
386.477509
 20
50.440006
 40
2.000000
 50
90.000000
 51
180.000000
  0
ARC
  8
0
  6
CONTINUOUS
 10
388.477509
 20
53.439995
 40
1.000000
 50
-90.000000
 51
0.000000
  0
ARC
  8
0
  6
CONTINUOUS
 10
388.477509
 20
98.439987
 40
1.000000
 50
0.000000
 51
90.000000
  0
LINE
  8
0
  6
CONTINUOUS
 10
299.477509
 20
103.656120
 11
306.915009
 21
102.677498
  0
LINE
  8
0
  6
CONTINUOUS
 10
306.915009
 20
102.677498
 11
311.915009
 21
99.427498
  0
LINE
  8
0
  6
CONTINUOUS
 10
314.829102
 20
90.012497
 11
316.290009
 21
89.052498
  0
LINE
  8
0
  6
CONTINUOUS
 10
316.290009
 20
89.052498
 11
315.790009
 21
83.052498
  0
LINE
  8
0
  6
CONTINUOUS
 10
315.790009
 20
83.052498
 11
313.790009
 21
79.552498
  0
LINE
  8
0
  6
CONTINUOUS
 10
313.790009
 20
79.552498
 11
315.665009
 21
74.052498
  0
LINE
  8
0
  6
CONTINUOUS
 10
315.665009
 20
74.052498
 11
315.040009
 21
68.302498
  0
LINE
  8
0
  6
CONTINUOUS
 10
315.040009
 20
68.302498
 11
314.415009
 21
62.052502
  0
LINE
  8
0
  6
CONTINUOUS
 10
314.415009
 20
62.052502
 11
315.540009
 21
57.427502
  0
LINE
  8
0
  6
CONTINUOUS
 10
315.540009
 20
57.427502
 11
314.415009
 21
53.177502
  0
LINE
  8
0
  6
CONTINUOUS
 10
314.415009
 20
53.177502
 11
311.165009
 21
48.302502
  0
LINE
  8
0
  6
CONTINUOUS
 10
311.165009
 20
48.302502
 11
306.665009
 21
46.302502
  0
LINE
  8
0
  6
CONTINUOUS
 10
306.665009
 20
46.302502
 11
302.415009
 21
43.677502
  0
LINE
  8
0
  6
CONTINUOUS
 10
302.415009
 20
43.677502
 11
299.477509
 21
43.280540
  0
LINE
  8
0
  6
CONTINUOUS
 10
311.915009
 20
99.427498
 11
312.665009
 21
94.989998
  0
LINE
  8
0
  6
CONTINUOUS
 10
312.665009
 20
94.989998
 11
314.829102
 21
90.012497
  0
LINE
  8
0
  6
CONTINUOUS
 10
309.477509
 20
117.940002
 11
309.477509
 21
47.552498
  0
LINE
  8
0
  6
CONTINUOUS
 10
309.477509
 20
3.940000
 11
309.477509
 21
28.440010
  0
LINE
  8
0
  6
CONTINUOUS
 10
299.477509
 20
119.940002
 11
299.477509
 21
84.940002
  0
LINE
  8
0
  6
CONTINUOUS
 10
299.477509
 20
1.940000
 11
299.477509
 21
66.940002
  0
LINE
  8
0
  6
CENTER
 10
287.282501
 20
50.240002
 11
403.744385
 21
50.240002
  0
LINE
  8
0
  6
CONTINUOUS
 10
309.874695
 20
118.457642
 11
310.155304
 21
117.410446
  0
ARC
  8
0
  6
CONTINUOUS
 10
307.477509
 20
117.939987
 40
2.000000
 50
0.000000
 51
90.000000
  0
ARC
  8
0
  6
CONTINUOUS
 10
307.942902
 20
117.939987
 40
2.000000
 50
15.000500
 51
90.000000
  0
ARC
  8
0
  6
CONTINUOUS
 10
311.477509
 20
117.214249
 40
2.000000
 50
180.000000
 51
269.000610
  0
ARC
  8
0
  6
CONTINUOUS
 10
313.053101
 20
118.186897
 40
3.000000
 50
195.000504
 51
269.000610
  0
LINE
  8
0
  6
CONTINUOUS
 10
309.874695
 20
3.422370
 11
310.155090
 21
4.469020
  0
ARC
  8
0
  6
CONTINUOUS
 10
307.477509
 20
3.940000
 40
2.000000
 50
-90.000000
 51
0.000000
  0
ARC
  8
0
  6
CONTINUOUS
 10
307.942902
 20
3.940000
 40
2.000000
 50
270.000000
 51
345.000000
  0
ARC
  8
0
  6
CONTINUOUS
 10
311.477509
 20
4.665220
 40
2.000000
 50
91.000526
 51
180.000000
  0
ARC
  8
0
  6
CONTINUOUS
 10
313.052887
 20
3.692580
 40
3.000000
 50
91.000458
 51
165.000305
  0
LINE
  8
0
  6
CONTINUOUS
 10
152.977493
 20
72.940018
 11
152.977493
 21
78.940018
  0
LINE
  8
0
  6
CONTINUOUS
 10
158.977493
 20
72.940041
 11
158.977493
 21
78.940041
  0
LINE
  8
0
  6
CONTINUOUS
 10
158.977493
 20
72.940041
 11
152.977493
 21
72.940018
  0
LINE
  8
0
  6
CONTINUOUS
 10
158.977493
 20
78.940041
 11
152.977493
 21
78.940018
  0
ARC
  8
0
  6
CONTINUOUS
 10
147.477493
 20
75.940002
 40
9.000000
 50
19.471210
 51
340.528809
  0
LINE
  8
0
  6
CONTINUOUS
 10
273.477509
 20
66.940002
 11
273.477509
 21
84.940002
  0
LINE
  8
0
  6
CONTINUOUS
 10
303.477509
 20
84.940002
 11
273.477509
 21
84.940002
  0
LINE
  8
0
  6
CONTINUOUS
 10
303.477509
 20
66.940002
 11
273.477509
 21
66.940002
  0
LINE
  8
0
  6
CONTINUOUS
 10
303.477509
 20
85.940002
 11
303.477509
 21
65.940002
  0
LINE
  8
0
  6
CONTINUOUS
 10
305.477509
 20
85.940002
 11
303.477509
 21
85.940002
  0
LINE
  8
0
  6
CONTINUOUS
 10
305.477509
 20
65.940002
 11
303.477509
 21
65.940002
  0
ARC
  8
0
  6
CONTINUOUS
 10
297.477509
 20
75.940002
 40
3.000000
 50
-90.000000
 51
90.000000
  0
LINE
  8
0
  6
CONTINUOUS
 10
297.477509
 20
78.940002
 11
273.477509
 21
78.940002
  0
LINE
  8
0
  6
CONTINUOUS
 10
297.477509
 20
72.940002
 11
273.477509
 21
72.940002
  0
LINE
  8
0
  6
CONTINUOUS
 10
421.477509
 20
66.940002
 11
421.477509
 21
84.940002
  0
LINE
  8
0
  6
CONTINUOUS
 10
391.477509
 20
84.940002
 11
421.477509
 21
84.940002
  0
LINE
  8
0
  6
CONTINUOUS
 10
391.477509
 20
66.940002
 11
421.477509
 21
66.940002
  0
LINE
  8
0
  6
CONTINUOUS
 10
391.477509
 20
85.940002
 11
391.477509
 21
65.940002
  0
LINE
  8
0
  6
CONTINUOUS
 10
389.477509
 20
85.940002
 11
391.477509
 21
85.940002
  0
LINE
  8
0
  6
CONTINUOUS
 10
389.477509
 20
65.940002
 11
391.477509
 21
65.940002
  0
ARC
  8
0
  6
CONTINUOUS
 10
397.477509
 20
75.940002
 40
3.000000
 50
90.000000
 51
270.000000
  0
LINE
  8
0
  6
CONTINUOUS
 10
397.477509
 20
78.940002
 11
421.477509
 21
78.940002
  0
LINE
  8
0
  6
CONTINUOUS
 10
397.477509
 20
72.940002
 11
421.477509
 21
72.940002
  0
LINE
  8
0
  6
CONTINUOUS
 10
17.977501
 20
229.648743
 11
17.977501
 21
241.648743
  0
LINE
  8
0
  6
CONTINUOUS
 10
24.977501
 20
229.648743
 11
24.977501
 21
241.648743
  0
LINE
  8
0
  6
CONTINUOUS
 10
18.977501
 20
242.648743
 11
23.977501
 21
242.648743
  0
LINE
  8
0
  6
CONTINUOUS
 10
23.977501
 20
228.648743
 11
18.977501
 21
228.648743
  0
ARC
  8
0
  6
CONTINUOUS
 10
23.977501
 20
241.648743
 40
1.000000
 50
0.000000
 51
90.000000
  0
ARC
  8
0
  6
CONTINUOUS
 10
18.977501
 20
241.648743
 40
1.000000
 50
90.000000
 51
180.000000
  0
ARC
  8
0
  6
CONTINUOUS
 10
18.977501
 20
229.648743
 40
1.000000
 50
180.000000
 51
270.000000
  0
ARC
  8
0
  6
CONTINUOUS
 10
23.977501
 20
229.648743
 40
1.000000
 50
-90.000000
 51
0.000000
  0
LINE
  8
0
  6
CONTINUOUS
 10
22.477501
 20
232.148743
 11
22.477501
 21
239.148743
  0
LINE
  8
0
  6
CONTINUOUS
 10
20.477501
 20
232.148743
 11
20.477501
 21
239.148743
  0
ARC
  8
0
  6
CONTINUOUS
 10
21.477501
 20
239.148743
 40
1.000000
 50
90.000000
 51
180.000000
  0
ARC
  8
0
  6
CONTINUOUS
 10
21.477501
 20
239.148743
 40
1.000000
 50
0.000000
 51
90.000000
  0
ARC
  8
0
  6
CONTINUOUS
 10
21.477501
 20
232.148743
 40
1.000000
 50
180.000000
 51
270.000000
  0
ARC
  8
0
  6
CONTINUOUS
 10
21.477501
 20
232.148743
 40
1.000000
 50
-90.000000
 51
0.000000
  0
LINE
  8
0
  6
CENTER
 10
147.477493
 20
316.526245
 11
147.477493
 21
155.355621
  0
LINE
  8
0
  6
CENTER
 10
-9.508750
 20
235.648743
 11
211.618744
 21
235.648743
  0
LINE
  8
0
  6
CONTINUOUS
 10
193.803391
 20
272.648743
 11
98.925812
 21
272.648743
  0
LINE
  8
0
  6
CONTINUOUS
 10
3.977500
 20
200.648743
 11
3.977500
 21
270.648743
  0
LINE
  8
0
  6
CONTINUOUS
 10
8.518949
 20
280.648743
 11
24.477501
 21
280.648743
  0
LINE
  8
0
  6
CONTINUOUS
 10
4.477500
 20
277.648743
 11
4.477500
 21
193.648743
  0
LINE
  8
0
  6
CONTINUOUS
 10
24.477501
 20
264.648743
 11
6.227500
 21
264.648743
  0
ARC
  8
0
  6
CONTINUOUS
 10
3.977499
 20
271.148743
 40
0.500000
 50
-90.000000
 51
0.000000
  0
LINE
  8
0
  6
CONTINUOUS
 10
5.054843
 20
278.648743
 11
4.477500
 21
277.648743
  0
ARC
  8
0
  6
CONTINUOUS
 10
8.518963
 20
276.648773
 40
4.000000
 50
90.000000
 51
150.000397
  0
LINE
  8
0
  6
CONTINUOUS
 10
8.518949
 20
190.648743
 11
24.477501
 21
190.648743
  0
ARC
  8
0
  6
CONTINUOUS
 10
3.977499
 20
200.148743
 40
0.500000
 50
0.000000
 51
90.000000
  0
LINE
  8
0
  6
CONTINUOUS
 10
5.054843
 20
192.648758
 11
4.477500
 21
193.648743
  0
ARC
  8
0
  6
CONTINUOUS
 10
8.518963
 20
194.648743
 40
4.000000
 50
-150.000397
 51
-90.000000
  0
LINE
  8
0
  6
CONTINUOUS
 10
24.477501
 20
190.648743
 11
24.477501
 21
228.782730
  0
LINE
  8
0
  6
CONTINUOUS
 10
96.768082
 20
264.651489
 11
96.926498
 21
270.701111
  0
LINE
  8
0
  6
CONTINUOUS
 10
94.819702
 20
280.648743
 11
24.477501
 21
280.648743
  0
LINE
  8
0
  6
CONTINUOUS
 10
24.477501
 20
264.648743
 11
103.820053
 21
264.648743
  0
LINE
  8
0
  6
CONTINUOUS
 10
24.477501
 20
206.648743
 11
6.227500
 21
206.648743
  0
LINE
  8
0
  6
CONTINUOUS
 10
24.477501
 20
206.648743
 11
95.094376
 21
206.648743
  0
LINE
  8
0
  6
CONTINUOUS
 10
94.950630
 20
190.648743
 11
24.477501
 21
190.648743
  0
LINE
  8
0
  6
CONTINUOUS
 10
95.720573
 20
235.648743
 11
96.977501
 21
187.648743
  0
LINE
  8
0
  6
CONTINUOUS
 10
130.477493
 20
267.648743
 11
130.477493
 21
199.648743
  0
LINE
  8
0
  6
CONTINUOUS
 10
164.477493
 20
267.648743
 11
164.477493
 21
199.648743
  0
LINE
  8
0
  6
CONTINUOUS
 10
103.820053
 20
262.648743
 11
103.820053
 21
199.183746
  0
LINE
  8
0
  6
CONTINUOUS
 10
169.977509
 20
277.648743
 11
124.977501
 21
277.648743
  0
LINE
  8
0
  6
CONTINUOUS
 10
123.977501
 20
276.648743
 11
123.977501
 21
274.648743
  0
LINE
  8
0
  6
CONTINUOUS
 10
170.977509
 20
276.648743
 11
170.977509
 21
274.648743
  0
ARC
  8
0
  6
CONTINUOUS
 10
121.977501
 20
274.648743
 40
2.000000
 50
-90.000000
 51
0.000000
  0
ARC
  8
0
  6
CONTINUOUS
 10
172.977493
 20
274.648743
 40
2.000000
 50
180.000000
 51
270.000000
  0
ARC
  8
0
  6
CONTINUOUS
 10
124.977509
 20
276.648743
 40
1.000000
 50
90.000000
 51
180.000000
  0
ARC
  8
0
  6
CONTINUOUS
 10
169.977509
 20
276.648743
 40
1.000000
 50
0.000000
 51
90.000000
  0
LINE
  8
0
  6
CONTINUOUS
 10
158.977493
 20
309.648743
 11
138.477493
 21
309.648743
  0
LINE
  8
0
  6
CONTINUOUS
 10
138.477493
 20
279.648743
 11
138.477493
 21
309.648743
  0
LINE
  8
0
  6
CONTINUOUS
 10
156.477493
 20
279.648743
 11
156.477493
 21
282.648743
  0
LINE
  8
0
  6
CONTINUOUS
 10
137.477493
 20
279.648743
 11
157.477493
 21
279.648743
  0
LINE
  8
0
  6
CONTINUOUS
 10
137.477493
 20
277.648743
 11
137.477493
 21
279.648743
  0
LINE
  8
0
  6
CONTINUOUS
 10
157.477493
 20
277.648743
 11
157.477493
 21
279.648743
  0
LINE
  8
0
  6
CONTINUOUS
 10
158.977493
 20
309.648743
 11
158.977493
 21
282.648743
  0
LINE
  8
0
  6
CONTINUOUS
 10
158.977493
 20
282.648743
 11
155.962494
 21
282.648743
  0
LINE
  8
0
  6
CONTINUOUS
 10
155.962494
 20
309.648743
 11
155.962494
 21
282.648743
  0
LINE
  8
0
  6
CONTINUOUS
 10
158.977493
 20
161.648743
 11
138.477493
 21
161.648743
  0
LINE
  8
0
  6
CONTINUOUS
 10
138.477493
 20
187.648743
 11
138.477493
 21
161.648743
  0
LINE
  8
0
  6
CONTINUOUS
 10
158.977493
 20
161.648743
 11
158.977493
 21
187.648743
  0
LINE
  8
0
  6
CONTINUOUS
 10
155.962494
 20
161.648743
 11
155.962494
 21
187.648743
  0
LINE
  8
0
  6
CONTINUOUS
 10
24.477501
 20
242.514771
 11
24.477501
 21
280.648743
  0
LINE
  8
0
  6
CONTINUOUS
 10
96.977501
 20
187.648743
 11
197.977493
 21
187.648743
  0
LINE
  8
0
  6
CONTINUOUS
 10
195.802704
 20
270.701111
 11
197.977493
 21
187.648743
  0
LINE
  8
0
  6
CONTINUOUS
 10
98.768700
 20
197.648743
 11
195.767334
 21
197.648743
  0
ARC
  8
0
  6
CONTINUOUS
 10
195.767334
 20
195.648743
 40
2.000000
 50
1.500000
 51
90.000000
  0
ARC
  8
0
  6
CONTINUOUS
 10
193.803391
 20
270.648743
 40
2.000000
 50
1.500000
 51
90.000000
  0
ARC
  8
0
  6
CONTINUOUS
 10
166.477493
 20
199.648743
 40
2.000000
 50
180.000000
 51
270.000000
  0
ARC
  8
0
  6
CONTINUOUS
 10
128.477493
 20
199.648743
 40
2.000000
 50
-90.000000
 51
0.000000
  0
LINE
  8
0
  6
CONTINUOUS
 10
130.335571
 20
198.908752
 11
164.619431
 21
198.908752
  0
ARC
  8
0
  6
CONTINUOUS
 10
98.768700
 20
195.648743
 40
2.000000
 50
90.000000
 51
181.500000
  0
ARC
  8
0
  6
CONTINUOUS
 10
94.950630
 20
188.648743
 40
2.000000
 50
1.500000
 51
90.000000
  0
LINE
  8
0
  6
CONTINUOUS
 10
96.819016
 20
278.701111
 11
96.926498
 21
274.596405
  0
ARC
  8
0
  6
CONTINUOUS
 10
94.819702
 20
278.648743
 40
2.000000
 50
1.500000
 51
90.000000
  0
ARC
  8
0
  6
CONTINUOUS
 10
98.925812
 20
274.648743
 40
2.000000
 50
181.500000
 51
270.000000
  0
ARC
  8
0
  6
CONTINUOUS
 10
98.925812
 20
270.648743
 40
2.000000
 50
90.000000
 51
178.500000
  0
LINE
  8
0
  6
CENTER
 10
187.477493
 20
179.960159
 11
187.477493
 21
203.822815
  0
LINE
  8
0
  6
DASHED
 10
191.727493
 20
197.648743
 11
191.727493
 21
187.648743
  0
LINE
  8
0
  6
DASHED
 10
183.227493
 20
197.648743
 11
183.227493
 21
187.648743
  0
LINE
  8
0
  6
CENTER
 10
107.477501
 20
179.960159
 11
107.477501
 21
203.822815
  0
LINE
  8
0
  6
DASHED
 10
103.227501
 20
197.648743
 11
103.227501
 21
187.648743
  0
LINE
  8
0
  6
DASHED
 10
111.727501
 20
197.648743
 11
111.727501
 21
187.648743
  0
TEXT
  8
0
 10
-9.000000
 20
-7.000000
 40
4.000000
 41
1.000000
  1
HFM-18T-10~240-T60W
 50
0.000000
  0
ENDSEC
  0
EOF
