  0
SECTION
  2
HEADER
  9
$CLAYER
  8
1
  9
$LTSCALE
 40
3.0
  0
ENDSEC
  0
SECTION
  2
TABLES
  0
TABLE
  2
LTYPE
 70
     4
  0
LTYPE
  2
CONTINUOUS
  3
solid line
 70
    64
 72
    65
 73
     0
 40
0.0
  0
LTYPE
  2
DASHED
  3
__ __ __ __ __ __ __ __ __ __ __ __ __ __ __
 70
    64
 72
    65
 73
     2
 40
0.75
 49
0.5
 49
-0.25
  0
LTYPE
  2
CENTER
  3
____ _ ____ _ ____ _ ____ _ ____ _ ____ _ ____
 70
    64
 72
    65
 73
     4
 40
2.0
 49
1.25
 49
-0.25
 49
0.25
 49
-0.25
  0
LTYPE
  2
PHANTOM
  3
_____ _ _ _____ _ _ _____ _ _ _____ _ _ ____
 70
    64
 72
    65
 73
     6
 40
2.5
 49
1.25
 49
-0.25
 49
0.25
 49
-0.25
 49
0.25
 49
-0.25
  0
ENDTAB
  0
TABLE
  2
LAYER
 70
     1
  0
LAYER
  2
0
 70
    64
 62
     7
  6
CONTINUOUS
  0
ENDTAB
  0
TABLE
  2
STYLE
 70
     1
  0
STYLE
  2
STANDARD
 70
     0
 40
0.000000
 41
1.000000
 50
0.000000
 71
     0
 42
3.000000
  3
txt
  4
BIGFONT
  0
ENDTAB
  0
ENDSEC
  0
SECTION
  2
BLOCKS
  0
ENDSEC
  0
SECTION
  2
ENTITIES
  0
LINE
  8
0
  6
CONTINUOUS
 10
3.997500
 20
16.153749
 11
3.997500
 21
86.153748
  0
LINE
  8
0
  6
CONTINUOUS
 10
8.538950
 20
96.153748
 11
24.497499
 21
96.153748
  0
LINE
  8
0
  6
CONTINUOUS
 10
4.497500
 20
93.153748
 11
4.497500
 21
9.153750
  0
LINE
  8
0
  6
CONTINUOUS
 10
24.497499
 20
85.563049
 11
6.247500
 21
85.563049
  0
ARC
  8
0
  6
CONTINUOUS
 10
3.997499
 20
86.653748
 40
0.500000
 50
-90.000000
 51
0.000000
  0
LINE
  8
0
  6
CONTINUOUS
 10
5.074843
 20
94.153740
 11
4.497500
 21
93.153748
  0
ARC
  8
0
  6
CONTINUOUS
 10
8.538960
 20
92.153763
 40
4.000000
 50
90.000000
 51
150.000397
  0
LINE
  8
0
  6
CONTINUOUS
 10
8.538950
 20
6.153750
 11
24.497499
 21
6.153750
  0
LINE
  8
0
  6
CONTINUOUS
 10
24.497499
 20
16.744450
 11
6.247500
 21
16.744450
  0
ARC
  8
0
  6
CONTINUOUS
 10
3.997499
 20
15.653750
 40
0.500000
 50
0.000000
 51
90.000000
  0
LINE
  8
0
  6
CONTINUOUS
 10
5.074843
 20
8.153760
 11
4.497500
 21
9.153750
  0
ARC
  8
0
  6
CONTINUOUS
 10
8.538960
 20
10.153740
 40
4.000000
 50
-150.000397
 51
-90.000000
  0
LINE
  8
0
  6
CONTINUOUS
 10
24.497499
 20
6.153750
 11
24.497499
 21
96.153748
  0
LINE
  8
0
  6
CENTER
 10
-6.587812
 20
51.153751
 11
119.384201
 21
51.153751
  0
LINE
  8
0
  6
CONTINUOUS
 10
197.997498
 20
32.353748
 11
197.997498
 21
91.353752
  0
LINE
  8
0
  6
CONTINUOUS
 10
24.497499
 20
96.153748
 11
97.343262
 21
96.153748
  0
LINE
  8
0
  6
CONTINUOUS
 10
94.997498
 20
6.153750
 11
24.497499
 21
6.153750
  0
LINE
  8
0
  6
CENTER
 10
112.547203
 20
76.853752
 11
182.651245
 21
76.853752
  0
LINE
  8
0
  6
CENTER
 10
147.497498
 20
129.403748
 11
147.497498
 21
-6.586550
  0
LINE
  8
0
  6
CONTINUOUS
 10
107.497498
 20
120.853752
 11
187.497498
 21
120.853752
  0
LINE
  8
0
  6
CONTINUOUS
 10
107.497498
 20
2.853750
 11
187.497498
 21
2.853750
  0
LINE
  8
0
  6
CENTER
 10
180.497498
 20
111.853752
 11
194.372498
 21
111.853752
  0
LINE
  8
0
  6
CENTER
 10
187.497498
 20
105.153748
 11
187.497498
 21
118.920624
  0
CIRCLE
  8
0
  6
CONTINUOUS
 10
187.497498
 20
111.853752
 40
4.250000
  0
LINE
  8
0
  6
CENTER
 10
180.497498
 20
11.853750
 11
194.372498
 21
11.853750
  0
LINE
  8
0
  6
CENTER
 10
187.497498
 20
18.553749
 11
187.497498
 21
5.053750
  0
CIRCLE
  8
0
  6
CONTINUOUS
 10
187.497498
 20
11.853750
 40
4.250000
  0
LINE
  8
0
  6
CENTER
 10
114.497498
 20
111.853752
 11
100.622498
 21
111.853752
  0
LINE
  8
0
  6
CENTER
 10
107.497498
 20
105.153748
 11
107.497498
 21
118.653748
  0
CIRCLE
  8
0
  6
CONTINUOUS
 10
107.497498
 20
111.853752
 40
4.250000
  0
LINE
  8
0
  6
CENTER
 10
114.497498
 20
11.853750
 11
100.622498
 21
11.853750
  0
LINE
  8
0
  6
CENTER
 10
107.497498
 20
18.553749
 11
107.497498
 21
5.053750
  0
CIRCLE
  8
0
  6
CONTINUOUS
 10
107.497498
 20
11.853750
 40
4.250000
  0
LINE
  8
0
  6
CONTINUOUS
 10
196.474197
 20
112.500381
 11
197.997498
 21
91.353752
  0
LINE
  8
0
  6
CONTINUOUS
 10
196.474197
 20
11.207190
 11
197.997498
 21
32.353748
  0
LINE
  8
0
  6
CONTINUOUS
 10
121.497498
 20
116.853752
 11
173.497498
 21
116.853752
  0
LINE
  8
0
  6
CONTINUOUS
 10
173.497498
 20
6.853750
 11
121.497498
 21
6.853750
  0
LINE
  8
0
  6
CONTINUOUS
 10
99.497498
 20
77.545937
 11
99.497498
 21
46.161232
  0
ARC
  8
0
  6
CONTINUOUS
 10
147.497498
 20
61.853748
 40
50.500000
 50
18.103800
 51
161.896194
  0
ARC
  8
0
  6
CONTINUOUS
 10
147.497498
 20
61.853748
 40
50.500000
 50
198.103806
 51
341.896210
  0
LINE
  8
0
  6
CONTINUOUS
 10
195.497498
 20
77.546112
 11
195.497498
 21
46.161716
  0
ARC
  8
0
  6
CONTINUOUS
 10
173.497498
 20
111.853752
 40
5.000000
 50
0.000000
 51
90.000000
  0
ARC
  8
0
  6
CONTINUOUS
 10
188.503403
 20
97.889931
 40
5.000000
 50
4.120544
 51
94.120201
  0
ARC
  8
0
  6
CONTINUOUS
 10
187.497498
 20
111.853752
 40
9.000000
 50
180.000000
 51
274.120697
  0
ARC
  8
0
  6
CONTINUOUS
 10
187.497498
 20
111.853752
 40
9.000000
 50
4.120065
 51
90.000000
  0
ARC
  8
0
  6
CONTINUOUS
 10
173.497498
 20
11.853750
 40
5.000000
 50
-90.000000
 51
0.000000
  0
ARC
  8
0
  6
CONTINUOUS
 10
188.503403
 20
25.817570
 40
5.000000
 50
265.879791
 51
355.879486
  0
ARC
  8
0
  6
CONTINUOUS
 10
187.497498
 20
11.853750
 40
9.000000
 50
270.000000
 51
355.879913
  0
ARC
  8
0
  6
CONTINUOUS
 10
187.497498
 20
11.853750
 40
9.000000
 50
85.879837
 51
180.000000
  0
LINE
  8
0
  6
CONTINUOUS
 10
193.490402
 20
98.249207
 11
195.497498
 21
77.546112
  0
LINE
  8
0
  6
CONTINUOUS
 10
193.490402
 20
25.458330
 11
195.497604
 21
46.161713
  0
ARC
  8
0
  6
CONTINUOUS
 10
121.497498
 20
111.853752
 40
5.000000
 50
90.000000
 51
180.000000
  0
ARC
  8
0
  6
CONTINUOUS
 10
107.497498
 20
111.853752
 40
9.000000
 50
-94.120667
 51
0.000000
  0
ARC
  8
0
  6
CONTINUOUS
 10
106.491600
 20
97.889931
 40
5.000000
 50
85.879799
 51
175.879501
  0
LINE
  8
0
  6
CONTINUOUS
 10
101.504601
 20
98.249207
 11
99.497498
 21
77.546112
  0
ARC
  8
0
  6
CONTINUOUS
 10
106.491600
 20
25.817570
 40
5.000000
 50
-175.879501
 51
-85.879791
  0
ARC
  8
0
  6
CONTINUOUS
 10
107.497498
 20
11.853750
 40
9.000000
 50
0.000000
 51
94.120163
  0
ARC
  8
0
  6
CONTINUOUS
 10
121.497498
 20
11.853750
 40
5.000000
 50
180.000000
 51
270.000000
  0
LINE
  8
0
  6
CONTINUOUS
 10
101.504601
 20
25.458330
 11
99.497398
 21
46.161713
  0
ARC
  8
0
  6
CONTINUOUS
 10
107.497498
 20
111.853752
 40
9.000000
 50
90.000000
 51
175.879898
  0
LINE
  8
0
  6
CONTINUOUS
 10
98.520699
 20
112.500381
 11
96.997498
 21
91.353752
  0
LINE
  8
0
  6
CONTINUOUS
 10
98.520699
 20
11.207190
 11
96.997498
 21
32.353748
  0
ARC
  8
0
  6
CONTINUOUS
 10
107.497498
 20
11.853750
 40
9.000000
 50
-175.879898
 51
-90.000000
  0
ARC
  8
0
  6
CONTINUOUS
 10
101.997498
 20
16.153780
 40
5.000000
 50
143.994797
 51
180.000000
  0
ARC
  8
0
  6
CONTINUOUS
 10
94.997498
 20
8.153750
 40
2.000000
 50
-90.000000
 51
0.000000
  0
LINE
  8
0
  6
CONTINUOUS
 10
96.997498
 20
8.153750
 11
96.997498
 21
16.153780
  0
LINE
  8
0
  6
CONTINUOUS
 10
96.997498
 20
91.353752
 11
96.997498
 21
32.353741
  0
LINE
  8
0
  6
CONTINUOUS
 10
24.497499
 20
85.563049
 11
94.997498
 21
85.563049
  0
LINE
  8
0
  6
CONTINUOUS
 10
24.497499
 20
16.744440
 11
95.497498
 21
16.744440
  0
CIRCLE
  8
0
  6
CONTINUOUS
 10
147.497498
 20
76.853752
 40
23.500000
  0
LINE
  8
0
  6
CONTINUOUS
 10
141.122498
 20
39.406979
 11
141.122498
 21
33.853748
  0
LINE
  8
0
  6
CONTINUOUS
 10
144.309998
 20
41.424068
 11
144.309998
 21
43.416256
  0
LINE
  8
0
  6
CONTINUOUS
 10
150.684998
 20
41.424068
 11
150.684998
 21
43.416256
  0
LINE
  8
0
  6
CONTINUOUS
 10
146.874893
 20
42.245846
 11
146.874893
 21
34.899651
  0
LINE
  8
0
  6
CONTINUOUS
 10
148.070297
 20
42.245846
 11
148.070297
 21
34.899651
  0
LINE
  8
0
  6
CONTINUOUS
 10
154.345596
 20
42.245846
 11
154.345596
 21
34.849850
  0
LINE
  8
0
  6
CONTINUOUS
 10
155.441299
 20
38.323730
 11
155.441299
 21
34.849850
  0
LINE
  8
0
  6
CONTINUOUS
 10
139.610001
 20
42.146236
 11
136.538101
 21
42.146236
  0
LINE
  8
0
  6
CONTINUOUS
 10
136.538101
 20
42.146236
 11
135.818298
 21
41.253742
  0
LINE
  8
0
  6
CONTINUOUS
 10
135.904907
 20
43.416256
 11
134.747498
 21
41.934261
  0
LINE
  8
0
  6
CONTINUOUS
 10
135.818298
 20
35.744678
 11
136.549606
 21
34.974361
  0
LINE
  8
0
  6
CONTINUOUS
 10
134.747498
 20
35.094608
 11
135.977295
 21
33.853748
  0
LINE
  8
0
  6
CONTINUOUS
 10
134.747498
 20
41.934261
 11
134.747498
 21
35.094608
  0
LINE
  8
0
  6
CONTINUOUS
 10
135.818298
 20
41.253742
 11
135.818298
 21
35.744678
  0
LINE
  8
0
  6
CONTINUOUS
 10
140.201096
 20
41.574795
 11
139.597900
 21
42.146236
  0
LINE
  8
0
  6
CONTINUOUS
 10
140.191498
 20
43.416256
 11
141.122498
 21
42.383114
  0
LINE
  8
0
  6
CONTINUOUS
 10
140.201096
 20
41.424068
 11
141.122498
 21
41.424068
  0
LINE
  8
0
  6
CONTINUOUS
 10
135.904907
 20
43.416256
 11
140.191498
 21
43.416256
  0
LINE
  8
0
  6
CONTINUOUS
 10
140.201096
 20
38.361080
 11
138.532700
 21
38.361080
  0
LINE
  8
0
  6
CONTINUOUS
 10
140.201096
 20
37.364990
 11
140.201096
 21
38.161861
  0
LINE
  8
0
  6
CONTINUOUS
 10
138.208893
 20
34.974361
 11
136.549606
 21
34.974361
  0
ARC
  8
0
  6
CONTINUOUS
 10
138.208893
 20
36.966549
 40
1.992187
 50
-89.999786
 51
0.000109
  0
LINE
  8
0
  6
CONTINUOUS
 10
140.201096
 20
34.616020
 11
140.201096
 21
33.853748
  0
LINE
  8
0
  6
CONTINUOUS
 10
141.122498
 20
42.383114
 11
141.122498
 21
41.424068
  0
LINE
  8
0
  6
CONTINUOUS
 10
140.201096
 20
38.361080
 11
140.201096
 21
36.966549
  0
LINE
  8
0
  6
CONTINUOUS
 10
138.532700
 20
39.406979
 11
138.532700
 21
38.361080
  0
LINE
  8
0
  6
CONTINUOUS
 10
140.201096
 20
33.853748
 11
141.122498
 21
33.853748
  0
LINE
  8
0
  6
CONTINUOUS
 10
140.201096
 20
34.616020
 11
139.292603
 21
33.853748
  0
LINE
  8
0
  6
CONTINUOUS
 10
148.070297
 20
34.899651
 11
148.468704
 21
34.899651
  0
LINE
  8
0
  6
CONTINUOUS
 10
146.401794
 20
34.899651
 11
146.401794
 21
33.853748
  0
LINE
  8
0
  6
CONTINUOUS
 10
148.468704
 20
34.899651
 11
148.468704
 21
33.853748
  0
LINE
  8
0
  6
CONTINUOUS
 10
150.020004
 20
41.424068
 11
150.684998
 21
41.424068
  0
LINE
  8
0
  6
CONTINUOUS
 10
144.309998
 20
41.424068
 11
145.017593
 21
41.424068
  0
LINE
  8
0
  6
CONTINUOUS
 10
144.309998
 20
43.416256
 11
150.684998
 21
43.416256
  0
LINE
  8
0
  6
CONTINUOUS
 10
146.401794
 20
33.853748
 11
148.468704
 21
33.853748
  0
LINE
  8
0
  6
CONTINUOUS
 10
146.401794
 20
34.899651
 11
146.874893
 21
34.899651
  0
ARC
  8
0
  6
CONTINUOUS
 10
157.695007
 20
40.863762
 40
2.552490
 50
-73.981873
 51
90.003510
  0
ARC
  8
0
  6
CONTINUOUS
 10
157.695007
 20
40.863762
 40
1.557193
 50
-82.585274
 51
62.411850
  0
LINE
  8
0
  6
CONTINUOUS
 10
153.872498
 20
43.416256
 11
157.695007
 21
43.416256
  0
LINE
  8
0
  6
CONTINUOUS
 10
153.872498
 20
43.416256
 11
153.872498
 21
42.245846
  0
LINE
  8
0
  6
CONTINUOUS
 10
155.441299
 20
42.245846
 11
155.441299
 21
39.319592
  0
LINE
  8
0
  6
CONTINUOUS
 10
158.399399
 20
38.410381
 11
159.979202
 21
34.849850
  0
LINE
  8
0
  6
CONTINUOUS
 10
157.481796
 20
38.323730
 11
158.976898
 21
34.849850
  0
LINE
  8
0
  6
CONTINUOUS
 10
153.872498
 20
34.849850
 11
154.345596
 21
34.849850
  0
LINE
  8
0
  6
CONTINUOUS
 10
155.441299
 20
34.849850
 11
155.877106
 21
34.849850
  0
LINE
  8
0
  6
CONTINUOUS
 10
155.877106
 20
33.853748
 11
153.872498
 21
33.853748
  0
LINE
  8
0
  6
CONTINUOUS
 10
158.778305
 20
34.849850
 11
158.976898
 21
34.849850
  0
LINE
  8
0
  6
CONTINUOUS
 10
159.979202
 20
34.849850
 11
160.247498
 21
34.849850
  0
LINE
  8
0
  6
CONTINUOUS
 10
158.778305
 20
33.853748
 11
160.247498
 21
33.853748
  0
LINE
  8
0
  6
CONTINUOUS
 10
160.247498
 20
34.849850
 11
160.247498
 21
33.853748
  0
LINE
  8
0
  6
CONTINUOUS
 10
158.778305
 20
34.849850
 11
158.778305
 21
33.853748
  0
LINE
  8
0
  6
CONTINUOUS
 10
155.877106
 20
34.849850
 11
155.877106
 21
33.853748
  0
LINE
  8
0
  6
CONTINUOUS
 10
153.872498
 20
34.849850
 11
153.872498
 21
33.853748
  0
LINE
  8
0
  6
CONTINUOUS
 10
145.360001
 20
42.245846
 11
145.017593
 21
41.424068
  0
LINE
  8
0
  6
CONTINUOUS
 10
149.731293
 20
42.245846
 11
150.020004
 21
41.424068
  0
LINE
  8
0
  6
CONTINUOUS
 10
148.070297
 20
42.245846
 11
149.731293
 21
42.245846
  0
LINE
  8
0
  6
CONTINUOUS
 10
146.874893
 20
42.245846
 11
145.360001
 21
42.245846
  0
LINE
  8
0
  6
CONTINUOUS
 10
153.872498
 20
42.245846
 11
154.345596
 21
42.245846
  0
LINE
  8
0
  6
CONTINUOUS
 10
155.441299
 20
42.245846
 11
158.416199
 21
42.243908
  0
LINE
  8
0
  6
CONTINUOUS
 10
140.201096
 20
41.574795
 11
140.201096
 21
41.424068
  0
LINE
  8
0
  6
CONTINUOUS
 10
135.977295
 20
33.853748
 11
139.292603
 21
33.853748
  0
LINE
  8
0
  6
CONTINUOUS
 10
155.441299
 20
39.319592
 11
157.895996
 21
39.319592
  0
LINE
  8
0
  6
CONTINUOUS
 10
155.441299
 20
38.323730
 11
157.481796
 21
38.323730
  0
LINE
  8
0
  6
CONTINUOUS
 10
138.532700
 20
39.406979
 11
141.122498
 21
39.406979
  0
LINE
  8
0
  6
CONTINUOUS
 10
133.497498
 20
115.922546
 11
133.497498
 21
110.374359
  0
LINE
  8
0
  6
CONTINUOUS
 10
161.497498
 20
115.922546
 11
161.497498
 21
110.374367
  0
LINE
  8
0
  6
CONTINUOUS
 10
133.497498
 20
13.333140
 11
133.497498
 21
8.059120
  0
LINE
  8
0
  6
CONTINUOUS
 10
161.497498
 20
13.333140
 11
161.497498
 21
8.059120
  0
LINE
  8
0
  6
CENTER
 10
347.497498
 20
-3.846250
 11
347.497498
 21
137.562820
  0
LINE
  8
0
  6
CONTINUOUS
 10
305.497498
 20
99.353737
 11
305.497498
 21
54.353745
  0
LINE
  8
0
  6
CONTINUOUS
 10
384.497498
 20
111.905632
 11
384.497498
 21
11.801830
  0
LINE
  8
0
  6
CENTER
 10
265.997498
 20
76.853752
 11
427.997498
 21
76.853752
  0
LINE
  8
0
  6
CONTINUOUS
 10
309.497498
 20
100.353752
 11
306.497498
 21
100.353752
  0
LINE
  8
0
  6
CONTINUOUS
 10
309.497498
 20
53.353748
 11
306.497498
 21
53.353748
  0
LINE
  8
0
  6
CONTINUOUS
 10
307.962891
 20
120.853752
 11
299.497498
 21
120.853752
  0
LINE
  8
0
  6
CONTINUOUS
 10
307.962891
 20
2.853750
 11
299.497498
 21
2.853750
  0
LINE
  8
0
  6
CONTINUOUS
 10
381.549805
 20
114.905190
 11
311.462616
 21
116.128288
  0
LINE
  8
0
  6
CONTINUOUS
 10
381.549896
 20
8.802300
 11
311.462585
 21
7.578670
  0
LINE
  8
0
  6
CONTINUOUS
 10
382.545288
 20
91.353752
 11
314.663300
 21
91.353752
  0
LINE
  8
0
  6
CONTINUOUS
 10
382.545288
 20
32.353748
 11
312.497498
 21
32.353748
  0
ARC
  8
0
  6
CONTINUOUS
 10
381.497498
 20
111.905632
 40
3.000000
 50
0.000000
 51
89.000359
  0
ARC
  8
0
  6
CONTINUOUS
 10
381.497498
 20
11.801830
 40
3.000000
 50
-88.999687
 51
0.000000
  0
ARC
  8
0
  6
CONTINUOUS
 10
312.497498
 20
29.353769
 40
3.000000
 50
90.000000
 51
180.000000
  0
LINE
  8
0
  6
CENTER
 10
294.434998
 20
11.853750
 11
314.184998
 21
11.853750
  0
LINE
  8
0
  6
CENTER
 10
296.184998
 20
111.853752
 11
313.184998
 21
111.853752
  0
LINE
  8
0
  6
DASHED
 10
299.497498
 20
107.603752
 11
309.497498
 21
107.603752
  0
LINE
  8
0
  6
DASHED
 10
299.497498
 20
116.103752
 11
309.497498
 21
116.103752
  0
LINE
  8
0
  6
DASHED
 10
299.497498
 20
16.103750
 11
309.497498
 21
16.103750
  0
LINE
  8
0
  6
DASHED
 10
299.497498
 20
7.603750
 11
309.497498
 21
7.603750
  0
LINE
  8
0
  6
CONTINUOUS
 10
321.497498
 20
6.153750
 11
373.497498
 21
6.153750
  0
ARC
  8
0
  6
CONTINUOUS
 10
373.497498
 20
9.153750
 40
3.000000
 50
270.000000
 51
351.561890
  0
ARC
  8
0
  6
CONTINUOUS
 10
321.497498
 20
9.153750
 40
3.000000
 50
208.811905
 51
270.000000
  0
ARC
  8
0
  6
CONTINUOUS
 10
306.497498
 20
54.353745
 40
1.000000
 50
180.000000
 51
270.000000
  0
ARC
  8
0
  6
CONTINUOUS
 10
306.497498
 20
99.353737
 40
1.000000
 50
90.000000
 51
180.000000
  0
ARC
  8
0
  6
CONTINUOUS
 10
347.497498
 20
51.153751
 40
45.000000
 50
-34.692108
 51
20.421860
  0
LINE
  8
0
  6
CONTINUOUS
 10
389.497498
 20
99.353737
 11
389.497498
 21
54.353745
  0
LINE
  8
0
  6
CONTINUOUS
 10
386.497498
 20
100.353752
 11
388.497498
 21
100.353752
  0
LINE
  8
0
  6
CONTINUOUS
 10
386.497498
 20
53.353748
 11
388.497498
 21
53.353748
  0
ARC
  8
0
  6
CONTINUOUS
 10
386.497498
 20
102.353752
 40
2.000000
 50
180.000000
 51
270.000000
  0
ARC
  8
0
  6
CONTINUOUS
 10
386.497498
 20
51.353756
 40
2.000000
 50
90.000000
 51
180.000000
  0
ARC
  8
0
  6
CONTINUOUS
 10
388.497498
 20
54.353745
 40
1.000000
 50
-90.000000
 51
0.000000
  0
ARC
  8
0
  6
CONTINUOUS
 10
388.497498
 20
99.353737
 40
1.000000
 50
0.000000
 51
90.000000
  0
LINE
  8
0
  6
CONTINUOUS
 10
299.497498
 20
104.569870
 11
306.934998
 21
103.591248
  0
LINE
  8
0
  6
CONTINUOUS
 10
306.934998
 20
103.591248
 11
311.934998
 21
100.341248
  0
LINE
  8
0
  6
CONTINUOUS
 10
314.849091
 20
90.926247
 11
316.309998
 21
89.966248
  0
LINE
  8
0
  6
CONTINUOUS
 10
316.309998
 20
89.966248
 11
315.809998
 21
83.966248
  0
LINE
  8
0
  6
CONTINUOUS
 10
315.809998
 20
83.966248
 11
313.809998
 21
80.466248
  0
LINE
  8
0
  6
CONTINUOUS
 10
313.809998
 20
80.466248
 11
315.684998
 21
74.966248
  0
LINE
  8
0
  6
CONTINUOUS
 10
315.684998
 20
74.966248
 11
315.059998
 21
69.216248
  0
LINE
  8
0
  6
CONTINUOUS
 10
315.059998
 20
69.216248
 11
314.434998
 21
62.966251
  0
LINE
  8
0
  6
CONTINUOUS
 10
314.434998
 20
62.966251
 11
315.559998
 21
58.341251
  0
LINE
  8
0
  6
CONTINUOUS
 10
315.559998
 20
58.341251
 11
314.434998
 21
54.091251
  0
LINE
  8
0
  6
CONTINUOUS
 10
314.434998
 20
54.091251
 11
311.184998
 21
49.216251
  0
LINE
  8
0
  6
CONTINUOUS
 10
311.184998
 20
49.216251
 11
306.684998
 21
47.216251
  0
LINE
  8
0
  6
CONTINUOUS
 10
306.684998
 20
47.216251
 11
302.434998
 21
44.591251
  0
LINE
  8
0
  6
CONTINUOUS
 10
302.434998
 20
44.591251
 11
299.497498
 21
44.194290
  0
LINE
  8
0
  6
CONTINUOUS
 10
311.934998
 20
100.341248
 11
312.684998
 21
95.903748
  0
LINE
  8
0
  6
CONTINUOUS
 10
312.684998
 20
95.903748
 11
314.849091
 21
90.926247
  0
LINE
  8
0
  6
CONTINUOUS
 10
309.497498
 20
118.853752
 11
309.497498
 21
48.466248
  0
LINE
  8
0
  6
CONTINUOUS
 10
309.497498
 20
4.853750
 11
309.497498
 21
29.353760
  0
LINE
  8
0
  6
CONTINUOUS
 10
299.497498
 20
120.853752
 11
299.497498
 21
85.853752
  0
LINE
  8
0
  6
CONTINUOUS
 10
299.497498
 20
2.853750
 11
299.497498
 21
67.853752
  0
LINE
  8
0
  6
CENTER
 10
287.302490
 20
51.153751
 11
403.764374
 21
51.153751
  0
LINE
  8
0
  6
CONTINUOUS
 10
309.894714
 20
119.371391
 11
310.175293
 21
118.324196
  0
ARC
  8
0
  6
CONTINUOUS
 10
307.497498
 20
118.853737
 40
2.000000
 50
0.000000
 51
90.000000
  0
ARC
  8
0
  6
CONTINUOUS
 10
307.962891
 20
118.853737
 40
2.000000
 50
15.000500
 51
90.000000
  0
ARC
  8
0
  6
CONTINUOUS
 10
311.497498
 20
118.127998
 40
2.000000
 50
180.000000
 51
269.000610
  0
ARC
  8
0
  6
CONTINUOUS
 10
313.073090
 20
119.100647
 40
3.000000
 50
195.000504
 51
269.000610
  0
LINE
  8
0
  6
CONTINUOUS
 10
309.894714
 20
4.336120
 11
310.175110
 21
5.382770
  0
ARC
  8
0
  6
CONTINUOUS
 10
307.497498
 20
4.853750
 40
2.000000
 50
-90.000000
 51
0.000000
  0
ARC
  8
0
  6
CONTINUOUS
 10
307.962891
 20
4.853750
 40
2.000000
 50
270.000000
 51
345.000000
  0
ARC
  8
0
  6
CONTINUOUS
 10
311.497498
 20
5.578970
 40
2.000000
 50
91.000526
 51
180.000000
  0
ARC
  8
0
  6
CONTINUOUS
 10
313.072906
 20
4.606330
 40
3.000000
 50
91.000458
 51
165.000305
  0
LINE
  8
0
  6
CONTINUOUS
 10
152.997498
 20
73.853767
 11
152.997498
 21
79.853767
  0
LINE
  8
0
  6
CONTINUOUS
 10
158.997498
 20
73.853790
 11
158.997498
 21
79.853790
  0
LINE
  8
0
  6
CONTINUOUS
 10
158.997498
 20
73.853790
 11
152.997498
 21
73.853767
  0
LINE
  8
0
  6
CONTINUOUS
 10
158.997498
 20
79.853790
 11
152.997498
 21
79.853767
  0
ARC
  8
0
  6
CONTINUOUS
 10
147.497498
 20
76.853752
 40
9.000000
 50
19.471210
 51
340.528809
  0
LINE
  8
0
  6
CONTINUOUS
 10
273.497498
 20
67.853752
 11
273.497498
 21
85.853752
  0
LINE
  8
0
  6
CONTINUOUS
 10
303.497498
 20
85.853752
 11
273.497498
 21
85.853752
  0
LINE
  8
0
  6
CONTINUOUS
 10
303.497498
 20
67.853752
 11
273.497498
 21
67.853752
  0
LINE
  8
0
  6
CONTINUOUS
 10
303.497498
 20
86.853752
 11
303.497498
 21
66.853752
  0
LINE
  8
0
  6
CONTINUOUS
 10
305.497498
 20
86.853752
 11
303.497498
 21
86.853752
  0
LINE
  8
0
  6
CONTINUOUS
 10
305.497498
 20
66.853752
 11
303.497498
 21
66.853752
  0
ARC
  8
0
  6
CONTINUOUS
 10
297.497498
 20
76.853752
 40
3.000000
 50
-90.000000
 51
90.000000
  0
LINE
  8
0
  6
CONTINUOUS
 10
297.497498
 20
79.853752
 11
273.497498
 21
79.853752
  0
LINE
  8
0
  6
CONTINUOUS
 10
297.497498
 20
73.853752
 11
273.497498
 21
73.853752
  0
LINE
  8
0
  6
CONTINUOUS
 10
421.497498
 20
67.853752
 11
421.497498
 21
85.853752
  0
LINE
  8
0
  6
CONTINUOUS
 10
391.497498
 20
85.853752
 11
421.497498
 21
85.853752
  0
LINE
  8
0
  6
CONTINUOUS
 10
391.497498
 20
67.853752
 11
421.497498
 21
67.853752
  0
LINE
  8
0
  6
CONTINUOUS
 10
391.497498
 20
86.853752
 11
391.497498
 21
66.853752
  0
LINE
  8
0
  6
CONTINUOUS
 10
389.497498
 20
86.853752
 11
391.497498
 21
86.853752
  0
LINE
  8
0
  6
CONTINUOUS
 10
389.497498
 20
66.853752
 11
391.497498
 21
66.853752
  0
ARC
  8
0
  6
CONTINUOUS
 10
397.497498
 20
76.853752
 40
3.000000
 50
90.000000
 51
270.000000
  0
LINE
  8
0
  6
CONTINUOUS
 10
397.497498
 20
79.853752
 11
421.497498
 21
79.853752
  0
LINE
  8
0
  6
CONTINUOUS
 10
397.497498
 20
73.853752
 11
421.497498
 21
73.853752
  0
LINE
  8
0
  6
CENTER
 10
147.497498
 20
338.078125
 11
147.497498
 21
176.907501
  0
LINE
  8
0
  6
CENTER
 10
-9.488750
 20
257.200623
 11
211.638748
 21
257.200623
  0
LINE
  8
0
  6
CONTINUOUS
 10
193.823380
 20
294.200623
 11
98.945816
 21
294.200623
  0
LINE
  8
0
  6
CONTINUOUS
 10
3.997500
 20
222.200623
 11
3.997500
 21
292.200623
  0
LINE
  8
0
  6
CONTINUOUS
 10
8.538949
 20
302.200623
 11
24.497499
 21
302.200623
  0
LINE
  8
0
  6
CONTINUOUS
 10
4.497500
 20
299.200623
 11
4.497500
 21
215.200623
  0
LINE
  8
0
  6
CONTINUOUS
 10
24.497499
 20
286.200623
 11
6.247500
 21
286.200623
  0
ARC
  8
0
  6
CONTINUOUS
 10
3.997499
 20
292.700623
 40
0.500000
 50
-90.000000
 51
0.000000
  0
LINE
  8
0
  6
CONTINUOUS
 10
5.074843
 20
300.200623
 11
4.497500
 21
299.200623
  0
ARC
  8
0
  6
CONTINUOUS
 10
8.538963
 20
298.200623
 40
4.000000
 50
90.000000
 51
150.000397
  0
LINE
  8
0
  6
CONTINUOUS
 10
8.538949
 20
212.200623
 11
24.497499
 21
212.200623
  0
ARC
  8
0
  6
CONTINUOUS
 10
3.997499
 20
221.700623
 40
0.500000
 50
0.000000
 51
90.000000
  0
LINE
  8
0
  6
CONTINUOUS
 10
5.074843
 20
214.200638
 11
4.497500
 21
215.200623
  0
ARC
  8
0
  6
CONTINUOUS
 10
8.538963
 20
216.200623
 40
4.000000
 50
-150.000397
 51
-90.000000
  0
LINE
  8
0
  6
CONTINUOUS
 10
24.497499
 20
212.200623
 11
24.497499
 21
232.200607
  0
LINE
  8
0
  6
CONTINUOUS
 10
96.788086
 20
286.203369
 11
96.946503
 21
292.252991
  0
LINE
  8
0
  6
CONTINUOUS
 10
94.839699
 20
302.200623
 11
24.497499
 21
302.200623
  0
LINE
  8
0
  6
CONTINUOUS
 10
24.497499
 20
286.200623
 11
103.840050
 21
286.200623
  0
LINE
  8
0
  6
CONTINUOUS
 10
24.497499
 20
228.200623
 11
6.247500
 21
228.200623
  0
LINE
  8
0
  6
CONTINUOUS
 10
24.497499
 20
228.200623
 11
95.114372
 21
228.200623
  0
LINE
  8
0
  6
CONTINUOUS
 10
94.970627
 20
212.200623
 11
24.497499
 21
212.200623
  0
LINE
  8
0
  6
CONTINUOUS
 10
95.740578
 20
257.200623
 11
96.997498
 21
209.200623
  0
LINE
  8
0
  6
CONTINUOUS
 10
130.497498
 20
289.200623
 11
130.497498
 21
221.200623
  0
LINE
  8
0
  6
CONTINUOUS
 10
164.497498
 20
289.200623
 11
164.497498
 21
221.200623
  0
LINE
  8
0
  6
CONTINUOUS
 10
103.840050
 20
284.200623
 11
103.840050
 21
220.735626
  0
LINE
  8
0
  6
CONTINUOUS
 10
169.997498
 20
299.200623
 11
124.997498
 21
299.200623
  0
LINE
  8
0
  6
CONTINUOUS
 10
123.997498
 20
298.200623
 11
123.997498
 21
296.200623
  0
LINE
  8
0
  6
CONTINUOUS
 10
170.997498
 20
298.200623
 11
170.997498
 21
296.200623
  0
ARC
  8
0
  6
CONTINUOUS
 10
121.997498
 20
296.200623
 40
2.000000
 50
-90.000000
 51
0.000000
  0
ARC
  8
0
  6
CONTINUOUS
 10
172.997498
 20
296.200623
 40
2.000000
 50
180.000000
 51
270.000000
  0
ARC
  8
0
  6
CONTINUOUS
 10
124.997513
 20
298.200623
 40
1.000000
 50
90.000000
 51
180.000000
  0
ARC
  8
0
  6
CONTINUOUS
 10
169.997498
 20
298.200623
 40
1.000000
 50
0.000000
 51
90.000000
  0
LINE
  8
0
  6
CONTINUOUS
 10
158.997498
 20
331.200623
 11
138.497498
 21
331.200623
  0
LINE
  8
0
  6
CONTINUOUS
 10
138.497498
 20
301.200623
 11
138.497498
 21
331.200623
  0
LINE
  8
0
  6
CONTINUOUS
 10
156.497498
 20
301.200623
 11
156.497498
 21
304.200623
  0
LINE
  8
0
  6
CONTINUOUS
 10
137.497498
 20
301.200623
 11
157.497498
 21
301.200623
  0
LINE
  8
0
  6
CONTINUOUS
 10
137.497498
 20
299.200623
 11
137.497498
 21
301.200623
  0
LINE
  8
0
  6
CONTINUOUS
 10
157.497498
 20
299.200623
 11
157.497498
 21
301.200623
  0
LINE
  8
0
  6
CONTINUOUS
 10
158.997498
 20
331.200623
 11
158.997498
 21
304.200623
  0
LINE
  8
0
  6
CONTINUOUS
 10
158.997498
 20
304.200623
 11
155.982498
 21
304.200623
  0
LINE
  8
0
  6
CONTINUOUS
 10
155.982498
 20
331.200623
 11
155.982498
 21
304.200623
  0
LINE
  8
0
  6
CONTINUOUS
 10
158.997498
 20
183.200623
 11
138.497498
 21
183.200623
  0
LINE
  8
0
  6
CONTINUOUS
 10
138.497498
 20
209.200623
 11
138.497498
 21
183.200623
  0
LINE
  8
0
  6
CONTINUOUS
 10
158.997498
 20
183.200623
 11
158.997498
 21
209.200623
  0
LINE
  8
0
  6
CONTINUOUS
 10
155.982498
 20
183.200623
 11
155.982498
 21
209.200623
  0
LINE
  8
0
  6
CONTINUOUS
 10
24.497499
 20
282.200592
 11
24.497499
 21
302.200623
  0
LINE
  8
0
  6
CONTINUOUS
 10
96.997498
 20
209.200623
 11
197.997498
 21
209.200623
  0
LINE
  8
0
  6
CONTINUOUS
 10
195.822693
 20
292.252991
 11
197.997498
 21
209.200623
  0
LINE
  8
0
  6
CONTINUOUS
 10
98.788696
 20
219.200623
 11
195.787323
 21
219.200623
  0
ARC
  8
0
  6
CONTINUOUS
 10
195.787323
 20
217.200623
 40
2.000000
 50
1.500000
 51
90.000000
  0
ARC
  8
0
  6
CONTINUOUS
 10
193.823380
 20
292.200623
 40
2.000000
 50
1.500000
 51
90.000000
  0
ARC
  8
0
  6
CONTINUOUS
 10
166.497498
 20
221.200623
 40
2.000000
 50
180.000000
 51
270.000000
  0
ARC
  8
0
  6
CONTINUOUS
 10
128.497498
 20
221.200623
 40
2.000000
 50
-90.000000
 51
0.000000
  0
LINE
  8
0
  6
CONTINUOUS
 10
130.355560
 20
220.460632
 11
164.639435
 21
220.460632
  0
ARC
  8
0
  6
CONTINUOUS
 10
98.788696
 20
217.200623
 40
2.000000
 50
90.000000
 51
181.500000
  0
ARC
  8
0
  6
CONTINUOUS
 10
94.970627
 20
210.200623
 40
2.000000
 50
1.500000
 51
90.000000
  0
LINE
  8
0
  6
CONTINUOUS
 10
96.839012
 20
300.252991
 11
96.946503
 21
296.148285
  0
ARC
  8
0
  6
CONTINUOUS
 10
94.839699
 20
300.200623
 40
2.000000
 50
1.500000
 51
90.000000
  0
ARC
  8
0
  6
CONTINUOUS
 10
98.945816
 20
296.200623
 40
2.000000
 50
181.500000
 51
270.000000
  0
ARC
  8
0
  6
CONTINUOUS
 10
98.945816
 20
292.200623
 40
2.000000
 50
90.000000
 51
178.500000
  0
LINE
  8
0
  6
CENTER
 10
187.497498
 20
201.512024
 11
187.497498
 21
225.374695
  0
LINE
  8
0
  6
DASHED
 10
191.747498
 20
219.200623
 11
191.747498
 21
209.200623
  0
LINE
  8
0
  6
DASHED
 10
183.247498
 20
219.200623
 11
183.247498
 21
209.200623
  0
LINE
  8
0
  6
CENTER
 10
107.497498
 20
201.512024
 11
107.497498
 21
225.374695
  0
LINE
  8
0
  6
DASHED
 10
103.247498
 20
219.200623
 11
103.247498
 21
209.200623
  0
LINE
  8
0
  6
DASHED
 10
111.747498
 20
219.200623
 11
111.747498
 21
209.200623
  0
LINE
  8
0
  6
CONTINUOUS
 10
14.497500
 20
264.700592
 11
15.497500
 21
264.700592
  0
ARC
  8
0
  6
CONTINUOUS
 10
14.497520
 20
263.700592
 40
1.000000
 50
90.000000
 51
180.000000
  0
LINE
  8
0
  6
CONTINUOUS
 10
9.997515
 20
261.200592
 11
9.997515
 21
253.200607
  0
LINE
  8
0
  6
CONTINUOUS
 10
9.997515
 20
261.200592
 11
13.497515
 21
262.700592
  0
LINE
  8
0
  6
CONTINUOUS
 10
9.997500
 20
253.200607
 11
13.497500
 21
251.700607
  0
LINE
  8
0
  6
CONTINUOUS
 10
13.497515
 20
263.700592
 11
13.497515
 21
250.700607
  0
LINE
  8
0
  6
CONTINUOUS
 10
14.497500
 20
249.700607
 11
15.497500
 21
249.700607
  0
ARC
  8
0
  6
CONTINUOUS
 10
14.497520
 20
250.700607
 40
1.000000
 50
-180.000000
 51
-90.000000
  0
LINE
  8
0
  6
CONTINUOUS
 10
15.497500
 20
234.200607
 11
15.497500
 21
280.200592
  0
LINE
  8
0
  6
CONTINUOUS
 10
17.497499
 20
282.200592
 11
15.497500
 21
280.200592
  0
LINE
  8
0
  6
CONTINUOUS
 10
17.497499
 20
282.200592
 11
63.497490
 21
282.200592
  0
LINE
  8
0
  6
CONTINUOUS
 10
57.997501
 20
277.700592
 11
57.997501
 21
282.200592
  0
ARC
  8
0
  6
CONTINUOUS
 10
60.997501
 20
277.700592
 40
3.000000
 50
180.000000
 51
270.000000
  0
LINE
  8
0
  6
CONTINUOUS
 10
60.997501
 20
274.700592
 11
65.497490
 21
274.700592
  0
CIRCLE
  8
0
  6
CONTINUOUS
 10
61.997501
 20
278.700592
 40
2.250000
  0
LINE
  8
0
  6
CONTINUOUS
 10
65.497498
 20
234.200607
 11
65.497490
 21
280.200592
  0
LINE
  8
0
  6
CONTINUOUS
 10
63.497490
 20
282.200592
 11
65.497490
 21
280.200592
  0
LINE
  8
0
  6
CONTINUOUS
 10
63.497494
 20
232.200607
 11
65.497498
 21
234.200607
  0
LINE
  8
0
  6
CONTINUOUS
 10
63.497494
 20
232.200607
 11
17.497499
 21
232.200607
  0
LINE
  8
0
  6
CONTINUOUS
 10
15.497500
 20
234.200607
 11
17.497499
 21
232.200607
  0
LINE
  8
0
  6
CONTINUOUS
 10
19.997499
 20
239.700607
 11
15.497510
 21
239.700607
  0
CIRCLE
  8
0
  6
CONTINUOUS
 10
18.997499
 20
235.700607
 40
2.250000
  0
ARC
  8
0
  6
CONTINUOUS
 10
19.997499
 20
236.700607
 40
3.000000
 50
0.000000
 51
90.000000
  0
LINE
  8
0
  6
CONTINUOUS
 10
22.997499
 20
236.700607
 11
22.997499
 21
232.200607
  0
LINE
  8
0
  6
CENTER
 10
40.497501
 20
224.734818
 11
40.497501
 21
288.866852
  0
LINE
  8
0
  6
CONTINUOUS
 10
17.911718
 20
281.200623
 11
16.497505
 21
279.786407
  0
LINE
  8
0
  6
CONTINUOUS
 10
16.497505
 20
239.700623
 11
16.497505
 21
279.786407
  0
LINE
  8
0
  6
CONTINUOUS
 10
57.997501
 20
281.200623
 11
17.911718
 21
281.200623
  0
LINE
  8
0
  6
CONTINUOUS
 10
64.497498
 20
274.700623
 11
64.497498
 21
234.614838
  0
LINE
  8
0
  6
CONTINUOUS
 10
22.997499
 20
233.200623
 11
63.083282
 21
233.200623
  0
LINE
  8
0
  6
CONTINUOUS
 10
63.083282
 20
233.200623
 11
64.497498
 21
234.614838
  0
LINE
  8
0
  6
CONTINUOUS
 10
16.997499
 20
97.653748
 11
63.497501
 21
97.653748
  0
LINE
  8
0
  6
CONTINUOUS
 10
65.497490
 20
127.653748
 11
65.497498
 21
99.653748
  0
LINE
  8
0
  6
CONTINUOUS
 10
15.497500
 20
127.653748
 11
15.497500
 21
99.653748
  0
LINE
  8
0
  6
CONTINUOUS
 10
13.497500
 20
109.653748
 11
65.497498
 21
109.653748
  0
LINE
  8
0
  6
CONTINUOUS
 10
63.497501
 20
97.653748
 11
65.497498
 21
99.653748
  0
LINE
  8
0
  6
CONTINUOUS
 10
15.497500
 20
99.653748
 11
17.497499
 21
97.653748
  0
LINE
  8
0
  6
CONTINUOUS
 10
15.497500
 20
99.653748
 11
65.497498
 21
99.653748
  0
LINE
  8
0
  6
CONTINUOUS
 10
16.497499
 20
128.653748
 11
64.497490
 21
128.653748
  0
LINE
  8
0
  6
CONTINUOUS
 10
64.497490
 20
128.653748
 11
65.497490
 21
127.653748
  0
LINE
  8
0
  6
CONTINUOUS
 10
16.497499
 20
128.653748
 11
15.497500
 21
127.653748
  0
LINE
  8
0
  6
CONTINUOUS
 10
15.497500
 20
127.653748
 11
65.497490
 21
127.653748
  0
LINE
  8
0
  6
CENTER
 10
7.553752
 20
119.153748
 11
19.628750
 21
119.153748
  0
LINE
  8
0
  6
CONTINUOUS
 10
13.497508
 20
125.653748
 11
13.497500
 21
109.653748
  0
LINE
  8
0
  6
CONTINUOUS
 10
14.497500
 20
126.653748
 11
15.497500
 21
126.653748
  0
ARC
  8
0
  6
CONTINUOUS
 10
14.497510
 20
125.653748
 40
1.000000
 50
90.000000
 51
180.000000
  0
LINE
  8
0
  6
CONTINUOUS
 10
9.997508
 20
123.153748
 11
9.997508
 21
115.153748
  0
LINE
  8
0
  6
CONTINUOUS
 10
9.997508
 20
123.153748
 11
13.497508
 21
124.653748
  0
LINE
  8
0
  6
CONTINUOUS
 10
9.997500
 20
115.153748
 11
13.497500
 21
113.653748
  0
LINE
  8
0
  6
CENTER
 10
40.497501
 20
92.959999
 11
40.497501
 21
134.041245
  0
LINE
  8
0
  6
CONTINUOUS
 10
16.997499
 20
97.653748
 11
16.997499
 21
96.153748
  0
LINE
  8
0
  6
CONTINUOUS
 10
62.997501
 20
97.653748
 11
62.997501
 21
96.153748
  0
LINE
  8
0
  6
CONTINUOUS
 10
372.497498
 20
127.653748
 11
372.497498
 21
115.063164
  0
LINE
  8
0
  6
CONTINUOUS
 10
322.497498
 20
127.653748
 11
322.497498
 21
115.935722
  0
LINE
  8
0
  6
CONTINUOUS
 10
323.497498
 20
128.653748
 11
371.497498
 21
128.653748
  0
LINE
  8
0
  6
CONTINUOUS
 10
371.497498
 20
128.653748
 11
372.497498
 21
127.653748
  0
LINE
  8
0
  6
CONTINUOUS
 10
323.497498
 20
128.653748
 11
322.497498
 21
127.653748
  0
LINE
  8
0
  6
CONTINUOUS
 10
322.497498
 20
127.653748
 11
372.497498
 21
127.653748
  0
TEXT
  8
0
 10
-9.000000
 20
-6.000000
 40
4.000000
 41
1.000000
  1
HFM-18T-10~240-T90T
 50
0.000000
  0
ENDSEC
  0
EOF
