  0
SECTION
  2
HEADER
  9
$CLAYER
  8
1
  9
$LTSCALE
 40
3.0
  0
ENDSEC
  0
SECTION
  2
TABLES
  0
TABLE
  2
LTYPE
 70
     4
  0
LTYPE
  2
CONTINUOUS
  3
solid line
 70
    64
 72
    65
 73
     0
 40
0.0
  0
LTYPE
  2
DASHED
  3
__ __ __ __ __ __ __ __ __ __ __ __ __ __ __
 70
    64
 72
    65
 73
     2
 40
0.75
 49
0.5
 49
-0.25
  0
LTYPE
  2
CENTER
  3
____ _ ____ _ ____ _ ____ _ ____ _ ____ _ ____
 70
    64
 72
    65
 73
     4
 40
2.0
 49
1.25
 49
-0.25
 49
0.25
 49
-0.25
  0
LTYPE
  2
PHANTOM
  3
_____ _ _ _____ _ _ _____ _ _ _____ _ _ ____
 70
    64
 72
    65
 73
     6
 40
2.5
 49
1.25
 49
-0.25
 49
0.25
 49
-0.25
 49
0.25
 49
-0.25
  0
ENDTAB
  0
TABLE
  2
LAYER
 70
     1
  0
LAYER
  2
0
 70
    64
 62
     7
  6
CONTINUOUS
  0
ENDTAB
  0
TABLE
  2
STYLE
 70
     1
  0
STYLE
  2
STANDARD
 70
     0
 40
0.000000
 41
1.000000
 50
0.000000
 71
     0
 42
3.000000
  3
txt
  4
BIGFONT
  0
ENDTAB
  0
ENDSEC
  0
SECTION
  2
BLOCKS
  0
ENDSEC
  0
SECTION
  2
ENTITIES
  0
LINE
  8
0
  6
CONTINUOUS
 10
49.459991
 20
96.149994
 11
58.959991
 21
96.149994
  0
LINE
  8
0
  6
CONTINUOUS
 10
58.959991
 20
85.559296
 11
49.459991
 21
85.559296
  0
LINE
  8
0
  6
CONTINUOUS
 10
49.459991
 20
6.149996
 11
58.959991
 21
6.149996
  0
LINE
  8
0
  6
CONTINUOUS
 10
58.959991
 20
16.740696
 11
49.459991
 21
16.740696
  0
LINE
  8
0
  6
CONTINUOUS
 10
49.459991
 20
98.149994
 11
49.459991
 21
4.149996
  0
LINE
  8
0
  6
CONTINUOUS
 10
49.459991
 20
80.149994
 11
5.484990
 21
80.149994
  0
LINE
  8
0
  6
CONTINUOUS
 10
49.459991
 20
22.149996
 11
5.484989
 21
22.149996
  0
LINE
  8
0
  6
CONTINUOUS
 10
6.959988
 20
98.149994
 11
49.459991
 21
98.149994
  0
LINE
  8
0
  6
CONTINUOUS
 10
6.959988
 20
4.149996
 11
49.459991
 21
4.149996
  0
ARC
  8
0
  6
CONTINUOUS
 10
6.960013
 20
93.150024
 40
5.000000
 50
90.000000
 51
180.000000
  0
ARC
  8
0
  6
CONTINUOUS
 10
6.959987
 20
9.149996
 40
5.000000
 50
180.000000
 51
270.000000
  0
LINE
  8
0
  6
CENTER
 10
-8.290010
 20
51.149998
 11
58.959991
 21
51.149998
  0
LINE
  8
0
  6
CONTINUOUS
 10
1.960013
 20
93.150009
 11
1.959988
 21
9.149986
  0
LINE
  8
0
  6
CONTINUOUS
 10
58.959991
 20
6.149996
 11
58.959991
 21
96.149994
  0
LINE
  8
0
  6
CENTER
 10
58.959991
 20
51.149998
 11
153.846695
 21
51.149998
  0
LINE
  8
0
  6
CONTINUOUS
 10
232.460007
 20
32.349995
 11
232.460007
 21
91.349998
  0
LINE
  8
0
  6
CONTINUOUS
 10
58.959991
 20
96.149994
 11
131.805695
 21
96.149994
  0
LINE
  8
0
  6
CONTINUOUS
 10
129.460007
 20
6.149996
 11
58.959991
 21
6.149996
  0
LINE
  8
0
  6
CENTER
 10
147.009705
 20
76.849998
 11
211.421906
 21
76.849998
  0
LINE
  8
0
  6
CENTER
 10
181.960007
 20
129.399994
 11
181.960007
 21
-6.590304
  0
LINE
  8
0
  6
CONTINUOUS
 10
141.960007
 20
120.849998
 11
221.960007
 21
120.849998
  0
LINE
  8
0
  6
CONTINUOUS
 10
141.960007
 20
2.849996
 11
221.960007
 21
2.849996
  0
LINE
  8
0
  6
CENTER
 10
214.960007
 20
111.849998
 11
228.835007
 21
111.849998
  0
LINE
  8
0
  6
CENTER
 10
221.960007
 20
105.149994
 11
221.960007
 21
118.649994
  0
CIRCLE
  8
0
  6
CONTINUOUS
 10
221.960007
 20
111.849998
 40
4.250000
  0
LINE
  8
0
  6
CENTER
 10
214.960007
 20
11.849996
 11
228.835007
 21
11.849996
  0
LINE
  8
0
  6
CENTER
 10
221.960007
 20
18.549995
 11
221.960007
 21
5.049996
  0
CIRCLE
  8
0
  6
CONTINUOUS
 10
221.960007
 20
11.849996
 40
4.250000
  0
LINE
  8
0
  6
CENTER
 10
148.960007
 20
111.849998
 11
135.085007
 21
111.849998
  0
LINE
  8
0
  6
CENTER
 10
141.960007
 20
105.149994
 11
141.960007
 21
118.649994
  0
CIRCLE
  8
0
  6
CONTINUOUS
 10
141.960007
 20
111.849998
 40
4.250000
  0
LINE
  8
0
  6
CENTER
 10
148.960007
 20
11.849996
 11
135.085007
 21
11.849996
  0
LINE
  8
0
  6
CENTER
 10
141.960007
 20
18.549995
 11
141.960007
 21
5.049996
  0
CIRCLE
  8
0
  6
CONTINUOUS
 10
141.960007
 20
11.849996
 40
4.250000
  0
LINE
  8
0
  6
CONTINUOUS
 10
230.936707
 20
112.496628
 11
232.460007
 21
91.349998
  0
LINE
  8
0
  6
CONTINUOUS
 10
230.936707
 20
11.203436
 11
232.460007
 21
32.349995
  0
LINE
  8
0
  6
CONTINUOUS
 10
155.960007
 20
116.849998
 11
207.960007
 21
116.849998
  0
LINE
  8
0
  6
CONTINUOUS
 10
207.960007
 20
6.849996
 11
155.960007
 21
6.849996
  0
LINE
  8
0
  6
CONTINUOUS
 10
133.960007
 20
77.542183
 11
133.960007
 21
46.157478
  0
ARC
  8
0
  6
CONTINUOUS
 10
181.960007
 20
61.849995
 40
50.500000
 50
18.103800
 51
161.896194
  0
ARC
  8
0
  6
CONTINUOUS
 10
181.960007
 20
61.849995
 40
50.500000
 50
198.103806
 51
341.896210
  0
LINE
  8
0
  6
CONTINUOUS
 10
229.960007
 20
77.542358
 11
229.960007
 21
46.157963
  0
ARC
  8
0
  6
CONTINUOUS
 10
207.960007
 20
111.849998
 40
5.000000
 50
0.000000
 51
90.000000
  0
ARC
  8
0
  6
CONTINUOUS
 10
222.965897
 20
97.886177
 40
5.000000
 50
4.120544
 51
94.120201
  0
ARC
  8
0
  6
CONTINUOUS
 10
221.960007
 20
111.849998
 40
9.000000
 50
180.000000
 51
274.120697
  0
ARC
  8
0
  6
CONTINUOUS
 10
221.960007
 20
111.849998
 40
9.000000
 50
4.120065
 51
90.000000
  0
ARC
  8
0
  6
CONTINUOUS
 10
207.960007
 20
11.849996
 40
5.000000
 50
-90.000000
 51
0.000000
  0
ARC
  8
0
  6
CONTINUOUS
 10
222.965897
 20
25.813816
 40
5.000000
 50
265.879791
 51
355.879486
  0
ARC
  8
0
  6
CONTINUOUS
 10
221.960007
 20
11.849996
 40
9.000000
 50
270.000000
 51
355.879913
  0
ARC
  8
0
  6
CONTINUOUS
 10
221.960007
 20
11.849996
 40
9.000000
 50
85.879837
 51
180.000000
  0
LINE
  8
0
  6
CONTINUOUS
 10
227.952896
 20
98.245453
 11
229.960007
 21
77.542358
  0
LINE
  8
0
  6
CONTINUOUS
 10
227.952896
 20
25.454576
 11
229.960098
 21
46.157959
  0
ARC
  8
0
  6
CONTINUOUS
 10
155.960007
 20
111.849998
 40
5.000000
 50
90.000000
 51
180.000000
  0
ARC
  8
0
  6
CONTINUOUS
 10
141.960007
 20
111.849998
 40
9.000000
 50
-94.120667
 51
0.000000
  0
ARC
  8
0
  6
CONTINUOUS
 10
140.954102
 20
97.886177
 40
5.000000
 50
85.879799
 51
175.879501
  0
LINE
  8
0
  6
CONTINUOUS
 10
135.966995
 20
98.245453
 11
133.960007
 21
77.542358
  0
ARC
  8
0
  6
CONTINUOUS
 10
140.954102
 20
25.813816
 40
5.000000
 50
-175.879501
 51
-85.879791
  0
ARC
  8
0
  6
CONTINUOUS
 10
141.960007
 20
11.849996
 40
9.000000
 50
0.000000
 51
94.120163
  0
ARC
  8
0
  6
CONTINUOUS
 10
155.960007
 20
11.849996
 40
5.000000
 50
180.000000
 51
270.000000
  0
LINE
  8
0
  6
CONTINUOUS
 10
135.966995
 20
25.454576
 11
133.959900
 21
46.157959
  0
ARC
  8
0
  6
CONTINUOUS
 10
141.960007
 20
111.849998
 40
9.000000
 50
90.000000
 51
175.879898
  0
LINE
  8
0
  6
CONTINUOUS
 10
132.983200
 20
112.496628
 11
131.460007
 21
91.349998
  0
LINE
  8
0
  6
CONTINUOUS
 10
132.983200
 20
11.203436
 11
131.460007
 21
32.349995
  0
ARC
  8
0
  6
CONTINUOUS
 10
141.960007
 20
11.849996
 40
9.000000
 50
-175.879898
 51
-90.000000
  0
ARC
  8
0
  6
CONTINUOUS
 10
136.460007
 20
16.150026
 40
5.000000
 50
143.994797
 51
180.000000
  0
ARC
  8
0
  6
CONTINUOUS
 10
129.460007
 20
8.149996
 40
2.000000
 50
-90.000000
 51
0.000000
  0
LINE
  8
0
  6
CONTINUOUS
 10
131.460007
 20
8.149996
 11
131.460007
 21
16.150026
  0
LINE
  8
0
  6
CONTINUOUS
 10
131.460007
 20
91.349998
 11
131.460007
 21
32.349987
  0
LINE
  8
0
  6
CONTINUOUS
 10
58.959991
 20
85.559296
 11
129.460007
 21
85.559296
  0
LINE
  8
0
  6
CONTINUOUS
 10
58.959991
 20
16.740686
 11
129.960007
 21
16.740686
  0
CIRCLE
  8
0
  6
CONTINUOUS
 10
181.960007
 20
76.849998
 40
23.500000
  0
LINE
  8
0
  6
CONTINUOUS
 10
175.585007
 20
39.403225
 11
175.585007
 21
33.849995
  0
LINE
  8
0
  6
CONTINUOUS
 10
178.772507
 20
41.420315
 11
178.772507
 21
43.412502
  0
LINE
  8
0
  6
CONTINUOUS
 10
185.147507
 20
41.420315
 11
185.147507
 21
43.412502
  0
LINE
  8
0
  6
CONTINUOUS
 10
181.337402
 20
42.242088
 11
181.337402
 21
34.895897
  0
LINE
  8
0
  6
CONTINUOUS
 10
182.532806
 20
42.242088
 11
182.532806
 21
34.895897
  0
LINE
  8
0
  6
CONTINUOUS
 10
188.808105
 20
42.242088
 11
188.808105
 21
34.846096
  0
LINE
  8
0
  6
CONTINUOUS
 10
189.903793
 20
38.319977
 11
189.903793
 21
34.846096
  0
LINE
  8
0
  6
CONTINUOUS
 10
174.072495
 20
42.142483
 11
171.000595
 21
42.142483
  0
LINE
  8
0
  6
CONTINUOUS
 10
171.000595
 20
42.142483
 11
170.280807
 21
41.249989
  0
LINE
  8
0
  6
CONTINUOUS
 10
170.367401
 20
43.412502
 11
169.210007
 21
41.930508
  0
LINE
  8
0
  6
CONTINUOUS
 10
170.280807
 20
35.740925
 11
171.012100
 21
34.970608
  0
LINE
  8
0
  6
CONTINUOUS
 10
169.210007
 20
35.090855
 11
170.439804
 21
33.849995
  0
LINE
  8
0
  6
CONTINUOUS
 10
169.210007
 20
41.930508
 11
169.210007
 21
35.090855
  0
LINE
  8
0
  6
CONTINUOUS
 10
170.280807
 20
41.249989
 11
170.280807
 21
35.740925
  0
LINE
  8
0
  6
CONTINUOUS
 10
174.663605
 20
41.571037
 11
174.060394
 21
42.142483
  0
LINE
  8
0
  6
CONTINUOUS
 10
174.654007
 20
43.412502
 11
175.585007
 21
42.379356
  0
LINE
  8
0
  6
CONTINUOUS
 10
174.663605
 20
41.420315
 11
175.585007
 21
41.420315
  0
LINE
  8
0
  6
CONTINUOUS
 10
170.367401
 20
43.412502
 11
174.654007
 21
43.412502
  0
LINE
  8
0
  6
CONTINUOUS
 10
174.663605
 20
38.357327
 11
172.995193
 21
38.357327
  0
LINE
  8
0
  6
CONTINUOUS
 10
174.663605
 20
37.361237
 11
174.663605
 21
38.158108
  0
LINE
  8
0
  6
CONTINUOUS
 10
172.671402
 20
34.970608
 11
171.012100
 21
34.970608
  0
ARC
  8
0
  6
CONTINUOUS
 10
172.671402
 20
36.962795
 40
1.992187
 50
-89.999786
 51
0.000109
  0
LINE
  8
0
  6
CONTINUOUS
 10
174.663605
 20
34.612267
 11
174.663605
 21
33.849995
  0
LINE
  8
0
  6
CONTINUOUS
 10
175.585007
 20
42.379356
 11
175.585007
 21
41.420315
  0
LINE
  8
0
  6
CONTINUOUS
 10
174.663605
 20
38.357327
 11
174.663605
 21
36.962795
  0
LINE
  8
0
  6
CONTINUOUS
 10
172.995193
 20
39.403225
 11
172.995193
 21
38.357327
  0
LINE
  8
0
  6
CONTINUOUS
 10
174.663605
 20
33.849995
 11
175.585007
 21
33.849995
  0
LINE
  8
0
  6
CONTINUOUS
 10
174.663605
 20
34.612267
 11
173.755096
 21
33.849995
  0
LINE
  8
0
  6
CONTINUOUS
 10
182.532806
 20
34.895897
 11
182.931198
 21
34.895897
  0
LINE
  8
0
  6
CONTINUOUS
 10
180.864304
 20
34.895897
 11
180.864304
 21
33.849995
  0
LINE
  8
0
  6
CONTINUOUS
 10
182.931198
 20
34.895897
 11
182.931198
 21
33.849995
  0
LINE
  8
0
  6
CONTINUOUS
 10
184.482498
 20
41.420315
 11
185.147507
 21
41.420315
  0
LINE
  8
0
  6
CONTINUOUS
 10
178.772507
 20
41.420315
 11
179.480103
 21
41.420315
  0
LINE
  8
0
  6
CONTINUOUS
 10
178.772507
 20
43.412502
 11
185.147507
 21
43.412502
  0
LINE
  8
0
  6
CONTINUOUS
 10
180.864304
 20
33.849995
 11
182.931198
 21
33.849995
  0
LINE
  8
0
  6
CONTINUOUS
 10
180.864304
 20
34.895897
 11
181.337402
 21
34.895897
  0
ARC
  8
0
  6
CONTINUOUS
 10
192.157501
 20
40.860004
 40
2.552490
 50
-73.981873
 51
90.003510
  0
ARC
  8
0
  6
CONTINUOUS
 10
192.157501
 20
40.860004
 40
1.557193
 50
-82.585274
 51
62.411850
  0
LINE
  8
0
  6
CONTINUOUS
 10
188.335007
 20
43.412502
 11
192.157501
 21
43.412502
  0
LINE
  8
0
  6
CONTINUOUS
 10
188.335007
 20
43.412502
 11
188.335007
 21
42.242088
  0
LINE
  8
0
  6
CONTINUOUS
 10
189.903793
 20
42.242088
 11
189.903793
 21
39.315838
  0
LINE
  8
0
  6
CONTINUOUS
 10
192.861893
 20
38.406628
 11
194.441696
 21
34.846096
  0
LINE
  8
0
  6
CONTINUOUS
 10
191.944305
 20
38.319977
 11
193.439407
 21
34.846096
  0
LINE
  8
0
  6
CONTINUOUS
 10
188.335007
 20
34.846096
 11
188.808105
 21
34.846096
  0
LINE
  8
0
  6
CONTINUOUS
 10
189.903793
 20
34.846096
 11
190.339600
 21
34.846096
  0
LINE
  8
0
  6
CONTINUOUS
 10
190.339600
 20
33.849995
 11
188.335007
 21
33.849995
  0
LINE
  8
0
  6
CONTINUOUS
 10
193.240799
 20
34.846096
 11
193.439407
 21
34.846096
  0
LINE
  8
0
  6
CONTINUOUS
 10
194.441696
 20
34.846096
 11
194.710007
 21
34.846096
  0
LINE
  8
0
  6
CONTINUOUS
 10
193.240799
 20
33.849995
 11
194.710007
 21
33.849995
  0
LINE
  8
0
  6
CONTINUOUS
 10
194.710007
 20
34.846096
 11
194.710007
 21
33.849995
  0
LINE
  8
0
  6
CONTINUOUS
 10
193.240799
 20
34.846096
 11
193.240799
 21
33.849995
  0
LINE
  8
0
  6
CONTINUOUS
 10
190.339600
 20
34.846096
 11
190.339600
 21
33.849995
  0
LINE
  8
0
  6
CONTINUOUS
 10
188.335007
 20
34.846096
 11
188.335007
 21
33.849995
  0
LINE
  8
0
  6
CONTINUOUS
 10
179.822495
 20
42.242088
 11
179.480103
 21
41.420315
  0
LINE
  8
0
  6
CONTINUOUS
 10
184.193802
 20
42.242088
 11
184.482498
 21
41.420315
  0
LINE
  8
0
  6
CONTINUOUS
 10
182.532806
 20
42.242088
 11
184.193802
 21
42.242088
  0
LINE
  8
0
  6
CONTINUOUS
 10
181.337402
 20
42.242088
 11
179.822495
 21
42.242088
  0
LINE
  8
0
  6
CONTINUOUS
 10
188.335007
 20
42.242088
 11
188.808105
 21
42.242088
  0
LINE
  8
0
  6
CONTINUOUS
 10
189.903793
 20
42.242088
 11
192.878693
 21
42.240154
  0
LINE
  8
0
  6
CONTINUOUS
 10
174.663605
 20
41.571037
 11
174.663605
 21
41.420315
  0
LINE
  8
0
  6
CONTINUOUS
 10
170.439804
 20
33.849995
 11
173.755096
 21
33.849995
  0
LINE
  8
0
  6
CONTINUOUS
 10
189.903793
 20
39.315838
 11
192.358505
 21
39.315838
  0
LINE
  8
0
  6
CONTINUOUS
 10
189.903793
 20
38.319977
 11
191.944305
 21
38.319977
  0
LINE
  8
0
  6
CONTINUOUS
 10
172.995193
 20
39.403225
 11
175.585007
 21
39.403225
  0
LINE
  8
0
  6
CONTINUOUS
 10
167.960007
 20
115.918793
 11
167.960007
 21
110.370605
  0
LINE
  8
0
  6
CONTINUOUS
 10
195.960007
 20
115.918793
 11
195.960007
 21
110.370613
  0
LINE
  8
0
  6
CONTINUOUS
 10
167.960007
 20
13.329386
 11
167.960007
 21
8.055366
  0
LINE
  8
0
  6
CONTINUOUS
 10
195.960007
 20
13.329386
 11
195.960007
 21
8.055366
  0
LINE
  8
0
  6
CONTINUOUS
 10
187.460007
 20
73.850014
 11
187.460007
 21
79.850014
  0
LINE
  8
0
  6
CONTINUOUS
 10
193.460007
 20
73.850037
 11
193.460007
 21
79.850037
  0
LINE
  8
0
  6
CONTINUOUS
 10
193.460007
 20
73.850037
 11
187.460007
 21
73.850014
  0
LINE
  8
0
  6
CONTINUOUS
 10
193.460007
 20
79.850037
 11
187.460007
 21
79.850014
  0
ARC
  8
0
  6
CONTINUOUS
 10
181.960007
 20
76.849998
 40
9.000000
 50
19.471210
 51
340.528809
  0
LINE
  8
0
  6
CENTER
 10
381.959991
 20
-3.850004
 11
381.959991
 21
150.199066
  0
LINE
  8
0
  6
CONTINUOUS
 10
339.959991
 20
99.349983
 11
339.959991
 21
54.349991
  0
LINE
  8
0
  6
CONTINUOUS
 10
418.959991
 20
111.901878
 11
418.959991
 21
11.798076
  0
LINE
  8
0
  6
CENTER
 10
300.459991
 20
76.849998
 11
462.459991
 21
76.849998
  0
LINE
  8
0
  6
CONTINUOUS
 10
343.959991
 20
100.349998
 11
340.959991
 21
100.349998
  0
LINE
  8
0
  6
CONTINUOUS
 10
343.959991
 20
53.349995
 11
340.959991
 21
53.349995
  0
LINE
  8
0
  6
CONTINUOUS
 10
342.425415
 20
120.849998
 11
333.959991
 21
120.849998
  0
LINE
  8
0
  6
CONTINUOUS
 10
342.425415
 20
2.849996
 11
333.959991
 21
2.849996
  0
LINE
  8
0
  6
CONTINUOUS
 10
416.012299
 20
114.901436
 11
345.925110
 21
116.124535
  0
LINE
  8
0
  6
CONTINUOUS
 10
416.012390
 20
8.798546
 11
345.925110
 21
7.574916
  0
LINE
  8
0
  6
CONTINUOUS
 10
416.829010
 20
91.349998
 11
349.125793
 21
91.349998
  0
LINE
  8
0
  6
CONTINUOUS
 10
416.829010
 20
32.349995
 11
346.959991
 21
32.349995
  0
ARC
  8
0
  6
CONTINUOUS
 10
415.959991
 20
111.901878
 40
3.000000
 50
0.000000
 51
89.000359
  0
ARC
  8
0
  6
CONTINUOUS
 10
415.959991
 20
11.798076
 40
3.000000
 50
-88.999687
 51
0.000000
  0
ARC
  8
0
  6
CONTINUOUS
 10
346.959991
 20
29.350016
 40
3.000000
 50
90.000000
 51
180.000000
  0
LINE
  8
0
  6
CENTER
 10
328.897491
 20
11.849996
 11
348.647491
 21
11.849996
  0
LINE
  8
0
  6
CENTER
 10
330.647491
 20
111.849998
 11
347.647491
 21
111.849998
  0
LINE
  8
0
  6
DASHED
 10
333.959991
 20
107.599998
 11
343.959991
 21
107.599998
  0
LINE
  8
0
  6
DASHED
 10
333.959991
 20
116.099998
 11
343.959991
 21
116.099998
  0
LINE
  8
0
  6
DASHED
 10
333.959991
 20
16.099997
 11
343.959991
 21
16.099997
  0
LINE
  8
0
  6
DASHED
 10
333.959991
 20
7.599996
 11
343.959991
 21
7.599996
  0
LINE
  8
0
  6
CONTINUOUS
 10
355.959991
 20
6.149996
 11
407.959991
 21
6.149996
  0
ARC
  8
0
  6
CONTINUOUS
 10
407.959991
 20
9.149996
 40
3.000000
 50
270.000000
 51
351.561890
  0
ARC
  8
0
  6
CONTINUOUS
 10
355.959991
 20
9.149996
 40
3.000000
 50
208.811905
 51
270.000000
  0
ARC
  8
0
  6
CONTINUOUS
 10
340.959991
 20
54.349991
 40
1.000000
 50
180.000000
 51
270.000000
  0
ARC
  8
0
  6
CONTINUOUS
 10
340.959991
 20
99.349983
 40
1.000000
 50
90.000000
 51
180.000000
  0
ARC
  8
0
  6
CONTINUOUS
 10
381.959991
 20
51.149998
 40
45.000000
 50
-34.692108
 51
20.421860
  0
LINE
  8
0
  6
CONTINUOUS
 10
423.959991
 20
99.349983
 11
423.959991
 21
54.349991
  0
LINE
  8
0
  6
CONTINUOUS
 10
420.959991
 20
100.349998
 11
422.959991
 21
100.349998
  0
LINE
  8
0
  6
CONTINUOUS
 10
420.959991
 20
53.349995
 11
422.959991
 21
53.349995
  0
ARC
  8
0
  6
CONTINUOUS
 10
420.959991
 20
102.349998
 40
2.000000
 50
180.000000
 51
270.000000
  0
ARC
  8
0
  6
CONTINUOUS
 10
420.959991
 20
51.350002
 40
2.000000
 50
90.000000
 51
180.000000
  0
ARC
  8
0
  6
CONTINUOUS
 10
422.959991
 20
54.349991
 40
1.000000
 50
-90.000000
 51
0.000000
  0
ARC
  8
0
  6
CONTINUOUS
 10
422.959991
 20
99.349983
 40
1.000000
 50
0.000000
 51
90.000000
  0
LINE
  8
0
  6
CONTINUOUS
 10
333.959991
 20
104.566116
 11
341.397491
 21
103.587494
  0
LINE
  8
0
  6
CONTINUOUS
 10
341.397491
 20
103.587494
 11
346.397491
 21
100.337494
  0
LINE
  8
0
  6
CONTINUOUS
 10
349.311615
 20
90.922493
 11
350.772491
 21
89.962494
  0
LINE
  8
0
  6
CONTINUOUS
 10
350.772491
 20
89.962494
 11
350.272491
 21
83.962494
  0
LINE
  8
0
  6
CONTINUOUS
 10
350.272491
 20
83.962494
 11
348.272491
 21
80.462494
  0
LINE
  8
0
  6
CONTINUOUS
 10
348.272491
 20
80.462494
 11
350.147491
 21
74.962494
  0
LINE
  8
0
  6
CONTINUOUS
 10
350.147491
 20
74.962494
 11
349.522491
 21
69.212494
  0
LINE
  8
0
  6
CONTINUOUS
 10
349.522491
 20
69.212494
 11
348.897491
 21
62.962498
  0
LINE
  8
0
  6
CONTINUOUS
 10
348.897491
 20
62.962498
 11
350.022491
 21
58.337498
  0
LINE
  8
0
  6
CONTINUOUS
 10
350.022491
 20
58.337498
 11
348.897491
 21
54.087498
  0
LINE
  8
0
  6
CONTINUOUS
 10
348.897491
 20
54.087498
 11
345.647491
 21
49.212498
  0
LINE
  8
0
  6
CONTINUOUS
 10
345.647491
 20
49.212498
 11
341.147491
 21
47.212498
  0
LINE
  8
0
  6
CONTINUOUS
 10
341.147491
 20
47.212498
 11
336.897491
 21
44.587498
  0
LINE
  8
0
  6
CONTINUOUS
 10
336.897491
 20
44.587498
 11
333.959991
 21
44.190536
  0
LINE
  8
0
  6
CONTINUOUS
 10
346.397491
 20
100.337494
 11
347.147491
 21
95.899994
  0
LINE
  8
0
  6
CONTINUOUS
 10
347.147491
 20
95.899994
 11
349.311615
 21
90.922493
  0
LINE
  8
0
  6
CONTINUOUS
 10
343.959991
 20
118.849998
 11
343.959991
 21
48.462494
  0
LINE
  8
0
  6
CONTINUOUS
 10
343.959991
 20
4.849996
 11
343.959991
 21
29.350006
  0
LINE
  8
0
  6
CONTINUOUS
 10
333.959991
 20
120.849998
 11
333.959991
 21
85.849998
  0
LINE
  8
0
  6
CONTINUOUS
 10
333.959991
 20
2.849996
 11
333.959991
 21
67.849998
  0
LINE
  8
0
  6
CENTER
 10
328.255402
 20
51.149998
 11
433.964905
 21
51.149998
  0
LINE
  8
0
  6
CONTINUOUS
 10
344.357208
 20
119.367638
 11
344.637787
 21
118.320404
  0
ARC
  8
0
  6
CONTINUOUS
 10
341.959991
 20
118.849983
 40
2.000000
 50
0.000000
 51
90.000000
  0
ARC
  8
0
  6
CONTINUOUS
 10
342.425415
 20
118.849983
 40
2.000000
 50
15.000290
 51
90.000000
  0
ARC
  8
0
  6
CONTINUOUS
 10
345.959991
 20
118.124245
 40
2.000000
 50
180.000000
 51
269.000610
  0
ARC
  8
0
  6
CONTINUOUS
 10
347.535614
 20
119.096909
 40
3.000000
 50
195.000504
 51
269.000488
  0
LINE
  8
0
  6
CONTINUOUS
 10
344.357208
 20
4.332356
 11
344.647308
 21
5.415266
  0
ARC
  8
0
  6
CONTINUOUS
 10
341.959991
 20
4.849986
 40
2.000000
 50
-90.000000
 51
0.000000
  0
ARC
  8
0
  6
CONTINUOUS
 10
342.425415
 20
4.849996
 40
2.000000
 50
270.000000
 51
345.000000
  0
ARC
  8
0
  6
CONTINUOUS
 10
345.959991
 20
5.575226
 40
2.000000
 50
91.000633
 51
180.000000
  0
ARC
  8
0
  6
CONTINUOUS
 10
347.548401
 20
4.602806
 40
3.000000
 50
91.000526
 51
164.352097
  0
LINE
  8
0
  6
CONTINUOUS
 10
428.959991
 20
25.049486
 11
428.959991
 21
67.849998
  0
LINE
  8
0
  6
CONTINUOUS
 10
408.060486
 20
4.149996
 11
355.859497
 21
4.149996
  0
LINE
  8
0
  6
CONTINUOUS
 10
350.909698
 20
6.200236
 11
349.459991
 21
7.649986
  0
ARC
  8
0
  6
CONTINUOUS
 10
355.859497
 20
11.149996
 40
7.000000
 50
225.000107
 51
270.000000
  0
ARC
  8
0
  6
CONTINUOUS
 10
408.060486
 20
11.149996
 40
7.000000
 50
270.000000
 51
315.000092
  0
ARC
  8
0
  6
CONTINUOUS
 10
421.959991
 20
25.049477
 40
7.000000
 50
-44.999882
 51
0.000000
  0
LINE
  8
0
  6
CONTINUOUS
 10
426.909698
 20
20.099747
 11
418.959991
 21
12.149996
  0
LINE
  8
0
  6
CONTINUOUS
 10
413.010315
 20
6.200246
 11
415.601410
 21
8.791366
  0
LINE
  8
0
  6
CONTINUOUS
 10
455.959991
 20
67.849998
 11
455.959991
 21
85.849998
  0
LINE
  8
0
  6
CONTINUOUS
 10
425.959991
 20
85.849998
 11
455.959991
 21
85.849998
  0
LINE
  8
0
  6
CONTINUOUS
 10
425.959991
 20
67.849998
 11
455.959991
 21
67.849998
  0
LINE
  8
0
  6
CONTINUOUS
 10
425.959991
 20
86.849998
 11
425.959991
 21
66.849998
  0
LINE
  8
0
  6
CONTINUOUS
 10
423.959991
 20
86.849998
 11
425.959991
 21
86.849998
  0
LINE
  8
0
  6
CONTINUOUS
 10
423.959991
 20
66.849998
 11
425.959991
 21
66.849998
  0
ARC
  8
0
  6
CONTINUOUS
 10
431.959991
 20
76.849998
 40
3.000000
 50
90.000000
 51
270.000000
  0
LINE
  8
0
  6
CONTINUOUS
 10
431.959991
 20
79.849998
 11
455.959991
 21
79.849998
  0
LINE
  8
0
  6
CONTINUOUS
 10
431.959991
 20
73.849998
 11
455.959991
 21
73.849998
  0
LINE
  8
0
  6
CONTINUOUS
 10
307.959991
 20
67.849998
 11
307.959991
 21
85.849998
  0
LINE
  8
0
  6
CONTINUOUS
 10
337.959991
 20
85.849998
 11
307.959991
 21
85.849998
  0
LINE
  8
0
  6
CONTINUOUS
 10
337.959991
 20
67.849998
 11
307.959991
 21
67.849998
  0
LINE
  8
0
  6
CONTINUOUS
 10
337.959991
 20
86.849998
 11
337.959991
 21
66.849998
  0
LINE
  8
0
  6
CONTINUOUS
 10
339.959991
 20
86.849998
 11
337.959991
 21
86.849998
  0
LINE
  8
0
  6
CONTINUOUS
 10
339.959991
 20
66.849998
 11
337.959991
 21
66.849998
  0
ARC
  8
0
  6
CONTINUOUS
 10
331.959991
 20
76.849998
 40
3.000000
 50
-90.000000
 51
90.000000
  0
LINE
  8
0
  6
CONTINUOUS
 10
331.959991
 20
79.849998
 11
307.959991
 21
79.849998
  0
LINE
  8
0
  6
CONTINUOUS
 10
331.959991
 20
73.849998
 11
307.959991
 21
73.849998
  0
LINE
  8
0
  6
CENTER
 10
182.651245
 20
360.478760
 11
182.651245
 21
199.308121
  0
LINE
  8
0
  6
CENTER
 10
-12.597187
 20
279.601257
 11
246.792496
 21
279.601257
  0
LINE
  8
0
  6
CONTINUOUS
 10
228.977127
 20
316.601257
 11
134.099564
 21
316.601257
  0
LINE
  8
0
  6
CONTINUOUS
 10
131.941833
 20
308.604004
 11
132.100250
 21
314.653595
  0
LINE
  8
0
  6
CONTINUOUS
 10
129.993454
 20
324.601257
 11
59.651249
 21
324.601257
  0
LINE
  8
0
  6
CONTINUOUS
 10
59.651249
 20
308.601257
 11
138.993805
 21
308.601257
  0
LINE
  8
0
  6
CONTINUOUS
 10
59.651249
 20
250.601257
 11
130.268127
 21
250.601257
  0
LINE
  8
0
  6
CONTINUOUS
 10
130.124374
 20
234.601257
 11
59.651249
 21
234.601257
  0
LINE
  8
0
  6
CONTINUOUS
 10
130.894333
 20
279.601257
 11
132.151245
 21
231.601257
  0
LINE
  8
0
  6
CONTINUOUS
 10
165.651245
 20
311.601257
 11
165.651245
 21
243.601257
  0
LINE
  8
0
  6
CONTINUOUS
 10
199.651245
 20
311.601257
 11
199.651245
 21
243.601257
  0
LINE
  8
0
  6
CONTINUOUS
 10
138.993805
 20
306.601257
 11
138.993805
 21
243.136246
  0
LINE
  8
0
  6
CONTINUOUS
 10
205.151260
 20
321.601257
 11
160.151245
 21
321.601257
  0
LINE
  8
0
  6
CONTINUOUS
 10
159.151245
 20
320.601257
 11
159.151245
 21
318.601257
  0
LINE
  8
0
  6
CONTINUOUS
 10
206.151260
 20
320.601257
 11
206.151260
 21
318.601257
  0
ARC
  8
0
  6
CONTINUOUS
 10
157.151245
 20
318.601257
 40
2.000000
 50
-90.000000
 51
0.000000
  0
ARC
  8
0
  6
CONTINUOUS
 10
208.151245
 20
318.601257
 40
2.000000
 50
180.000000
 51
270.000000
  0
ARC
  8
0
  6
CONTINUOUS
 10
160.151260
 20
320.601257
 40
1.000000
 50
90.000000
 51
180.000000
  0
ARC
  8
0
  6
CONTINUOUS
 10
205.151260
 20
320.601257
 40
1.000000
 50
0.000000
 51
90.000000
  0
LINE
  8
0
  6
CONTINUOUS
 10
194.151245
 20
353.601257
 11
173.651245
 21
353.601257
  0
LINE
  8
0
  6
CONTINUOUS
 10
173.651245
 20
323.601257
 11
173.651245
 21
353.601257
  0
LINE
  8
0
  6
CONTINUOUS
 10
191.651245
 20
323.601257
 11
191.651245
 21
326.601257
  0
LINE
  8
0
  6
CONTINUOUS
 10
172.651245
 20
323.601257
 11
192.651245
 21
323.601257
  0
LINE
  8
0
  6
CONTINUOUS
 10
172.651245
 20
321.601257
 11
172.651245
 21
323.601257
  0
LINE
  8
0
  6
CONTINUOUS
 10
192.651245
 20
321.601257
 11
192.651245
 21
323.601257
  0
LINE
  8
0
  6
CONTINUOUS
 10
194.151245
 20
353.601257
 11
194.151245
 21
326.601257
  0
LINE
  8
0
  6
CONTINUOUS
 10
194.151245
 20
326.601257
 11
191.136246
 21
326.601257
  0
LINE
  8
0
  6
CONTINUOUS
 10
191.136246
 20
353.601257
 11
191.136246
 21
326.601257
  0
LINE
  8
0
  6
CONTINUOUS
 10
194.151245
 20
205.601257
 11
173.651245
 21
205.601257
  0
LINE
  8
0
  6
CONTINUOUS
 10
173.651245
 20
231.601257
 11
173.651245
 21
205.601257
  0
LINE
  8
0
  6
CONTINUOUS
 10
194.151245
 20
205.601257
 11
194.151245
 21
231.601257
  0
LINE
  8
0
  6
CONTINUOUS
 10
191.136246
 20
205.601257
 11
191.136246
 21
231.601257
  0
LINE
  8
0
  6
CONTINUOUS
 10
132.151245
 20
231.601257
 11
233.151245
 21
231.601257
  0
LINE
  8
0
  6
CONTINUOUS
 10
230.976440
 20
314.653595
 11
233.151245
 21
231.601257
  0
LINE
  8
0
  6
CONTINUOUS
 10
133.942444
 20
241.601257
 11
230.941071
 21
241.601257
  0
ARC
  8
0
  6
CONTINUOUS
 10
230.941071
 20
239.601257
 40
2.000000
 50
1.500000
 51
90.000000
  0
ARC
  8
0
  6
CONTINUOUS
 10
228.977127
 20
314.601257
 40
2.000000
 50
1.500000
 51
90.000000
  0
ARC
  8
0
  6
CONTINUOUS
 10
201.651245
 20
243.601257
 40
2.000000
 50
180.000000
 51
270.000000
  0
ARC
  8
0
  6
CONTINUOUS
 10
163.651245
 20
243.601257
 40
2.000000
 50
-90.000000
 51
0.000000
  0
LINE
  8
0
  6
CONTINUOUS
 10
165.509308
 20
242.861252
 11
199.793182
 21
242.861252
  0
ARC
  8
0
  6
CONTINUOUS
 10
133.942444
 20
239.601257
 40
2.000000
 50
90.000000
 51
181.500000
  0
ARC
  8
0
  6
CONTINUOUS
 10
130.124374
 20
232.601257
 40
2.000000
 50
1.500000
 51
90.000000
  0
LINE
  8
0
  6
CONTINUOUS
 10
131.992767
 20
322.653595
 11
132.100250
 21
318.548889
  0
ARC
  8
0
  6
CONTINUOUS
 10
129.993454
 20
322.601257
 40
2.000000
 50
1.500000
 51
90.000000
  0
ARC
  8
0
  6
CONTINUOUS
 10
134.099564
 20
318.601257
 40
2.000000
 50
181.500000
 51
270.000000
  0
ARC
  8
0
  6
CONTINUOUS
 10
134.099564
 20
314.601257
 40
2.000000
 50
90.000000
 51
178.500000
  0
LINE
  8
0
  6
CENTER
 10
222.651245
 20
223.912659
 11
222.651245
 21
247.775314
  0
LINE
  8
0
  6
DASHED
 10
226.901245
 20
241.601257
 11
226.901245
 21
231.601257
  0
LINE
  8
0
  6
DASHED
 10
218.401245
 20
241.601257
 11
218.401245
 21
231.601257
  0
LINE
  8
0
  6
CENTER
 10
142.651245
 20
223.912659
 11
142.651245
 21
247.775314
  0
LINE
  8
0
  6
DASHED
 10
138.401245
 20
241.601257
 11
138.401245
 21
231.601257
  0
LINE
  8
0
  6
DASHED
 10
146.901245
 20
241.601257
 11
146.901245
 21
231.601257
  0
LINE
  8
0
  6
CONTINUOUS
 10
50.151249
 20
324.601257
 11
59.651249
 21
324.601257
  0
LINE
  8
0
  6
CONTINUOUS
 10
59.651249
 20
308.601257
 11
50.151249
 21
308.601257
  0
LINE
  8
0
  6
CONTINUOUS
 10
50.151249
 20
234.601257
 11
59.651249
 21
234.601257
  0
LINE
  8
0
  6
CONTINUOUS
 10
59.651249
 20
234.601257
 11
59.651249
 21
254.601227
  0
LINE
  8
0
  6
CONTINUOUS
 10
59.651249
 20
250.601257
 11
50.151249
 21
250.601257
  0
LINE
  8
0
  6
CONTINUOUS
 10
59.651249
 20
304.601227
 11
59.651249
 21
324.601257
  0
LINE
  8
0
  6
CONTINUOUS
 10
50.151249
 20
326.601257
 11
50.151249
 21
279.601257
  0
LINE
  8
0
  6
CONTINUOUS
 10
50.151249
 20
308.601257
 11
6.176220
 21
308.601257
  0
LINE
  8
0
  6
CONTINUOUS
 10
50.151249
 20
250.601257
 11
6.176220
 21
250.601257
  0
LINE
  8
0
  6
CONTINUOUS
 10
7.651230
 20
326.601257
 11
50.151249
 21
326.601257
  0
LINE
  8
0
  6
CONTINUOUS
 10
7.651230
 20
232.601257
 11
50.151249
 21
232.601257
  0
ARC
  8
0
  6
CONTINUOUS
 10
7.651260
 20
321.601257
 40
5.000000
 50
90.000000
 51
180.000000
  0
ARC
  8
0
  6
CONTINUOUS
 10
7.651230
 20
237.601257
 40
5.000000
 50
180.000000
 51
270.000000
  0
LINE
  8
0
  6
CONTINUOUS
 10
2.651260
 20
321.601257
 11
2.651230
 21
237.601242
  0
LINE
  8
0
  6
CONTINUOUS
 10
50.151249
 20
279.601257
 11
50.151249
 21
232.601257
  0
LINE
  8
0
  6
CONTINUOUS
 10
50.651249
 20
256.601227
 11
50.651249
 21
302.601227
  0
LINE
  8
0
  6
CONTINUOUS
 10
52.651249
 20
304.601227
 11
50.651249
 21
302.601227
  0
LINE
  8
0
  6
CONTINUOUS
 10
52.651249
 20
304.601227
 11
98.651237
 21
304.601227
  0
LINE
  8
0
  6
CONTINUOUS
 10
93.151253
 20
300.101227
 11
93.151253
 21
304.601227
  0
ARC
  8
0
  6
CONTINUOUS
 10
96.151253
 20
300.101227
 40
3.000000
 50
180.000000
 51
270.000000
  0
LINE
  8
0
  6
CONTINUOUS
 10
96.151253
 20
297.101227
 11
100.651237
 21
297.101227
  0
CIRCLE
  8
0
  6
CONTINUOUS
 10
97.151253
 20
301.101227
 40
2.250000
  0
LINE
  8
0
  6
CONTINUOUS
 10
100.651245
 20
256.601227
 11
100.651237
 21
302.601227
  0
LINE
  8
0
  6
CONTINUOUS
 10
98.651237
 20
304.601227
 11
100.651237
 21
302.601227
  0
LINE
  8
0
  6
CONTINUOUS
 10
98.651245
 20
254.601227
 11
100.651245
 21
256.601227
  0
LINE
  8
0
  6
CONTINUOUS
 10
98.651245
 20
254.601227
 11
52.651249
 21
254.601227
  0
LINE
  8
0
  6
CONTINUOUS
 10
50.651249
 20
256.601227
 11
52.651249
 21
254.601227
  0
LINE
  8
0
  6
CONTINUOUS
 10
55.151249
 20
262.101227
 11
50.651260
 21
262.101227
  0
CIRCLE
  8
0
  6
CONTINUOUS
 10
54.151249
 20
258.101227
 40
2.250000
  0
ARC
  8
0
  6
CONTINUOUS
 10
55.151249
 20
259.101227
 40
3.000000
 50
0.000000
 51
90.000000
  0
LINE
  8
0
  6
CONTINUOUS
 10
58.151249
 20
259.101227
 11
58.151249
 21
254.601227
  0
LINE
  8
0
  6
CENTER
 10
75.651253
 20
247.135452
 11
75.651253
 21
311.267487
  0
LINE
  8
0
  6
CONTINUOUS
 10
51.651257
 20
262.101257
 11
51.651257
 21
297.101257
  0
LINE
  8
0
  6
CONTINUOUS
 10
93.151253
 20
303.601257
 11
58.151272
 21
303.601257
  0
LINE
  8
0
  6
CONTINUOUS
 10
99.651245
 20
297.101257
 11
99.651245
 21
262.101257
  0
LINE
  8
0
  6
CONTINUOUS
 10
58.151249
 20
255.601257
 11
93.151230
 21
255.601257
  0
LINE
  8
0
  6
CONTINUOUS
 10
55.151272
 20
297.101257
 11
50.651272
 21
297.101257
  0
ARC
  8
0
  6
CONTINUOUS
 10
55.151272
 20
300.101257
 40
3.000000
 50
-90.000000
 51
0.000000
  0
LINE
  8
0
  6
CONTINUOUS
 10
58.151272
 20
300.101257
 11
58.151272
 21
304.601227
  0
CIRCLE
  8
0
  6
CONTINUOUS
 10
54.151272
 20
301.101257
 40
2.250000
  0
LINE
  8
0
  6
CONTINUOUS
 10
96.151230
 20
262.101257
 11
100.651230
 21
262.101257
  0
ARC
  8
0
  6
CONTINUOUS
 10
96.151230
 20
259.101257
 40
3.000000
 50
90.000000
 51
180.000000
  0
LINE
  8
0
  6
CONTINUOUS
 10
93.151230
 20
259.101257
 11
93.151230
 21
254.601257
  0
CIRCLE
  8
0
  6
CONTINUOUS
 10
97.151230
 20
258.101257
 40
2.250000
  0
LINE
  8
0
  6
CONTINUOUS
 10
51.459991
 20
97.649994
 11
97.959991
 21
97.649994
  0
LINE
  8
0
  6
CONTINUOUS
 10
99.959969
 20
141.649994
 11
99.959991
 21
99.649994
  0
LINE
  8
0
  6
CONTINUOUS
 10
49.959991
 20
141.649994
 11
49.959991
 21
99.649994
  0
LINE
  8
0
  6
CONTINUOUS
 10
49.959991
 20
109.649994
 11
99.959991
 21
109.649994
  0
LINE
  8
0
  6
CONTINUOUS
 10
97.959991
 20
97.649994
 11
99.959991
 21
99.649994
  0
LINE
  8
0
  6
CONTINUOUS
 10
49.959991
 20
99.649994
 11
51.959991
 21
97.649994
  0
LINE
  8
0
  6
CONTINUOUS
 10
49.959991
 20
99.649994
 11
99.959991
 21
99.649994
  0
LINE
  8
0
  6
CONTINUOUS
 10
49.959991
 20
110.649994
 11
99.959976
 21
110.649994
  0
LINE
  8
0
  6
CONTINUOUS
 10
50.959991
 20
142.649994
 11
98.959969
 21
142.649994
  0
LINE
  8
0
  6
CONTINUOUS
 10
98.959969
 20
142.649994
 11
99.959969
 21
141.649994
  0
LINE
  8
0
  6
CONTINUOUS
 10
50.959991
 20
142.649994
 11
49.959991
 21
141.649994
  0
LINE
  8
0
  6
CONTINUOUS
 10
49.959991
 20
141.649994
 11
99.959969
 21
141.649994
  0
LINE
  8
0
  6
CENTER
 10
74.959991
 20
91.260483
 11
74.959991
 21
147.960480
  0
LINE
  8
0
  6
CENTER
 10
47.584991
 20
125.649994
 11
52.209991
 21
125.649994
  0
LINE
  8
0
  6
CONTINUOUS
 10
51.459991
 20
97.649994
 11
51.459991
 21
96.149994
  0
LINE
  8
0
  6
CONTINUOUS
 10
97.459991
 20
97.649994
 11
97.459991
 21
96.149994
  0
LINE
  8
0
  6
CONTINUOUS
 10
49.084991
 20
136.149994
 11
51.084991
 21
136.149994
  0
LINE
  8
0
  6
CONTINUOUS
 10
49.084991
 20
115.149994
 11
51.084991
 21
115.149994
  0
LINE
  8
0
  6
CONTINUOUS
 10
406.959991
 20
141.649994
 11
406.959991
 21
115.059410
  0
LINE
  8
0
  6
CONTINUOUS
 10
356.959991
 20
141.649994
 11
356.959991
 21
115.931969
  0
LINE
  8
0
  6
CONTINUOUS
 10
357.959991
 20
142.649994
 11
405.959991
 21
142.649994
  0
LINE
  8
0
  6
CONTINUOUS
 10
405.959991
 20
142.649994
 11
406.959991
 21
141.649994
  0
LINE
  8
0
  6
CONTINUOUS
 10
357.959991
 20
142.649994
 11
356.959991
 21
141.649994
  0
LINE
  8
0
  6
CONTINUOUS
 10
356.959991
 20
141.649994
 11
406.959991
 21
141.649994
  0
TEXT
  8
0
 10
-12.000000
 20
-6.000000
 40
4.000000
 41
1.000000
  1
HFM-18T-10~240-T90WK
 50
0.000000
  0
ENDSEC
  0
EOF
