  0
SECTION
  2
HEADER
  9
$ACADVER
  1
AC1015
  9
$ACADMAINTVER
 70
    20
  9
$DWGCODEPAGE
  3
ANSI_932
  9
$INSBASE
 10
0.0
 20
0.0
 30
0.0
  9
$EXTMIN
 10
33.0395234849
 20
23.9994510255
 30
0.0
  9
$EXTMAX
 10
1078.8158949349
 20
471.6296602805
 30
0.0
  9
$LIMMIN
 10
0.0
 20
0.0
  9
$LIMMAX
 10
297.0
 20
210.0
  9
$ORTHOMODE
 70
     0
  9
$REGENMODE
 70
     1
  9
$FILLMODE
 70
     1
  9
$QTEXTMODE
 70
     0
  9
$MIRRTEXT
 70
     0
  9
$LTSCALE
 40
3.0
  9
$ATTMODE
 70
     1
  9
$TEXTSIZE
 40
2.0
  9
$TRACEWID
 40
1.0
  9
$TEXTSTYLE
  7
STANDARD
  9
$CLAYER
  8
0
  9
$CELTYPE
  6
BYLAYER
  9
$CECOLOR
 62
   256
  9
$CELTSCALE
 40
1.0
  9
$DISPSILH
 70
     0
  9
$DIMSCALE
 40
3.0
  9
$DIMASZ
 40
1.8
  9
$DIMEXO
 40
0.625
  9
$DIMDLI
 40
3.75
  9
$DIMRND
 40
0.0
  9
$DIMDLE
 40
0.0
  9
$DIMEXE
 40
0.8
  9
$DIMTP
 40
0.0
  9
$DIMTM
 40
0.0
  9
$DIMTXT
 40
1.8
  9
$DIMCEN
 40
2.5
  9
$DIMTSZ
 40
0.0
  9
$DIMTOL
 70
     0
  9
$DIMLIM
 70
     0
  9
$DIMTIH
 70
     0
  9
$DIMTOH
 70
     0
  9
$DIMSE1
 70
     0
  9
$DIMSE2
 70
     0
  9
$DIMTAD
 70
     1
  9
$DIMZIN
 70
     8
  9
$DIMBLK
  1

  9
$DIMASO
 70
     1
  9
$DIMSHO
 70
     1
  9
$DIMPOST
  1

  9
$DIMAPOST
  1

  9
$DIMALT
 70
     0
  9
$DIMALTD
 70
     4
  9
$DIMALTF
 40
0.0394
  9
$DIMLFAC
 40
1.0
  9
$DIMTOFL
 70
     1
  9
$DIMTVP
 40
0.0
  9
$DIMTIX
 70
     0
  9
$DIMSOXD
 70
     0
  9
$DIMSAH
 70
     0
  9
$DIMBLK1
  1

  9
$DIMBLK2
  1

  9
$DIMSTYLE
  2
STANDARD
  9
$DIMCLRD
 70
     0
  9
$DIMCLRE
 70
     0
  9
$DIMCLRT
 70
     0
  9
$DIMTFAC
 40
1.0
  9
$DIMGAP
 40
0.75
  9
$DIMJUST
 70
     0
  9
$DIMSD1
 70
     0
  9
$DIMSD2
 70
     0
  9
$DIMTOLJ
 70
     1
  9
$DIMTZIN
 70
     0
  9
$DIMALTZ
 70
     0
  9
$DIMALTTZ
 70
     0
  9
$DIMUPT
 70
     0
  9
$DIMDEC
 70
     2
  9
$DIMTDEC
 70
     2
  9
$DIMALTU
 70
     8
  9
$DIMALTTD
 70
     4
  9
$DIMTXSTY
  7
STANDARD
  9
$DIMAUNIT
 70
     0
  9
$DIMADEC
 70
     2
  9
$DIMALTRND
 40
0.0
  9
$DIMAZIN
 70
     0
  9
$DIMDSEP
 70
    46
  9
$DIMATFIT
 70
     3
  9
$DIMFRAC
 70
     0
  9
$DIMLDRBLK
  1

  9
$DIMLUNIT
 70
     6
  9
$DIMLWD
 70
    -2
  9
$DIMLWE
 70
    -2
  9
$DIMTMOVE
 70
     0
  9
$LUNITS
 70
     2
  9
$LUPREC
 70
     3
  9
$SKETCHINC
 40
1.0
  9
$FILLETRAD
 40
10.0
  9
$AUNITS
 70
     0
  9
$AUPREC
 70
     2
  9
$MENU
  1
.
  9
$ELEVATION
 40
0.0
  9
$PELEVATION
 40
0.0
  9
$THICKNESS
 40
0.0
  9
$LIMCHECK
 70
     0
  9
$CHAMFERA
 40
0.0
  9
$CHAMFERB
 40
0.0
  9
$CHAMFERC
 40
20.0
  9
$CHAMFERD
 40
0.0
  9
$SKPOLY
 70
     0
  9
$TDCREATE
 40
2453753.368587963
  9
$TDUCREATE
 40
2453752.993588681
  9
$TDUPDATE
 40
2460516.493958333
  9
$TDUUPDATE
 40
2460516.118958333
  9
$TDINDWG
 40
0.1074410648
  9
$TDUSRTIMER
 40
0.1074410648
  9
$USRTIMER
 70
     1
  9
$ANGBASE
 50
0.0
  9
$ANGDIR
 70
     0
  9
$PDMODE
 70
     0
  9
$PDSIZE
 40
-10.0
  9
$PLINEWID
 40
0.0
  9
$SPLFRAME
 70
     0
  9
$SPLINETYPE
 70
     6
  9
$SPLINESEGS
 70
     8
  9
$HANDSEED
  5
1974
  9
$SURFTAB1
 70
     6
  9
$SURFTAB2
 70
     6
  9
$SURFTYPE
 70
     6
  9
$SURFU
 70
     6
  9
$SURFV
 70
     6
  9
$UCSBASE
  2

  9
$UCSNAME
  2

  9
$UCSORG
 10
0.0
 20
0.0
 30
0.0
  9
$UCSXDIR
 10
1.0
 20
0.0
 30
0.0
  9
$UCSYDIR
 10
0.0
 20
1.0
 30
0.0
  9
$UCSORTHOREF
  2

  9
$UCSORTHOVIEW
 70
     0
  9
$UCSORGTOP
 10
0.0
 20
0.0
 30
0.0
  9
$UCSORGBOTTOM
 10
0.0
 20
0.0
 30
0.0
  9
$UCSORGLEFT
 10
0.0
 20
0.0
 30
0.0
  9
$UCSORGRIGHT
 10
0.0
 20
0.0
 30
0.0
  9
$UCSORGFRONT
 10
0.0
 20
0.0
 30
0.0
  9
$UCSORGBACK
 10
0.0
 20
0.0
 30
0.0
  9
$PUCSBASE
  2

  9
$PUCSNAME
  2

  9
$PUCSORG
 10
0.0
 20
0.0
 30
0.0
  9
$PUCSXDIR
 10
1.0
 20
0.0
 30
0.0
  9
$PUCSYDIR
 10
0.0
 20
1.0
 30
0.0
  9
$PUCSORTHOREF
  2

  9
$PUCSORTHOVIEW
 70
     0
  9
$PUCSORGTOP
 10
0.0
 20
0.0
 30
0.0
  9
$PUCSORGBOTTOM
 10
0.0
 20
0.0
 30
0.0
  9
$PUCSORGLEFT
 10
0.0
 20
0.0
 30
0.0
  9
$PUCSORGRIGHT
 10
0.0
 20
0.0
 30
0.0
  9
$PUCSORGFRONT
 10
0.0
 20
0.0
 30
0.0
  9
$PUCSORGBACK
 10
0.0
 20
0.0
 30
0.0
  9
$USERI1
 70
     0
  9
$USERI2
 70
     0
  9
$USERI3
 70
     0
  9
$USERI4
 70
     0
  9
$USERI5
 70
     0
  9
$USERR1
 40
0.0
  9
$USERR2
 40
0.0
  9
$USERR3
 40
0.0
  9
$USERR4
 40
0.0
  9
$USERR5
 40
0.0
  9
$WORLDVIEW
 70
     1
  9
$SHADEDGE
 70
     3
  9
$SHADEDIF
 70
    70
  9
$TILEMODE
 70
     1
  9
$MAXACTVP
 70
    48
  9
$PINSBASE
 10
0.0
 20
0.0
 30
0.0
  9
$PLIMCHECK
 70
     0
  9
$PEXTMIN
 10
0.0
 20
0.0
 30
0.0
  9
$PEXTMAX
 10
0.0
 20
0.0
 30
0.0
  9
$PLIMMIN
 10
0.0
 20
0.0
  9
$PLIMMAX
 10
12.0
 20
9.0
  9
$UNITMODE
 70
     0
  9
$VISRETAIN
 70
     1
  9
$PLINEGEN
 70
     0
  9
$PSLTSCALE
 70
     1
  9
$TREEDEPTH
 70
  3020
  9
$CMLSTYLE
  2
STANDARD
  9
$CMLJUST
 70
     0
  9
$CMLSCALE
 40
1.0
  9
$PROXYGRAPHICS
 70
     1
  9
$MEASUREMENT
 70
     0
  9
$CELWEIGHT
370
    -1
  9
$ENDCAPS
280
     0
  9
$JOINSTYLE
280
     0
  9
$LWDISPLAY
290
     0
  9
$INSUNITS
 70
     0
  9
$HYPERLINKBASE
  1

  9
$STYLESHEET
  1
SEKKEI.CTB
  9
$XEDIT
290
     1
  9
$CEPSNTYPE
380
     0
  9
$PSTYLEMODE
290
     1
  9
$FINGERPRINTGUID
  2
{6385560B-F4B1-4644-A7C2-A3E32AC3D232}
  9
$VERSIONGUID
  2
{EFFF5F19-4A59-BC40-8355-E630FA08867B}
  9
$EXTNAMES
290
     1
  9
$PSVPSCALE
 40
0.0
  9
$OLESTARTUP
290
     0
  0
ENDSEC
  0
SECTION
  2
CLASSES
  0
CLASS
  1
DICTIONARYVAR
  2
AcDbDictionaryVar
  3
ObjectDBX Classes
 90
        0
280
     0
281
     0
  0
CLASS
  1
ACDBDICTIONARYWDFLT
  2
AcDbDictionaryWithDefault
  3
ObjectDBX Classes
 90
        0
280
     0
281
     0
  0
CLASS
  1
MATERIAL
  2
AcDbMaterial
  3
ObjectDBX Classes
 90
     1153
280
     0
281
     0
  0
CLASS
  1
VISUALSTYLE
  2
AcDbVisualStyle
  3
ObjectDBX Classes
 90
     4095
280
     0
281
     0
  0
CLASS
  1
TABLESTYLE
  2
AcDbTableStyle
  3
ObjectDBX Classes
 90
     4095
280
     0
281
     0
  0
CLASS
  1
SCALE
  2
AcDbScale
  3
ObjectDBX Classes
 90
     1153
280
     0
281
     0
  0
CLASS
  1
MLEADERSTYLE
  2
AcDbMLeaderStyle
  3
ACDB_MLEADERSTYLE_CLASS
 90
     4095
280
     0
281
     0
  0
CLASS
  1
CELLSTYLEMAP
  2
AcDbCellStyleMap
  3
ObjectDBX Classes
 90
     1152
280
     0
281
     0
  0
CLASS
  1
ACDBPLACEHOLDER
  2
AcDbPlaceHolder
  3
ObjectDBX Classes
 90
        0
280
     0
281
     0
  0
CLASS
  1
LAYOUT
  2
AcDbLayout
  3
ObjectDBX Classes
 90
        0
280
     0
281
     0
  0
CLASS
  1
ACDBSECTIONVIEWSTYLE
  2
AcDbSectionViewStyle
  3
ObjectDBX Classes
 90
     1025
280
     0
281
     0
  0
CLASS
  1
ACDBDETAILVIEWSTYLE
  2
AcDbDetailViewStyle
  3
ObjectDBX Classes
 90
     1025
280
     0
281
     0
  0
ENDSEC
  0
SECTION
  2
TABLES
  0
TABLE
  2
VPORT
  5
6E
102
{ACAD_XDICTIONARY
360
1668
102
}
330
0
100
AcDbSymbolTable
 70
     1
  0
VPORT
  5
15E6
330
6E
100
AcDbSymbolTableRecord
100
AcDbViewportTableRecord
  2
*Active
 70
     0
 10
0.0
 20
0.0
 11
1.0
 21
1.0
 12
617.5301472728
 22
247.822554127
 13
0.0
 23
0.0
 14
10.0
 24
10.0
 15
10.0
 25
10.0
 16
0.0
 26
0.0
 36
1.0
 17
0.0
 27
0.0
 37
0.0
 40
492.8678324753
 41
2.38
 42
50.0
 43
0.0
 44
0.0
 50
0.0
 51
0.0
 71
     0
 72
   100
 73
     1
 74
     3
 75
     0
 76
     0
 77
     0
 78
     0
281
     0
 65
     1
110
0.0
120
0.0
130
0.0
111
1.0
121
0.0
131
0.0
112
0.0
122
1.0
132
0.0
 79
     0
146
0.0
1001
ACAD_NAV_VCDISPLAY
1070
     3
  0
ENDTAB
  0
TABLE
  2
LTYPE
  5
69
330
0
100
AcDbSymbolTable
 70
     5
  0
LTYPE
  5
6A
330
69
100
AcDbSymbolTableRecord
100
AcDbLinetypeTableRecord
  2
BYBLOCK
 70
     0
  3

 72
    65
 73
     0
 40
0.0
  0
LTYPE
  5
6B
330
69
100
AcDbSymbolTableRecord
100
AcDbLinetypeTableRecord
  2
BYLAYER
 70
     0
  3

 72
    65
 73
     0
 40
0.0
  0
LTYPE
  5
8
330
69
100
AcDbSymbolTableRecord
100
AcDbLinetypeTableRecord
  2
CONTINUOUS
 70
     0
  3
Solid line
 72
    65
 73
     0
 40
0.0
  0
LTYPE
  5
27C
330
69
100
AcDbSymbolTableRecord
100
AcDbLinetypeTableRecord
  2
sekkei(A2)
 70
     0
  3
center(A2)  ____ _ ____ _ ____ _ ____ _ ____ _ 
 72
    65
 73
     4
 40
14.2875
 49
9.525
 74
     0
 49
-1.5875
 74
     0
 49
1.5875
 74
     0
 49
-1.5875
 74
     0
  0
LTYPE
  5
2B4
330
69
100
AcDbSymbolTableRecord
100
AcDbLinetypeTableRecord
  2
HIDDEN2
 70
     0
  3
Hidden (.5x) _ _ _ _ _ _ _ _ _ _ _ _ _ _ _ _ _
 72
    65
 73
     2
 40
4.7625
 49
3.175
 74
     0
 49
-1.5875
 74
     0
  0
LTYPE
  5
48F
330
69
100
AcDbSymbolTableRecord
100
AcDbLinetypeTableRecord
  2
sekkei_H
 70
     0
  3
Hidden-S _ _ _ _ _ _ _ _ _ _ _ _ _ _ _ _ _
 72
    65
 73
     2
 40
2.38125
 49
1.5875
 74
     0
 49
-0.79375
 74
     0
  0
LTYPE
  5
1780
330
69
100
AcDbSymbolTableRecord
100
AcDbLinetypeTableRecord
  2
CENS
 70
     0
  3
(一点鎖線１)---- - ---- - ---- - ---- - ---- - 
 72
    65
 73
     4
 40
13.0
 49
10.0
 74
     0
 49
-1.0
 74
     0
 49
1.0
 74
     0
 49
-1.0
 74
     0
  0
ENDTAB
  0
TABLE
  2
LAYER
  5
66
102
{ACAD_XDICTIONARY
360
1781
102
}
330
0
100
AcDbSymbolTable
 70
     9
  0
LAYER
  5
5E
102
{ACAD_XDICTIONARY
360
163C
102
}
330
66
100
AcDbSymbolTableRecord
100
AcDbLayerTableRecord
  2
0
 70
     0
 62
     7
  6
CONTINUOUS
370
    -3
390
5
  0
LAYER
  5
3E
102
{ACAD_XDICTIONARY
360
163E
102
}
330
66
100
AcDbSymbolTableRecord
100
AcDbLayerTableRecord
  2
CENTER
 70
     0
 62
     3
  6
sekkei(A2)
370
    -3
390
5
  0
LAYER
  5
135
330
66
100
AcDbSymbolTableRecord
100
AcDbLayerTableRecord
  2
DEFPOINTS
 70
     0
 62
     7
  6
CONTINUOUS
290
     0
370
    -3
390
5
  0
LAYER
  5
2B5
102
{ACAD_XDICTIONARY
360
1644
102
}
330
66
100
AcDbSymbolTableRecord
100
AcDbLayerTableRecord
  2
HIDS
 70
     0
 62
     1
  6
HIDDEN2
370
    -3
390
5
  0
LAYER
  5
2BA
102
{ACAD_XDICTIONARY
360
1646
102
}
330
66
100
AcDbSymbolTableRecord
100
AcDbLayerTableRecord
  2
HOJO
 70
     0
 62
     4
  6
CONTINUOUS
370
    -3
390
5
  0
LAYER
  5
3FA
102
{ACAD_XDICTIONARY
360
164A
102
}
330
66
100
AcDbSymbolTableRecord
100
AcDbLayerTableRecord
  2
TITLE
 70
     0
 62
     4
  6
CONTINUOUS
290
     0
370
    -3
390
5
  0
ENDTAB
  0
TABLE
  2
STYLE
  5
67
330
0
100
AcDbSymbolTable
 70
     1
  0
STYLE
  5
16
330
67
100
AcDbSymbolTableRecord
100
AcDbTextStyleTableRecord
  2
STANDARD
 70
     0
 40
0.0
 41
1.0
 50
0.0
 71
     0
 42
2.0
  3
simplex.shx
  4
extfont.shx
  0
ENDTAB
  0
TABLE
  2
VIEW
  5
6C
330
0
100
AcDbSymbolTable
 70
     0
  0
ENDTAB
  0
TABLE
  2
UCS
  5
6D
330
0
100
AcDbSymbolTable
 70
     0
  0
ENDTAB
  0
TABLE
  2
APPID
  5
70
330
0
100
AcDbSymbolTable
 70
     4
  0
APPID
  5
71
330
70
100
AcDbSymbolTableRecord
100
AcDbRegAppTableRecord
  2
ACAD
 70
     0
  0
APPID
  5
1639
330
70
100
AcDbSymbolTableRecord
100
AcDbRegAppTableRecord
  2
ACAD_MLEADERVER
 70
     0
  0
APPID
  5
16FD
330
70
100
AcDbSymbolTableRecord
100
AcDbRegAppTableRecord
  2
ACAD_NAV_VCDISPLAY
 70
     0
  0
APPID
  5
1857
330
70
100
AcDbSymbolTableRecord
100
AcDbRegAppTableRecord
  2
ACAD_EXEMPT_FROM_CAD_STANDARDS
 70
     0
  0
ENDTAB
  0
TABLE
  2
DIMSTYLE
  5
72
330
0
100
AcDbSymbolTable
 70
     2
100
AcDbDimStyleTable
 71
     1
340
73
  0
DIMSTYLE
105
73
330
72
100
AcDbSymbolTableRecord
100
AcDbDimStyleTableRecord
  2
STANDARD
 70
     0
 40
3.0
 41
1.8
 42
0.625
 43
3.75
 44
0.8
 73
     0
 74
     0
 77
     1
 78
     8
140
1.8
141
2.5
143
0.0394
147
0.75
171
     4
172
     1
179
     2
271
     2
272
     2
273
     8
274
     4
277
     6
340
16
  0
ENDTAB
  0
TABLE
  2
BLOCK_RECORD
  5
1
330
0
100
AcDbSymbolTable
 70
    59
  0
BLOCK_RECORD
  5
2
330
1
100
AcDbSymbolTableRecord
100
AcDbBlockTableRecord
  2
*MODEL_SPACE
340
60
  0
BLOCK_RECORD
  5
190F
330
1
100
AcDbSymbolTableRecord
100
AcDbBlockTableRecord
  2
*Paper_Space
340
1910
  0
BLOCK_RECORD
  5
D39
330
1
100
AcDbSymbolTableRecord
100
AcDbBlockTableRecord
  2
*D4
340
0
  0
BLOCK_RECORD
  5
D45
330
1
100
AcDbSymbolTableRecord
100
AcDbBlockTableRecord
  2
*D5
340
0
  0
BLOCK_RECORD
  5
D51
330
1
100
AcDbSymbolTableRecord
100
AcDbBlockTableRecord
  2
*D6
340
0
  0
BLOCK_RECORD
  5
D5D
330
1
100
AcDbSymbolTableRecord
100
AcDbBlockTableRecord
  2
*D7
340
0
  0
BLOCK_RECORD
  5
D69
330
1
100
AcDbSymbolTableRecord
100
AcDbBlockTableRecord
  2
*D8
340
0
  0
BLOCK_RECORD
  5
D75
330
1
100
AcDbSymbolTableRecord
100
AcDbBlockTableRecord
  2
*D9
340
0
  0
BLOCK_RECORD
  5
D81
330
1
100
AcDbSymbolTableRecord
100
AcDbBlockTableRecord
  2
*D10
340
0
  0
BLOCK_RECORD
  5
D8D
330
1
100
AcDbSymbolTableRecord
100
AcDbBlockTableRecord
  2
*D11
340
0
  0
BLOCK_RECORD
  5
D99
330
1
100
AcDbSymbolTableRecord
100
AcDbBlockTableRecord
  2
*D12
340
0
  0
BLOCK_RECORD
  5
DA5
330
1
100
AcDbSymbolTableRecord
100
AcDbBlockTableRecord
  2
*D13
340
0
  0
BLOCK_RECORD
  5
DB1
330
1
100
AcDbSymbolTableRecord
100
AcDbBlockTableRecord
  2
*D14
340
0
  0
BLOCK_RECORD
  5
DBD
330
1
100
AcDbSymbolTableRecord
100
AcDbBlockTableRecord
  2
*D15
340
0
  0
BLOCK_RECORD
  5
DC9
330
1
100
AcDbSymbolTableRecord
100
AcDbBlockTableRecord
  2
*D16
340
0
  0
BLOCK_RECORD
  5
DD5
330
1
100
AcDbSymbolTableRecord
100
AcDbBlockTableRecord
  2
*D17
340
0
  0
BLOCK_RECORD
  5
DE1
330
1
100
AcDbSymbolTableRecord
100
AcDbBlockTableRecord
  2
*D18
340
0
  0
BLOCK_RECORD
  5
DED
330
1
100
AcDbSymbolTableRecord
100
AcDbBlockTableRecord
  2
*D19
340
0
  0
BLOCK_RECORD
  5
DF9
330
1
100
AcDbSymbolTableRecord
100
AcDbBlockTableRecord
  2
*D20
340
0
  0
BLOCK_RECORD
  5
E07
330
1
100
AcDbSymbolTableRecord
100
AcDbBlockTableRecord
  2
*D21
340
0
  0
BLOCK_RECORD
  5
E14
330
1
100
AcDbSymbolTableRecord
100
AcDbBlockTableRecord
  2
*D22
340
0
  0
BLOCK_RECORD
  5
E20
330
1
100
AcDbSymbolTableRecord
100
AcDbBlockTableRecord
  2
*D23
340
0
  0
BLOCK_RECORD
  5
12CA
330
1
100
AcDbSymbolTableRecord
100
AcDbBlockTableRecord
  2
*D24
340
0
  0
BLOCK_RECORD
  5
1771
330
1
100
AcDbSymbolTableRecord
100
AcDbBlockTableRecord
  2
A$C18d8f9dc
340
0
102
{BLKREFS
331
178A
102
}
  0
BLOCK_RECORD
  5
17D1
330
1
100
AcDbSymbolTableRecord
100
AcDbBlockTableRecord
  2
A$C489724a8
340
0
102
{BLKREFS
331
17E5
102
}
  0
ENDTAB
  0
ENDSEC
  0
SECTION
  2
BLOCKS
  0
BLOCK
  5
5D
330
2
100
AcDbEntity
  8
0
100
AcDbBlockBegin
  2
*MODEL_SPACE
 70
     0
 10
0.0
 20
0.0
 30
0.0
  3
*MODEL_SPACE
  1

  0
ENDBLK
  5
5F
330
2
100
AcDbEntity
  8
0
100
AcDbBlockEnd
  0
BLOCK
  5
1911
330
190F
100
AcDbEntity
 67
     1
  8
0
100
AcDbBlockBegin
  2
*Paper_Space
 70
     0
 10
0.0
 20
0.0
 30
0.0
  3
*Paper_Space
  1

  0
ENDBLK
  5
1912
330
190F
100
AcDbEntity
 67
     1
  8
0
100
AcDbBlockEnd
  0
BLOCK
  5
D43
330
D39
100
AcDbEntity
  8
0
100
AcDbBlockBegin
  2
*D4
 70
     1
 10
0.0
 20
0.0
 30
0.0
  3
*D4
  1

  0
POINT
  5
12A9
330
D39
100
AcDbEntity
  8
DEFPOINTS
 62
     0
100
AcDbPoint
 10
612.332662879
 20
172.9546412805
 30
0.0
  0
POINT
  5
12AA
330
D39
100
AcDbEntity
  8
DEFPOINTS
 62
     0
100
AcDbPoint
 10
652.332669879
 20
171.4546412805
 30
0.0
  0
POINT
  5
12AB
330
D39
100
AcDbEntity
  8
DEFPOINTS
 62
     0
100
AcDbPoint
 10
652.332669879
 20
232.281856134
 30
0.0
  0
ENDBLK
  5
D44
330
D39
100
AcDbEntity
  8
0
100
AcDbBlockEnd
  0
BLOCK
  5
D4F
330
D45
100
AcDbEntity
  8
0
100
AcDbBlockBegin
  2
*D5
 70
     1
 10
0.0
 20
0.0
 30
0.0
  3
*D5
  1

  0
POINT
  5
123A
330
D45
100
AcDbEntity
  8
DEFPOINTS
 62
     0
100
AcDbPoint
 10
412.9041269349
 20
202.4546642805
 30
0.0
  0
POINT
  5
123B
330
D45
100
AcDbEntity
  8
DEFPOINTS
 62
     0
100
AcDbPoint
 10
66.6540339349
 20
153.9546482805
 30
0.0
  0
POINT
  5
123C
330
D45
100
AcDbEntity
  8
DEFPOINTS
 62
     0
100
AcDbPoint
 10
66.6540339349
 20
268.4025377258
 30
0.0
  0
ENDBLK
  5
D50
330
D45
100
AcDbEntity
  8
0
100
AcDbBlockEnd
  0
BLOCK
  5
D5B
330
D51
100
AcDbEntity
  8
0
100
AcDbBlockBegin
  2
*D6
 70
     1
 10
0.0
 20
0.0
 30
0.0
  3
*D6
  1

  0
POINT
  5
1231
330
D51
100
AcDbEntity
  8
DEFPOINTS
 62
     0
100
AcDbPoint
 10
239.1540349349
 20
156.9546642805
 30
0.0
  0
POINT
  5
1232
330
D51
100
AcDbEntity
  8
DEFPOINTS
 62
     0
100
AcDbPoint
 10
66.6540339349
 20
153.9546482805
 30
0.0
  0
POINT
  5
1233
330
D51
100
AcDbEntity
  8
DEFPOINTS
 62
     0
100
AcDbPoint
 10
66.6540339349
 20
250.356964381
 30
0.0
  0
ENDBLK
  5
D5C
330
D51
100
AcDbEntity
  8
0
100
AcDbBlockEnd
  0
BLOCK
  5
D67
330
D5D
100
AcDbEntity
  8
0
100
AcDbBlockBegin
  2
*D7
 70
     1
 10
0.0
 20
0.0
 30
0.0
  3
*D7
  1

  0
POINT
  5
1228
330
D5D
100
AcDbEntity
  8
DEFPOINTS
 62
     0
100
AcDbPoint
 10
291.1540509349
 20
187.4546642805
 30
0.0
  0
POINT
  5
1229
330
D5D
100
AcDbEntity
  8
DEFPOINTS
 62
     0
100
AcDbPoint
 10
239.1540349349
 20
156.9546642805
 30
0.0
  0
POINT
  5
122A
330
D5D
100
AcDbEntity
  8
DEFPOINTS
 62
     0
100
AcDbPoint
 10
239.1540349349
 20
250.356964381
 30
0.0
  0
ENDBLK
  5
D68
330
D5D
100
AcDbEntity
  8
0
100
AcDbBlockEnd
  0
BLOCK
  5
D73
330
D69
100
AcDbEntity
  8
0
100
AcDbBlockBegin
  2
*D8
 70
     1
 10
0.0
 20
0.0
 30
0.0
  3
*D8
  1

  0
POINT
  5
1216
330
D69
100
AcDbEntity
  8
DEFPOINTS
 62
     0
100
AcDbPoint
 10
355.9040349349
 20
224.4546562805
 30
0.0
  0
POINT
  5
1217
330
D69
100
AcDbEntity
  8
DEFPOINTS
 62
     0
100
AcDbPoint
 10
291.1540509349
 20
187.4546642805
 30
0.0
  0
POINT
  5
1218
330
D69
100
AcDbEntity
  8
DEFPOINTS
 62
     0
100
AcDbPoint
 10
291.1540509349
 20
250.356964381
 30
0.0
  0
ENDBLK
  5
D74
330
D69
100
AcDbEntity
  8
0
100
AcDbBlockEnd
  0
BLOCK
  5
D7F
330
D75
100
AcDbEntity
  8
0
100
AcDbBlockBegin
  2
*D9
 70
     1
 10
0.0
 20
0.0
 30
0.0
  3
*D9
  1

  0
POINT
  5
121F
330
D75
100
AcDbEntity
  8
DEFPOINTS
 62
     0
100
AcDbPoint
 10
355.9040349349
 20
224.4546562805
 30
0.0
  0
POINT
  5
1220
330
D75
100
AcDbEntity
  8
DEFPOINTS
 62
     0
100
AcDbPoint
 10
412.9041269349
 20
202.4546642805
 30
0.0
  0
POINT
  5
1221
330
D75
100
AcDbEntity
  8
DEFPOINTS
 62
     0
100
AcDbPoint
 10
412.9041269349
 20
250.356964381
 30
0.0
  0
ENDBLK
  5
D80
330
D75
100
AcDbEntity
  8
0
100
AcDbBlockEnd
  0
BLOCK
  5
D8B
330
D81
100
AcDbEntity
  8
0
100
AcDbBlockBegin
  2
*D10
 70
     1
 10
0.0
 20
0.0
 30
0.0
  3
*D10
  1

  0
POINT
  5
1243
330
D81
100
AcDbEntity
  8
DEFPOINTS
 62
     0
100
AcDbPoint
 10
71.6540339349
 20
78.9546472805
 30
0.0
  0
POINT
  5
1244
330
D81
100
AcDbEntity
  8
DEFPOINTS
 62
     0
100
AcDbPoint
 10
71.6540339349
 20
158.9546482805
 30
0.0
  0
POINT
  5
1245
330
D81
100
AcDbEntity
  8
DEFPOINTS
 62
     0
100
AcDbPoint
 10
40.6895234849
 20
158.9546482805
 30
0.0
  0
ENDBLK
  5
D8C
330
D81
100
AcDbEntity
  8
0
100
AcDbBlockEnd
  0
BLOCK
  5
D97
330
D8D
100
AcDbEntity
  8
0
100
AcDbBlockBegin
  2
*D11
 70
     1
 10
0.0
 20
0.0
 30
0.0
  3
*D11
  1

  0
POINT
  5
125E
330
D8D
100
AcDbEntity
  8
DEFPOINTS
 62
     0
100
AcDbPoint
 10
298.9039589349
 20
82.4546272805
 30
0.0
  0
POINT
  5
125F
330
D8D
100
AcDbEntity
  8
DEFPOINTS
 62
     0
100
AcDbPoint
 10
412.9041269349
 20
82.4546472805
 30
0.0
  0
POINT
  5
1260
330
D8D
100
AcDbEntity
  8
DEFPOINTS
 62
     0
100
AcDbPoint
 10
412.9041269349
 20
26.3994510255
 30
0.0
  0
ENDBLK
  5
D98
330
D8D
100
AcDbEntity
  8
0
100
AcDbBlockEnd
  0
BLOCK
  5
DA3
330
D99
100
AcDbEntity
  8
0
100
AcDbBlockBegin
  2
*D12
 70
     1
 10
0.0
 20
0.0
 30
0.0
  3
*D12
  1

  0
POINT
  5
1267
330
D99
100
AcDbEntity
  8
DEFPOINTS
 62
     0
100
AcDbPoint
 10
310.9039589349
 20
73.8922622805
 30
0.0
  0
POINT
  5
1268
330
D99
100
AcDbEntity
  8
DEFPOINTS
 62
     0
100
AcDbPoint
 10
400.9040959349
 20
73.8922622805
 30
0.0
  0
POINT
  5
1269
330
D99
100
AcDbEntity
  8
DEFPOINTS
 62
     0
100
AcDbPoint
 10
400.9040959349
 20
44.5465286197
 30
0.0
  0
ENDBLK
  5
DA4
330
D99
100
AcDbEntity
  8
0
100
AcDbBlockEnd
  0
BLOCK
  5
DAF
330
DA5
100
AcDbEntity
  8
0
100
AcDbBlockBegin
  2
*D13
 70
     1
 10
0.0
 20
0.0
 30
0.0
  3
*D13
  1

  0
POINT
  5
124C
330
DA5
100
AcDbEntity
  8
DEFPOINTS
 62
     0
100
AcDbPoint
 10
400.9041269349
 20
70.4546472805
 30
0.0
  0
POINT
  5
124D
330
DA5
100
AcDbEntity
  8
DEFPOINTS
 62
     0
100
AcDbPoint
 10
400.9041269349
 20
214.4546642805
 30
0.0
  0
POINT
  5
124E
330
DA5
100
AcDbEntity
  8
DEFPOINTS
 62
     0
100
AcDbPoint
 10
456.838793257
 20
214.4546642805
 30
0.0
  0
ENDBLK
  5
DB0
330
DA5
100
AcDbEntity
  8
0
100
AcDbBlockEnd
  0
BLOCK
  5
DBB
330
DB1
100
AcDbEntity
  8
0
100
AcDbBlockBegin
  2
*D14
 70
     1
 10
0.0
 20
0.0
 30
0.0
  3
*D14
  1

  0
POINT
  5
1284
330
DB1
100
AcDbEntity
  8
DEFPOINTS
 62
     0
100
AcDbPoint
 10
397.9320038144
 20
160.4546642805
 30
0.0
  0
POINT
  5
1285
330
DB1
100
AcDbEntity
  8
DEFPOINTS
 62
     0
100
AcDbPoint
 10
409.4664739349
 20
202.4546562805
 30
0.0
  0
POINT
  5
1286
330
DB1
100
AcDbEntity
  8
DEFPOINTS
 62
     0
100
AcDbPoint
 10
438.5685715133
 20
202.4546562805
 30
0.0
  0
ENDBLK
  5
DBC
330
DB1
100
AcDbEntity
  8
0
100
AcDbBlockEnd
  0
BLOCK
  5
DC7
330
DBD
100
AcDbEntity
  8
0
100
AcDbBlockBegin
  2
*D15
 70
     1
 10
0.0
 20
0.0
 30
0.0
  3
*D15
  1

  0
POINT
  5
127B
330
DBD
100
AcDbEntity
  8
DEFPOINTS
 62
     0
100
AcDbPoint
 10
313.8761427021
 20
160.4546642805
 30
0.0
  0
POINT
  5
127C
330
DBD
100
AcDbEntity
  8
DEFPOINTS
 62
     0
100
AcDbPoint
 10
323.9040349349
 20
118.9546682805
 30
0.0
  0
POINT
  5
127D
330
DBD
100
AcDbEntity
  8
DEFPOINTS
 62
     0
100
AcDbPoint
 10
316.4328189462
 20
118.9546682805
 30
0.0
  0
ENDBLK
  5
DC8
330
DBD
100
AcDbEntity
  8
0
100
AcDbBlockEnd
  0
BLOCK
  5
DD3
330
DC9
100
AcDbEntity
  8
0
100
AcDbBlockBegin
  2
*D16
 70
     1
 10
0.0
 20
0.0
 30
0.0
  3
*D16
  1

  0
POINT
  5
1255
330
DC9
100
AcDbEntity
  8
DEFPOINTS
 62
     0
100
AcDbPoint
 10
397.9320038144
 20
160.4546642805
 30
0.0
  0
POINT
  5
1256
330
DC9
100
AcDbEntity
  8
DEFPOINTS
 62
     0
100
AcDbPoint
 10
409.4664739349
 20
82.4546402805
 30
0.0
  0
POINT
  5
1257
330
DC9
100
AcDbEntity
  8
DEFPOINTS
 62
     0
100
AcDbPoint
 10
438.5685715133
 20
82.4546402805
 30
0.0
  0
ENDBLK
  5
DD4
330
DC9
100
AcDbEntity
  8
0
100
AcDbBlockEnd
  0
BLOCK
  5
DDF
330
DD5
100
AcDbEntity
  8
0
100
AcDbBlockBegin
  2
*D17
 70
     1
 10
0.0
 20
0.0
 30
0.0
  3
*D17
  1

  0
POINT
  5
120D
330
DD5
100
AcDbEntity
  8
DEFPOINTS
 62
     0
100
AcDbPoint
 10
504.332862879
 20
214.4546562805
 30
0.0
  0
POINT
  5
120E
330
DD5
100
AcDbEntity
  8
DEFPOINTS
 62
     0
100
AcDbPoint
 10
652.332669879
 20
171.4546412805
 30
0.0
  0
POINT
  5
120F
330
DD5
100
AcDbEntity
  8
DEFPOINTS
 62
     0
100
AcDbPoint
 10
652.332669879
 20
268.4025377258
 30
0.0
  0
ENDBLK
  5
DE0
330
DD5
100
AcDbEntity
  8
0
100
AcDbBlockEnd
  0
BLOCK
  5
DEB
330
DE1
100
AcDbEntity
  8
0
100
AcDbBlockBegin
  2
*D18
 70
     1
 10
0.0
 20
0.0
 30
0.0
  3
*D18
  1

  0
POINT
  5
11FF
330
DE1
100
AcDbEntity
  8
DEFPOINTS
 62
     0
100
AcDbPoint
 10
562.332662879
 20
215.5131170256
 30
0.0
  0
POINT
  5
1200
330
DE1
100
AcDbEntity
  8
DEFPOINTS
 62
     0
100
AcDbPoint
 10
504.332862879
 20
214.4546562805
 30
0.0
  0
POINT
  5
1201
330
DE1
100
AcDbEntity
  8
DEFPOINTS
 62
     0
100
AcDbPoint
 10
504.332862879
 20
250.356964381
 30
0.0
  0
ENDBLK
  5
DEC
330
DE1
100
AcDbEntity
  8
0
100
AcDbBlockEnd
  0
BLOCK
  5
DF7
330
DED
100
AcDbEntity
  8
0
100
AcDbBlockBegin
  2
*D19
 70
     1
 10
0.0
 20
0.0
 30
0.0
  3
*D19
  1

  0
POINT
  5
128D
330
DED
100
AcDbEntity
  8
DEFPOINTS
 62
     0
100
AcDbPoint
 10
562.332662879
 20
215.5131170256
 30
0.0
  0
POINT
  5
128E
330
DED
100
AcDbEntity
  8
DEFPOINTS
 62
     0
100
AcDbPoint
 10
652.332669879
 20
171.4546412805
 30
0.0
  0
POINT
  5
128F
330
DED
100
AcDbEntity
  8
DEFPOINTS
 62
     0
100
AcDbPoint
 10
652.332669879
 20
250.356964381
 30
0.0
  0
ENDBLK
  5
DF8
330
DED
100
AcDbEntity
  8
0
100
AcDbBlockEnd
  0
BLOCK
  5
E05
330
DF9
100
AcDbEntity
  8
0
100
AcDbBlockBegin
  2
*D20
 70
     1
 10
0.0
 20
0.0
 30
0.0
  3
*D20
  1

  0
POINT
  5
1272
330
DF9
100
AcDbEntity
  8
DEFPOINTS
 62
     0
100
AcDbPoint
 10
516.332862879
 20
72.4546802805
 30
0.0
  0
POINT
  5
1273
330
DF9
100
AcDbEntity
  8
DEFPOINTS
 62
     0
100
AcDbPoint
 10
504.332862879
 20
70.4546802805
 30
0.0
  0
POINT
  5
1274
330
DF9
100
AcDbEntity
  8
DEFPOINTS
 62
     0
100
AcDbPoint
 10
504.332862879
 20
44.5465286197
 30
0.0
  0
ENDBLK
  5
E06
330
DF9
100
AcDbEntity
  8
0
100
AcDbBlockEnd
  0
BLOCK
  5
E12
330
E07
100
AcDbEntity
  8
0
100
AcDbBlockBegin
  2
*D21
 70
     1
 10
0.0
 20
0.0
 30
0.0
  3
*D21
  1

  0
POINT
  5
1297
330
E07
100
AcDbEntity
  8
DEFPOINTS
 62
     0
100
AcDbPoint
 10
652.332669879
 20
149.4546642805
 30
0.0
  0
POINT
  5
1298
330
E07
100
AcDbEntity
  8
DEFPOINTS
 62
     0
100
AcDbPoint
 10
652.332669879
 20
171.4546412805
 30
0.0
  0
POINT
  5
1299
330
E07
100
AcDbEntity
  8
DEFPOINTS
 62
     0
100
AcDbPoint
 10
675.8894705826
 20
171.4546412805
 30
0.0
  0
ENDBLK
  5
E13
330
E07
100
AcDbEntity
  8
0
100
AcDbBlockEnd
  0
BLOCK
  5
E1E
330
E14
100
AcDbEntity
  8
0
100
AcDbBlockBegin
  2
*D22
 70
     1
 10
0.0
 20
0.0
 30
0.0
  3
*D22
  1

  0
POINT
  5
12A0
330
E14
100
AcDbEntity
  8
DEFPOINTS
 62
     0
100
AcDbPoint
 10
617.332662879
 20
160.4546642805
 30
0.0
  0
POINT
  5
12A1
330
E14
100
AcDbEntity
  8
DEFPOINTS
 62
     0
100
AcDbPoint
 10
652.332669879
 20
171.4546412805
 30
0.0
  0
POINT
  5
12A2
330
E14
100
AcDbEntity
  8
DEFPOINTS
 62
     0
100
AcDbPoint
 10
652.332669879
 20
214.2951621942
 30
0.0
  0
ENDBLK
  5
E1F
330
E14
100
AcDbEntity
  8
0
100
AcDbBlockEnd
  0
BLOCK
  5
E26
330
E20
100
AcDbEntity
  8
0
100
AcDbBlockBegin
  2
*D23
 70
     1
 10
0.0
 20
0.0
 30
0.0
  3
*D23
  1

  0
POINT
  5
1205
330
E20
100
AcDbEntity
  8
DEFPOINTS
 62
     0
100
AcDbPoint
 10
617.7213510994
 20
114.5162959334
 30
0.0
  0
POINT
  5
1206
330
E20
100
AcDbEntity
  8
DEFPOINTS
 62
     0
100
AcDbPoint
 10
506.9439746586
 20
145.3930326277
 30
0.0
  0
ENDBLK
  5
E27
330
E20
100
AcDbEntity
  8
0
100
AcDbBlockEnd
  0
BLOCK
  5
12D6
330
12CA
100
AcDbEntity
  8
0
100
AcDbBlockBegin
  2
*D24
 70
     1
 10
0.0
 20
0.0
 30
0.0
  3
*D24
  1

  0
POINT
  5
12E0
330
12CA
100
AcDbEntity
  8
DEFPOINTS
 62
     0
100
AcDbPoint
 10
264.945834058
 20
129.9546642805
 30
0.0
  0
POINT
  5
12E1
330
12CA
100
AcDbEntity
  8
DEFPOINTS
 62
     0
100
AcDbPoint
 10
264.945834058
 20
118.9546642805
 30
0.0
  0
POINT
  5
12E2
330
12CA
100
AcDbEntity
  8
DEFPOINTS
 62
     0
100
AcDbPoint
 10
264.945834058
 20
118.9546642805
 30
0.0
  0
ENDBLK
  5
12D7
330
12CA
100
AcDbEntity
  8
0
100
AcDbBlockEnd
  0
BLOCK
  5
1772
330
1771
100
AcDbEntity
  8
0
100
AcDbBlockBegin
  2
A$C18d8f9dc
 70
     0
 10
0.0
 20
0.0
 30
0.0
  3
A$C18d8f9dc
  1

  0
LINE
  5
1773
330
1771
100
AcDbEntity
  8
0
100
AcDbLine
 10
12.20008
 20
0.0
 30
0.0
 11
19.80008
 21
0.0
 31
0.0
  0
LINE
  5
1774
330
1771
100
AcDbEntity
  8
0
  6
CENS
 62
     3
100
AcDbLine
 10
16.00008
 20
4.4057969553
 30
0.0
 11
16.00008
 21
-6.316029279
 31
0.0
  0
ARC
  5
1775
330
1771
100
AcDbEntity
  8
0
100
AcDbCircle
 10
16.00008
 20
-5.4
 30
0.0
 40
9.000000000010642
100
AcDbArc
 50
77.3231615211
 51
102.6768384789
  0
ARC
  5
1776
330
1771
100
AcDbEntity
  8
0
100
AcDbCircle
 10
14.3761364459
 20
1.8196126858
 30
0.0
 40
1.59999999999961
100
AcDbArc
 50
102.6768384789
 51
165.0
  0
LINE
  5
1777
330
1771
100
AcDbEntity
  8
0
100
AcDbLine
 10
12.50008
 20
1.0
 30
0.0
 11
12.8306551239
 21
2.233723158
 31
0.0
  0
ARC
  5
1778
330
1771
100
AcDbEntity
  8
0
100
AcDbCircle
 10
17.6240235541
 20
1.8196126858
 30
0.0
 40
1.59999999999961
100
AcDbArc
 50
15.0
 51
77.3231615211
  0
LINE
  5
1779
330
1771
100
AcDbEntity
  8
0
100
AcDbLine
 10
19.1695048761
 20
2.233723158
 30
0.0
 11
19.50008
 21
1.0
 31
0.0
  0
LINE
  5
177A
330
1771
100
AcDbEntity
  8
0
100
AcDbLine
 10
12.20008
 20
1.0
 30
0.0
 11
19.80008
 21
1.0
 31
0.0
  0
LINE
  5
177B
330
1771
100
AcDbEntity
  8
0
100
AcDbLine
 10
12.20008
 20
1.0
 30
0.0
 11
12.20008
 21
0.0
 31
0.0
  0
LINE
  5
177C
330
1771
100
AcDbEntity
  8
0
100
AcDbLine
 10
15.9269993601
 20
0.0
 30
0.0
 11
15.6590501677
 21
1.0
 31
0.0
  0
LINE
  5
177D
330
1771
100
AcDbEntity
  8
0
100
AcDbLine
 10
16.3411098323
 20
0.0
 30
0.0
 11
16.0731606399
 21
1.0
 31
0.0
  0
LINE
  5
177E
330
1771
100
AcDbEntity
  8
0
100
AcDbLine
 10
19.80008
 20
1.0
 30
0.0
 11
19.80008
 21
0.0
 31
0.0
  0
ENDBLK
  5
177F
330
1771
100
AcDbEntity
  8
0
100
AcDbBlockEnd
  0
BLOCK
  5
17D2
330
17D1
100
AcDbEntity
  8
0
100
AcDbBlockBegin
  2
A$C489724a8
 70
     0
 10
0.0
 20
0.0
 30
0.0
  3
A$C489724a8
  1

  0
LINE
  5
17D3
330
17D1
100
AcDbEntity
  8
0
100
AcDbLine
 10
-19.80008
 20
0.0
 30
0.0
 11
-12.20008
 21
0.0
 31
0.0
  0
LINE
  5
17D4
330
17D1
100
AcDbEntity
  8
0
  6
CENS
 62
     3
100
AcDbLine
 10
-16.00008
 20
4.4057969553
 30
0.0
 11
-16.00008
 21
-6.316029279
 31
0.0
  0
ARC
  5
17D5
330
17D1
100
AcDbEntity
  8
0
100
AcDbCircle
 10
-16.00008
 20
-5.4
 30
0.0
 40
9.000000000010642
100
AcDbArc
 50
77.3231615211
 51
102.6768384789
  0
ARC
  5
17D6
330
17D1
100
AcDbEntity
  8
0
100
AcDbCircle
 10
-17.6240235541
 20
1.8196126858
 30
0.0
 40
1.59999999999961
100
AcDbArc
 50
102.6768384789
 51
165.0
  0
LINE
  5
17D7
330
17D1
100
AcDbEntity
  8
0
100
AcDbLine
 10
-19.50008
 20
1.0
 30
0.0
 11
-19.1695048761
 21
2.233723158
 31
0.0
  0
ARC
  5
17D8
330
17D1
100
AcDbEntity
  8
0
100
AcDbCircle
 10
-14.3761364459
 20
1.8196126858
 30
0.0
 40
1.59999999999961
100
AcDbArc
 50
15.0
 51
77.3231615211
  0
LINE
  5
17D9
330
17D1
100
AcDbEntity
  8
0
100
AcDbLine
 10
-12.8306551239
 20
2.233723158
 30
0.0
 11
-12.50008
 21
1.0
 31
0.0
  0
LINE
  5
17DA
330
17D1
100
AcDbEntity
  8
0
100
AcDbLine
 10
-19.80008
 20
1.0
 30
0.0
 11
-12.20008
 21
1.0
 31
0.0
  0
LINE
  5
17DB
330
17D1
100
AcDbEntity
  8
0
100
AcDbLine
 10
-19.80008
 20
1.0
 30
0.0
 11
-19.80008
 21
0.0
 31
0.0
  0
LINE
  5
17DC
330
17D1
100
AcDbEntity
  8
0
100
AcDbLine
 10
-16.0731606399
 20
0.0
 30
0.0
 11
-16.3411098323
 21
1.0
 31
0.0
  0
LINE
  5
17DD
330
17D1
100
AcDbEntity
  8
0
100
AcDbLine
 10
-15.6590501677
 20
0.0
 30
0.0
 11
-15.9269993601
 21
1.0
 31
0.0
  0
LINE
  5
17DE
330
17D1
100
AcDbEntity
  8
0
100
AcDbLine
 10
-12.20008
 20
1.0
 30
0.0
 11
-12.20008
 21
0.0
 31
0.0
  0
ENDBLK
  5
17DF
330
17D1
100
AcDbEntity
  8
0
100
AcDbBlockEnd
  0
ENDSEC
  0
SECTION
  2
ENTITIES
  0
LINE
  5
671
330
2
100
AcDbEntity
  8
0
100
AcDbLine
 10
343.4040349349
 20
421.6296602805
 30
0.0
 11
368.4040349349
 21
421.6296602805
 31
0.0
  0
LINE
  5
672
330
2
100
AcDbEntity
  8
0
100
AcDbLine
 10
344.9040349349
 20
461.6296602805
 30
0.0
 11
369.4040349349
 21
461.6296602805
 31
0.0
  0
LINE
  5
673
330
2
100
AcDbEntity
  8
0
100
AcDbLine
 10
330.7111949349
 20
419.6296602805
 30
0.0
 11
381.0968759349
 21
419.6296602805
 31
0.0
  0
LINE
  5
674
330
2
100
AcDbEntity
  8
0
100
AcDbLine
 10
299.9040349349
 20
325.6296602805
 30
0.0
 11
411.6155369349
 21
325.6296602805
 31
0.0
  0
LINE
  5
675
330
2
100
AcDbEntity
  8
0
100
AcDbLine
 10
412.9040509349
 20
313.6296602805
 30
0.0
 11
298.9040349349
 21
313.6296602805
 31
0.0
  0
LINE
  5
676
330
2
100
AcDbEntity
  8
0
100
AcDbLine
 10
291.1540349349
 20
403.6296602805
 30
0.0
 11
407.9428379349
 21
403.6296602805
 31
0.0
  0
LINE
  5
677
330
2
100
AcDbEntity
  8
CENTER
100
AcDbLine
 10
420.2422292122
 20
371.6296602805
 30
0.0
 11
56.6541569349
 21
371.6296602805
 31
0.0
  0
ARC
  5
678
330
2
100
AcDbEntity
  8
0
100
AcDbCircle
 10
779.5658949349
 20
160.4546642805
 30
0.0
 40
11.0
100
AcDbArc
 50
195.826599
 51
164.173401
  0
LINE
  5
679
330
2
100
AcDbEntity
  8
0
100
AcDbLine
 10
798.0038829349
 20
79.9546642805
 30
0.0
 11
761.1276929349
 21
79.9546642805
 31
0.0
  0
LINE
  5
67A
330
2
100
AcDbEntity
  8
0
100
AcDbLine
 10
798.0038829349
 20
204.9546722805
 30
0.0
 11
761.1276929349
 21
204.9546722805
 31
0.0
  0
LINE
  5
67D
330
2
100
AcDbEntity
  8
0
100
AcDbLine
 10
824.5656809349
 20
70.4546652805
 30
0.0
 11
734.5658789349
 21
70.4546652805
 31
0.0
  0
LINE
  5
67E
330
2
100
AcDbEntity
  8
0
100
AcDbLine
 10
734.5658789349
 20
214.4546722805
 30
0.0
 11
824.5658949349
 21
214.4546722805
 31
0.0
  0
LINE
  5
67F
330
2
100
AcDbEntity
  8
0
100
AcDbLine
 10
796.3158949349
 20
99.9546642805
 30
0.0
 11
762.8158949349
 21
99.9546642805
 31
0.0
  0
ARC
  5
680
330
2
100
AcDbEntity
  8
0
100
AcDbCircle
 10
779.5658949349
 20
160.4546642805
 30
0.0
 40
30.15
100
AcDbArc
 50
172.447296
 51
7.552612
  0
LINE
  5
681
330
2
100
AcDbEntity
  8
0
100
AcDbLine
 10
796.3158949349
 20
98.3546662805
 30
0.0
 11
762.8158949349
 21
98.3546662805
 31
0.0
  0
ARC
  5
682
330
2
100
AcDbEntity
  8
0
100
AcDbCircle
 10
779.5658949349
 20
160.4546642805
 30
0.0
 40
31.75
100
AcDbArc
 50
7.552597
 51
172.447296
  0
CIRCLE
  5
683
330
2
100
AcDbEntity
  8
0
100
AcDbCircle
 10
779.5658949349
 20
160.4546642805
 30
0.0
 40
27.5
  0
ARC
  5
684
330
2
100
AcDbEntity
  8
0
100
AcDbCircle
 10
779.5658949349
 20
142.4546722805
 30
0.0
 40
60.0
100
AcDbArc
 50
228.189697
 51
311.810299
  0
ARC
  5
685
330
2
100
AcDbEntity
  8
0
100
AcDbCircle
 10
779.5658949349
 20
142.4546722805
 30
0.0
 40
60.0
100
AcDbArc
 50
48.18961
 51
131.810394
  0
LINE
  5
686
330
2
100
AcDbEntity
  8
CENTER
100
AcDbLine
 10
821.5936028913
 20
160.4546642805
 30
0.0
 11
737.5379651445
 21
160.4546642805
 31
0.0
  0
LINE
  5
687
330
2
100
AcDbEntity
  8
0
100
AcDbLine
 10
604.832662879
 20
82.4546452805
 30
0.0
 11
595.781667879
 21
82.4546452805
 31
0.0
  0
LINE
  5
688
330
2
100
AcDbEntity
  8
0
100
AcDbLine
 10
608.103063879
 20
132.3623642805
 30
0.0
 11
602.562467879
 21
130.8907072805
 31
0.0
  0
LINE
  5
689
330
2
100
AcDbEntity
  8
0
100
AcDbLine
 10
608.103063879
 20
188.5469422805
 30
0.0
 11
596.562864879
 21
191.6123412805
 31
0.0
  0
LINE
  5
68A
330
2
100
AcDbEntity
  8
CENTER
100
AcDbLine
 10
494.332866879
 20
160.4546642805
 30
0.0
 11
662.332662879
 21
160.4546642805
 31
0.0
  0
LINE
  5
68B
330
2
100
AcDbEntity
  8
CENTER
100
AcDbLine
 10
494.332866879
 20
129.9546642805
 30
0.0
 11
629.832662879
 21
129.9546642805
 31
0.0
  0
LINE
  5
68C
330
2
100
AcDbEntity
  8
0
100
AcDbLine
 10
516.332866879
 20
72.4546852805
 30
0.0
 11
516.332866879
 21
212.4546722805
 31
0.0
  0
LINE
  5
68D
330
2
100
AcDbEntity
  8
0
100
AcDbLine
 10
600.332662879
 20
102.2595052805
 30
0.0
 11
600.332662879
 21
162.5246412805
 31
0.0
  0
LINE
  5
68E
330
2
100
AcDbEntity
  8
0
100
AcDbLine
 10
594.332662879
 20
80.9373462805
 30
0.0
 11
594.332662879
 21
203.9719912805
 31
0.0
  0
LINE
  5
68F
330
2
100
AcDbEntity
  8
0
100
AcDbLine
 10
504.332866879
 20
214.4546722805
 30
0.0
 11
504.332866879
 21
70.4546452805
 31
0.0
  0
LINE
  5
690
330
2
100
AcDbEntity
  8
CENTER
100
AcDbLine
 10
562.332662879
 20
62.4546642805
 30
0.0
 11
562.332662879
 21
215.5131170256
 31
0.0
  0
LINE
  5
691
330
2
100
AcDbEntity
  8
0
100
AcDbLine
 10
514.414667879
 20
70.4546852805
 30
0.0
 11
504.332866879
 21
70.4546852805
 31
0.0
  0
LINE
  5
692
330
2
100
AcDbEntity
  8
HIDS
  6
sekkei_H
100
AcDbLine
 10
504.332866879
 20
76.9546452805
 30
0.0
 11
516.332866879
 21
76.9546452805
 31
0.0
  0
LINE
  5
694
330
2
100
AcDbEntity
  8
HIDS
  6
sekkei_H
100
AcDbLine
 10
504.332866879
 20
87.9546452805
 30
0.0
 11
516.332866879
 21
87.9546452805
 31
0.0
  0
LINE
  5
695
330
2
100
AcDbEntity
  8
CENTER
100
AcDbLine
 10
499.332866879
 20
82.4546452805
 30
0.0
 11
521.332866879
 21
82.4546452805
 31
0.0
  0
ARC
  5
696
330
2
100
AcDbEntity
  8
0
100
AcDbCircle
 10
562.332662879
 20
129.9546642805
 30
0.0
 40
57.5
100
AcDbArc
 50
242.540298
 51
299.460602
  0
ARC
  5
697
330
2
100
AcDbEntity
  8
0
100
AcDbCircle
 10
562.332662879
 20
129.9546642805
 30
0.0
 40
57.25
100
AcDbArc
 50
243.004898
 51
298.995514
  0
LINE
  5
698
330
2
100
AcDbEntity
  8
0
100
AcDbLine
 10
518.241867879
 20
102.4546642805
 30
0.0
 11
592.942465879
 21
102.4546642805
 31
0.0
  0
LINE
  5
699
330
2
100
AcDbEntity
  8
0
100
AcDbLine
 10
593.350469879
 20
79.9375252805
 30
0.0
 11
518.298067879
 21
78.6272052805
 31
0.0
  0
ARC
  5
69A
330
2
100
AcDbEntity
  8
0
100
AcDbCircle
 10
520.836466879
 20
75.6710462805
 30
0.0
 40
3.0
100
AcDbArc
 50
91.000526
 51
165.000305
  0
LINE
  5
69B
330
2
100
AcDbEntity
  8
0
100
AcDbLine
 10
516.829466879
 20
72.3076442805
 30
0.0
 11
517.938665879
 21
76.4474852805
 31
0.0
  0
ARC
  5
69C
330
2
100
AcDbEntity
  8
0
100
AcDbCircle
 10
514.414667879
 20
72.9546852805
 30
0.0
 40
2.5
100
AcDbArc
 50
270.0
 51
345.000214
  0
ARC
  5
69D
330
2
100
AcDbEntity
  8
0
100
AcDbCircle
 10
514.332866879
 20
72.4546852805
 30
0.0
 40
2.0
100
AcDbArc
 50
270.0
 51
0.0
  0
ARC
  5
69E
330
2
100
AcDbEntity
  8
0
100
AcDbCircle
 10
518.332866879
 20
76.6275262805
 30
0.0
 40
2.0
100
AcDbArc
 50
91.000633
 51
180.0
  0
ARC
  5
69F
330
2
100
AcDbEntity
  8
0
100
AcDbCircle
 10
597.332662879
 20
96.0498262805
 30
0.0
 40
3.0
100
AcDbArc
 50
104.931801
 51
180.0
  0
ARC
  5
6A0
330
2
100
AcDbEntity
  8
0
100
AcDbCircle
 10
595.781667879
 20
77.4546452805
 30
0.0
 40
5.0
100
AcDbArc
 50
90.0
 51
106.842003
  0
ARC
  5
6A1
330
2
100
AcDbEntity
  8
0
100
AcDbCircle
 10
562.332662879
 20
129.9546642805
 30
0.0
 40
57.5
100
AcDbArc
 50
303.815613
 51
303.997314
  0
ARC
  5
6A2
330
2
100
AcDbEntity
  8
0
100
AcDbCircle
 10
562.332662879
 20
129.9546642805
 30
0.0
 40
57.499821
100
AcDbArc
 50
303.815704
 51
303.996307
  0
ARC
  5
6A3
330
2
100
AcDbEntity
  8
0
100
AcDbCircle
 10
593.332662879
 20
80.9373462805
 30
0.0
 40
1.0
100
AcDbArc
 50
271.000427
 51
0.0
  0
LINE
  5
6A4
330
2
100
AcDbEntity
  8
0
100
AcDbLine
 10
598.105863879
 20
99.3608272805
 30
0.0
 11
596.559866879
 21
98.9485272805
 31
0.0
  0
ARC
  5
6A5
330
2
100
AcDbEntity
  8
0
100
AcDbCircle
 10
597.332662879
 20
102.2595052805
 30
0.0
 40
3.0
100
AcDbArc
 50
284.93158
 51
0.0
  0
LINE
  5
6A6
330
2
100
AcDbEntity
  8
HIDS
  6
sekkei_H
100
AcDbLine
 10
504.332866879
 20
196.9546722805
 30
0.0
 11
516.332866879
 21
196.9546722805
 31
0.0
  0
LINE
  5
6A7
330
2
100
AcDbEntity
  8
HIDS
  6
sekkei_H
100
AcDbLine
 10
504.332866879
 20
207.9546722805
 30
0.0
 11
516.332866879
 21
207.9546722805
 31
0.0
  0
LINE
  5
6A8
330
2
100
AcDbEntity
  8
CENTER
100
AcDbLine
 10
499.332866879
 20
202.4546722805
 30
0.0
 11
521.332866879
 21
202.4546722805
 31
0.0
  0
LINE
  5
6A9
330
2
100
AcDbEntity
  8
0
100
AcDbLine
 10
514.414667879
 20
214.4546722805
 30
0.0
 11
504.332866879
 21
214.4546722805
 31
0.0
  0
LINE
  5
6AC
330
2
100
AcDbEntity
  8
0
100
AcDbLine
 10
518.241867879
 20
182.4546422805
 30
0.0
 11
593.265463879
 21
182.4546422805
 31
0.0
  0
ARC
  5
6AD
330
2
100
AcDbEntity
  8
0
100
AcDbCircle
 10
603.332662879
 20
127.9912702805
 30
0.0
 40
3.0
100
AcDbArc
 50
104.876099
 51
180.0
  0
LINE
  5
6AE
330
2
100
AcDbEntity
  8
0
100
AcDbLine
 10
593.350469879
 20
204.9718382805
 30
0.0
 11
518.298067879
 21
206.2815462805
 31
0.0
  0
ARC
  5
6AF
330
2
100
AcDbEntity
  8
0
100
AcDbCircle
 10
520.836666879
 20
209.2377382805
 30
0.0
 40
3.0
100
AcDbArc
 50
195.000702
 51
269.000488
  0
LINE
  5
6B0
330
2
100
AcDbEntity
  8
0
100
AcDbLine
 10
516.829466879
 20
212.6017522805
 30
0.0
 11
517.938865879
 21
208.4612182805
 31
0.0
  0
ARC
  5
6B1
330
2
100
AcDbEntity
  8
0
100
AcDbCircle
 10
518.332866879
 20
208.2812712805
 30
0.0
 40
2.0
100
AcDbArc
 50
180.0
 51
269.00061
  0
ARC
  5
6B2
330
2
100
AcDbEntity
  8
0
100
AcDbCircle
 10
514.414667879
 20
211.9546722805
 30
0.0
 40
2.5
100
AcDbArc
 50
15.00076
 51
90.0
  0
ARC
  5
6B3
330
2
100
AcDbEntity
  8
0
100
AcDbCircle
 10
514.332866879
 20
212.4546722805
 30
0.0
 40
2.0
100
AcDbArc
 50
0.0
 51
90.0
  0
ARC
  5
6B4
330
2
100
AcDbEntity
  8
0
100
AcDbCircle
 10
597.332662879
 20
194.5118322805
 30
0.0
 40
3.0
100
AcDbArc
 50
180.0
 51
255.124603
  0
ARC
  5
6B5
330
2
100
AcDbEntity
  8
0
100
AcDbCircle
 10
593.332662879
 20
203.9719912805
 30
0.0
 40
1.0
100
AcDbArc
 50
0.0
 51
89.000359
  0
ARC
  5
6B6
330
2
100
AcDbEntity
  8
0
100
AcDbCircle
 10
562.332662879
 20
129.9546642805
 30
0.0
 40
57.5
100
AcDbArc
 50
326.003231
 51
19.823891
  0
ARC
  5
6B7
330
2
100
AcDbEntity
  8
0
100
AcDbCircle
 10
562.332662879
 20
129.9546642805
 30
0.0
 40
57.25
100
AcDbArc
 50
327.498112
 51
19.91411
  0
LINE
  5
6B8
330
2
100
AcDbEntity
  8
0
100
AcDbLine
 10
727.0658789349
 20
105.0744272805
 30
0.0
 11
727.0658789349
 21
179.8349062805
 31
0.0
  0
LINE
  5
6B9
330
2
100
AcDbEntity
  8
0
100
AcDbLine
 10
722.5658789349
 20
202.4546722805
 30
0.0
 11
722.5658789349
 21
82.4546642805
 31
0.0
  0
LINE
  5
6BA
330
2
100
AcDbEntity
  8
0
100
AcDbLine
 10
749.6772839349
 20
164.4175252805
 30
0.0
 11
743.9806899349
 21
121.4519942805
 31
0.0
  0
LINE
  5
6BB
330
2
100
AcDbEntity
  8
0
100
AcDbLine
 10
748.0912849349
 20
164.6278212805
 30
0.0
 11
742.3944769349
 21
121.6622982805
 31
0.0
  0
LINE
  5
6BC
330
2
100
AcDbEntity
  8
0
100
AcDbLine
 10
729.5658789349
 20
164.8153442805
 30
0.0
 11
729.5658789349
 21
120.0940002805
 31
0.0
  0
ARC
  5
6BD
330
2
100
AcDbEntity
  8
0
100
AcDbCircle
 10
614.832662879
 20
96.5060062805
 30
0.0
 40
5.0
100
AcDbArc
 50
147.498093
 51
180.0
  0
ARC
  5
6BE
330
2
100
AcDbEntity
  8
0
100
AcDbCircle
 10
604.832662879
 20
87.4546452805
 30
0.0
 40
5.0
100
AcDbArc
 50
270.0
 51
0.0
  0
LINE
  5
6BF
330
2
100
AcDbEntity
  8
0
100
AcDbLine
 10
609.832662879
 20
87.4546452805
 30
0.0
 11
609.832662879
 21
96.5060062805
 31
0.0
  0
ARC
  5
6C0
330
2
100
AcDbEntity
  8
0
100
AcDbCircle
 10
759.5658949349
 20
120.0939922805
 30
0.0
 40
30.0
100
AcDbArc
 50
180.0
 51
228.189606
  0
LINE
  5
6C1
330
2
100
AcDbEntity
  8
0
100
AcDbLine
 10
758.2816849349
 20
80.8437042805
 30
0.0
 11
729.2196879349
 21
100.9634652805
 31
0.0
  0
ARC
  5
6C2
330
2
100
AcDbEntity
  8
0
100
AcDbCircle
 10
734.5658789349
 20
82.4546642805
 30
0.0
 40
12.0
100
AcDbArc
 50
180.0
 51
270.0
  0
CIRCLE
  5
6C3
330
2
100
AcDbEntity
  8
0
100
AcDbCircle
 10
734.5658789349
 20
82.4546642805
 30
0.0
 40
5.5
  0
ARC
  5
6C5
330
2
100
AcDbEntity
  8
0
100
AcDbCircle
 10
732.0656809349
 20
105.0744652805
 30
0.0
 40
5.0
100
AcDbArc
 50
180.0
 51
235.305206
  0
ARC
  5
6C6
330
2
100
AcDbEntity
  8
0
100
AcDbCircle
 10
762.8158949349
 20
118.9546682805
 30
0.0
 40
19.0
100
AcDbArc
 50
172.447296
 51
270.0
  0
ARC
  5
6C7
330
2
100
AcDbEntity
  8
0
100
AcDbCircle
 10
762.8158949349
 20
118.9546682805
 30
0.0
 40
20.6
100
AcDbArc
 50
172.447296
 51
270.0
  0
LINE
  5
6C9
330
2
100
AcDbEntity
  8
0
100
AcDbLine
 10
759.5658949349
 20
78.6142262805
 30
0.0
 11
759.5658949349
 21
71.7936442805
 31
0.0
  0
ARC
  5
6CA
330
2
100
AcDbEntity
  8
0
100
AcDbCircle
 10
761.1276929349
 20
84.9546642805
 30
0.0
 40
5.0
100
AcDbArc
 50
235.304794
 51
270.0
  0
ARC
  5
6E7
330
2
100
AcDbEntity
  8
0
100
AcDbCircle
 10
607.332662879
 20
185.6474972805
 30
0.0
 40
3.0
100
AcDbArc
 50
0.0
 51
75.124413
  0
LINE
  5
6E8
330
2
100
AcDbEntity
  8
0
100
AcDbLine
 10
620.332662879
 20
157.4546642805
 30
0.0
 11
652.332662879
 21
157.4546642805
 31
0.0
  0
LINE
  5
6E9
330
2
100
AcDbEntity
  8
0
100
AcDbLine
 10
620.332662879
 20
163.4546422805
 30
0.0
 11
652.332662879
 21
163.4546422805
 31
0.0
  0
LINE
  5
6EA
330
2
100
AcDbEntity
  8
0
100
AcDbLine
 10
612.332662879
 20
149.4546642805
 30
0.0
 11
652.332662879
 21
149.4546642805
 31
0.0
  0
LINE
  5
6EB
330
2
100
AcDbEntity
  8
0
100
AcDbLine
 10
612.332662879
 20
171.4546422805
 30
0.0
 11
652.332662879
 21
171.4546422805
 31
0.0
  0
ARC
  5
6EC
330
2
100
AcDbEntity
  8
0
100
AcDbCircle
 10
620.332662879
 20
160.4546642805
 30
0.0
 40
3.0
100
AcDbArc
 50
90.0
 51
270.0
  0
LINE
  5
6ED
330
2
100
AcDbEntity
  8
0
100
AcDbLine
 10
612.332662879
 20
172.9546422805
 30
0.0
 11
612.332662879
 21
147.9546642805
 31
0.0
  0
LINE
  5
6EE
330
2
100
AcDbEntity
  8
0
100
AcDbLine
 10
610.332662879
 20
135.2618162805
 30
0.0
 11
610.332662879
 21
185.6474972805
 31
0.0
  0
ARC
  5
6EF
330
2
100
AcDbEntity
  8
0
100
AcDbCircle
 10
607.332662879
 20
135.2618162805
 30
0.0
 40
3.0
100
AcDbArc
 50
284.875793
 51
0.0
  0
LINE
  5
6F0
330
2
100
AcDbEntity
  8
0
100
AcDbLine
 10
610.332662879
 20
147.9546642805
 30
0.0
 11
612.332662879
 21
147.9546642805
 31
0.0
  0
LINE
  5
6F1
330
2
100
AcDbEntity
  8
0
100
AcDbLine
 10
610.332662879
 20
172.9546422805
 30
0.0
 11
612.332662879
 21
172.9546422805
 31
0.0
  0
LINE
  5
6F2
330
2
100
AcDbEntity
  8
0
100
AcDbLine
 10
652.332662879
 20
149.4546642805
 30
0.0
 11
652.332662879
 21
171.4546422805
 31
0.0
  0
LINE
  5
6F3
330
2
100
AcDbEntity
  8
0
100
AcDbLine
 10
729.2196879349
 20
183.9458682805
 30
0.0
 11
758.2816849349
 21
204.0656192805
 31
0.0
  0
ARC
  5
6F4
330
2
100
AcDbEntity
  8
0
100
AcDbCircle
 10
759.5658949349
 20
164.8153442805
 30
0.0
 40
30.0
100
AcDbArc
 50
131.810394
 51
180.0
  0
ARC
  5
6F5
330
2
100
AcDbEntity
  8
0
100
AcDbCircle
 10
732.0658789349
 20
179.8349292805
 30
0.0
 40
5.0
100
AcDbArc
 50
124.695503
 51
180.0
  0
LINE
  5
6F6
330
2
100
AcDbEntity
  8
0
100
AcDbLine
 10
766.0658949349
 20
163.4546642805
 30
0.0
 11
766.0658949349
 21
157.4546642805
 31
0.0
  0
LINE
  5
6F7
330
2
100
AcDbEntity
  8
0
100
AcDbLine
 10
772.0658949349
 20
163.4546642805
 30
0.0
 11
772.0658949349
 21
157.4546642805
 31
0.0
  0
LINE
  5
6F8
330
2
100
AcDbEntity
  8
0
100
AcDbLine
 10
766.0658949349
 20
157.4546642805
 30
0.0
 11
772.0658949349
 21
157.4546642805
 31
0.0
  0
LINE
  5
6F9
330
2
100
AcDbEntity
  8
0
100
AcDbLine
 10
766.0658949349
 20
163.4546642805
 30
0.0
 11
772.0658949349
 21
163.4546642805
 31
0.0
  0
ARC
  5
6FA
330
2
100
AcDbEntity
  8
0
100
AcDbCircle
 10
734.5658789349
 20
202.4546722805
 30
0.0
 40
12.0
100
AcDbArc
 50
90.0
 51
180.0
  0
CIRCLE
  5
6FB
330
2
100
AcDbEntity
  8
0
100
AcDbCircle
 10
734.5658789349
 20
202.4546722805
 30
0.0
 40
5.5
  0
LINE
  5
6FE
330
2
100
AcDbEntity
  8
0
100
AcDbLine
 10
759.5658949349
 20
213.7096312805
 30
0.0
 11
759.5658949349
 21
205.5129452805
 31
0.0
  0
ARC
  5
6FF
330
2
100
AcDbEntity
  8
0
100
AcDbCircle
 10
761.1276929349
 20
199.9546722805
 30
0.0
 40
5.0
100
AcDbArc
 50
90.0
 51
124.695396
  0
LINE
  5
701
330
2
100
AcDbEntity
  8
0
100
AcDbLine
 10
409.4423499349
 20
402.1689672805
 30
0.0
 11
411.4260379349
 21
326.4319672805
 31
0.0
  0
LINE
  5
702
330
2
100
AcDbEntity
  8
0
100
AcDbLine
 10
375.9040349349
 20
403.6296602805
 30
0.0
 11
375.9040349349
 21
326.4319672805
 31
0.0
  0
LINE
  5
703
330
2
100
AcDbEntity
  8
0
100
AcDbLine
 10
366.4870429349
 20
461.6296602805
 30
0.0
 11
366.4870429349
 21
426.6296602805
 31
0.0
  0
LINE
  5
704
330
2
100
AcDbEntity
  8
0
100
AcDbLine
 10
369.4040349349
 20
426.6296602805
 30
0.0
 11
369.4040349349
 21
461.6296602805
 31
0.0
  0
ARC
  5
705
330
2
100
AcDbEntity
  8
0
100
AcDbCircle
 10
407.9427469349
 20
402.1296602805
 30
0.0
 40
1.5
100
AcDbArc
 50
1.500198
 51
90.0
  0
ARC
  5
706
330
2
100
AcDbEntity
  8
0
100
AcDbCircle
 10
395.5551889349
 20
406.6296602805
 30
0.0
 40
3.0
100
AcDbArc
 50
194.875682
 51
270.0
  0
ARC
  5
707
330
2
100
AcDbEntity
  8
0
100
AcDbCircle
 10
381.0968759349
 20
416.6296602805
 30
0.0
 40
3.0
100
AcDbArc
 50
14.875687
 51
90.0
  0
LINE
  5
708
330
2
100
AcDbEntity
  8
0
100
AcDbLine
 10
386.0602849349
 20
409.6296602805
 30
0.0
 11
383.9963509349
 21
417.3998322805
 31
0.0
  0
LINE
  5
709
330
2
100
AcDbEntity
  8
0
100
AcDbLine
 10
386.0602849349
 20
409.6296602805
 30
0.0
 11
389.3471509349
 21
409.6296602805
 31
0.0
  0
ARC
  5
70A
330
2
100
AcDbEntity
  8
0
100
AcDbCircle
 10
389.3471509349
 20
406.6296602805
 30
0.0
 40
3.0
100
AcDbArc
 50
14.875687
 51
90.0
  0
LINE
  5
70B
330
2
100
AcDbEntity
  8
0
100
AcDbLine
 10
392.2465949349
 20
407.3998322805
 30
0.0
 11
392.6557439349
 21
405.8594882805
 31
0.0
  0
LINE
  5
70C
330
2
100
AcDbEntity
  8
0
100
AcDbLine
 10
366.9040349349
 20
421.6296602805
 30
0.0
 11
366.9040349349
 21
426.6296602805
 31
0.0
  0
LINE
  5
70D
330
2
100
AcDbEntity
  8
0
100
AcDbLine
 10
366.4870429349
 20
426.6296602805
 30
0.0
 11
369.4040349349
 21
426.6296602805
 31
0.0
  0
LINE
  5
70E
330
2
100
AcDbEntity
  8
0
100
AcDbLine
 10
368.4040349349
 20
419.6296602805
 30
0.0
 11
368.4040349349
 21
421.6296602805
 31
0.0
  0
LINE
  5
70F
330
2
100
AcDbEntity
  8
CENTER
100
AcDbLine
 10
400.9041269349
 20
308.6296602805
 30
0.0
 11
400.9041269349
 21
330.6296602805
 31
0.0
  0
LINE
  5
710
330
2
100
AcDbEntity
  8
HIDS
  6
sekkei_H
100
AcDbLine
 10
406.4041269349
 20
313.6296602805
 30
0.0
 11
406.4041269349
 21
325.6296602805
 31
0.0
  0
LINE
  5
711
330
2
100
AcDbEntity
  8
0
100
AcDbLine
 10
412.9040509349
 20
313.6296602805
 30
0.0
 11
412.6152469349
 21
324.6558442805
 31
0.0
  0
ARC
  5
712
330
2
100
AcDbEntity
  8
0
100
AcDbCircle
 10
412.4254429349
 20
326.4581512805
 30
0.0
 40
1.0
100
AcDbArc
 50
181.5004
 51
246.108803
  0
ARC
  5
713
330
2
100
AcDbEntity
  8
0
100
AcDbCircle
 10
411.6155369349
 20
324.6296602805
 30
0.0
 40
1.0
100
AcDbArc
 50
1.500107
 51
90.0
  0
LINE
  5
714
330
2
100
AcDbEntity
  8
HIDS
  6
sekkei_H
100
AcDbLine
 10
395.4041269349
 20
313.6296602805
 30
0.0
 11
395.4041269349
 21
325.6296602805
 31
0.0
  0
LINE
  5
715
330
2
100
AcDbEntity
  8
CENTER
100
AcDbLine
 10
1078.8158949349
 20
118.9546642805
 30
0.0
 11
811.5658949349
 21
118.9546642805
 31
0.0
  0
LINE
  5
716
330
2
100
AcDbEntity
  8
0
100
AcDbLine
 10
1010.3158949349
 20
88.7056872805
 30
0.0
 11
904.3158949349
 21
88.7056872805
 31
0.0
  0
LINE
  5
717
330
2
100
AcDbEntity
  8
0
100
AcDbLine
 10
1010.3158949349
 20
149.2036422805
 30
0.0
 11
904.3158949349
 21
149.2036422805
 31
0.0
  0
LINE
  5
718
330
2
100
AcDbEntity
  8
0
100
AcDbLine
 10
1010.3158949349
 20
80.9546852805
 30
0.0
 11
896.3158949349
 21
80.9546852805
 31
0.0
  0
LINE
  5
719
330
2
100
AcDbEntity
  8
0
100
AcDbLine
 10
1010.3158949349
 20
156.9546422805
 30
0.0
 11
896.3158949349
 21
156.9546422805
 31
0.0
  0
LINE
  5
71A
330
2
100
AcDbEntity
  8
0
100
AcDbLine
 10
896.3158949349
 20
156.9546642805
 30
0.0
 11
896.3158949349
 21
80.9546642805
 31
0.0
  0
LINE
  5
71B
330
2
100
AcDbEntity
  8
0
100
AcDbLine
 10
852.3158949349
 20
186.4546722805
 30
0.0
 11
852.3158949349
 21
89.0420102805
 31
0.0
  0
LINE
  5
71C
330
2
100
AcDbEntity
  8
0
100
AcDbLine
 10
904.3158949349
 20
154.9546422805
 30
0.0
 11
904.3158949349
 21
82.9546642805
 31
0.0
  0
LINE
  5
71D
330
2
100
AcDbEntity
  8
0
100
AcDbLine
 10
844.3158949349
 20
187.4546722805
 30
0.0
 11
844.3158949349
 21
72.4546642805
 31
0.0
  0
LINE
  5
71E
330
2
100
AcDbEntity
  8
0
100
AcDbLine
 10
844.3158949349
 20
187.4547792805
 30
0.0
 11
844.3158949349
 21
72.4547792805
 31
0.0
  0
LINE
  5
71F
330
2
100
AcDbEntity
  8
0
100
AcDbLine
 10
837.3158949349
 20
80.2045652805
 30
0.0
 11
837.3158949349
 21
175.4546642805
 31
0.0
  0
LINE
  5
720
330
2
100
AcDbEntity
  8
0
100
AcDbLine
 10
815.1508859349
 20
121.4519562805
 30
0.0
 11
809.4542919349
 21
164.4174862805
 31
0.0
  0
LINE
  5
721
330
2
100
AcDbEntity
  8
0
100
AcDbLine
 10
816.7370979349
 20
121.6622602805
 30
0.0
 11
811.0402899349
 21
164.6277682805
 31
0.0
  0
LINE
  5
722
330
2
100
AcDbEntity
  8
0
100
AcDbLine
 10
829.5658949349
 20
163.9546642805
 30
0.0
 11
829.5658949349
 21
120.0939772805
 31
0.0
  0
LINE
  5
723
330
2
100
AcDbEntity
  8
CENTER
100
AcDbLine
 10
779.5658949349
 20
224.4546722805
 30
0.0
 11
779.5658949349
 21
60.4546652805
 31
0.0
  0
LINE
  5
724
330
2
100
AcDbEntity
  8
0
100
AcDbLine
 10
852.3158949349
 20
99.3546662805
 30
0.0
 11
896.3158949349
 21
99.3546662805
 31
0.0
  0
LINE
  5
725
330
2
100
AcDbEntity
  8
0
100
AcDbLine
 10
852.3158949349
 20
109.5546672805
 30
0.0
 11
896.3158949349
 21
109.5546672805
 31
0.0
  0
LINE
  5
726
330
2
100
AcDbEntity
  8
0
100
AcDbLine
 10
844.3158949349
 20
79.1387852805
 30
0.0
 11
896.3158949349
 21
80.9546642805
 31
0.0
  0
LINE
  5
727
330
2
100
AcDbEntity
  8
0
100
AcDbLine
 10
824.2388989349
 20
95.9546642805
 30
0.0
 11
832.3158949349
 21
95.9546642805
 31
0.0
  0
ARC
  5
728
330
2
100
AcDbEntity
  8
0
100
AcDbCircle
 10
824.5658949349
 20
82.4546642805
 30
0.0
 40
12.0
100
AcDbArc
 50
270.0
 51
358.060608
  0
CIRCLE
  5
729
330
2
100
AcDbEntity
  8
0
100
AcDbCircle
 10
824.5658949349
 20
82.4546642805
 30
0.0
 40
5.5
  0
ARC
  5
72B
330
2
100
AcDbEntity
  8
0
100
AcDbCircle
 10
799.5658949349
 20
120.0939772805
 30
0.0
 40
30.0
100
AcDbArc
 50
311.810299
 51
0.0
  0
ARC
  5
72C
330
2
100
AcDbEntity
  8
0
100
AcDbCircle
 10
796.3158949349
 20
118.9546682805
 30
0.0
 40
19.0
100
AcDbArc
 50
270.0
 51
7.552399
  0
ARC
  5
72D
330
2
100
AcDbEntity
  8
0
100
AcDbCircle
 10
796.3158949349
 20
118.9546682805
 30
0.0
 40
20.6
100
AcDbArc
 50
270.0
 51
7.552597
  0
LINE
  5
72E
330
2
100
AcDbEntity
  8
0
100
AcDbLine
 10
821.3926769349
 20
95.0656262805
 30
0.0
 11
800.8498909349
 21
80.8437042805
 31
0.0
  0
LINE
  5
72F
330
2
100
AcDbEntity
  8
0
100
AcDbLine
 10
799.5658949349
 20
78.6142262805
 30
0.0
 11
799.5658949349
 21
71.7936442805
 31
0.0
  0
ARC
  5
730
330
2
100
AcDbEntity
  8
0
100
AcDbCircle
 10
798.0038829349
 20
84.9546642805
 30
0.0
 40
5.0
100
AcDbArc
 50
270.0
 51
304.69519
  0
ARC
  5
732
330
2
100
AcDbEntity
  8
0
100
AcDbCircle
 10
824.2388989349
 20
90.9546642805
 30
0.0
 40
5.0
100
AcDbArc
 50
90.0
 51
124.695396
  0
LINE
  5
755
330
2
100
AcDbEntity
  8
0
100
AcDbLine
 10
851.1908339349
 20
86.8006652805
 30
0.0
 11
844.3158949349
 21
86.8006652805
 31
0.0
  0
LINE
  5
756
330
2
100
AcDbEntity
  8
0
100
AcDbLine
 10
849.8158949349
 20
72.4546642805
 30
0.0
 11
844.3158949349
 21
72.4546642805
 31
0.0
  0
ARC
  5
757
330
2
100
AcDbEntity
  8
0
100
AcDbCircle
 10
839.3158949349
 20
84.4272042805
 30
0.0
 40
2.0
100
AcDbArc
 50
180.0
 51
270.315186
  0
LINE
  5
758
330
2
100
AcDbEntity
  8
0
100
AcDbLine
 10
836.7250739349
 20
82.0498052805
 30
0.0
 11
836.5222849349
 21
82.0498052805
 31
0.0
  0
LINE
  5
759
330
2
100
AcDbEntity
  8
0
100
AcDbLine
 10
837.2238839349
 20
81.5830652805
 30
0.0
 11
837.7534859349
 21
73.6381462805
 31
0.0
  0
LINE
  5
75A
330
2
100
AcDbEntity
  8
0
100
AcDbLine
 10
838.7512889349
 20
72.7046642805
 30
0.0
 11
844.3158949349
 21
72.7046642805
 31
0.0
  0
ARC
  5
75B
330
2
100
AcDbEntity
  8
0
100
AcDbCircle
 10
838.7512889349
 20
73.7046642805
 30
0.0
 40
1.0
100
AcDbArc
 50
183.814194
 51
270.0
  0
ARC
  5
75C
330
2
100
AcDbEntity
  8
0
100
AcDbCircle
 10
836.7250739349
 20
81.5498052805
 30
0.0
 40
0.5
100
AcDbArc
 50
3.81418
 51
90.0
  0
ARC
  5
75D
330
2
100
AcDbEntity
  8
0
100
AcDbCircle
 10
832.3158949349
 20
90.9546452805
 30
0.0
 40
5.0
100
AcDbArc
 50
0.0
 51
90.0
  0
LINE
  5
75E
330
2
100
AcDbEntity
  8
0
100
AcDbLine
 10
839.3266979349
 20
82.4272252805
 30
0.0
 11
844.3158949349
 21
82.4546662805
 31
0.0
  0
ARC
  5
75F
330
2
100
AcDbEntity
  8
0
100
AcDbCircle
 10
849.8158949349
 20
74.9546642805
 30
0.0
 40
2.5
100
AcDbArc
 50
270.0
 51
0.0
  0
ARC
  5
760
330
2
100
AcDbEntity
  8
0
100
AcDbCircle
 10
854.8158949349
 20
77.0039292805
 30
0.0
 40
2.5
100
AcDbArc
 50
92.0
 51
180.0
  0
LINE
  5
761
330
2
100
AcDbEntity
  8
0
100
AcDbLine
 10
852.3158949349
 20
74.9546642805
 30
0.0
 11
852.3158949349
 21
77.0039292805
 31
0.0
  0
LINE
  5
762
330
2
100
AcDbEntity
  8
0
100
AcDbLine
 10
837.7688979349
 20
97.9946652805
 30
0.0
 11
844.3158949349
 21
97.9946652805
 31
0.0
  0
ARC
  5
763
330
2
100
AcDbEntity
  8
0
100
AcDbCircle
 10
902.3158949349
 20
82.9546852805
 30
0.0
 40
2.0
100
AcDbArc
 50
270.0
 51
0.0
  0
LINE
  5
764
330
2
100
AcDbEntity
  8
0
100
AcDbLine
 10
853.7290419349
 20
170.2724672805
 30
0.0
 11
879.6724619349
 21
157.7480602805
 31
0.0
  0
LINE
  5
765
330
2
100
AcDbEntity
  8
0
100
AcDbLine
 10
854.7286449349
 20
158.4069272805
 30
0.0
 11
896.3158949349
 21
156.9546642805
 31
0.0
  0
LINE
  5
767
330
2
100
AcDbEntity
  8
0
100
AcDbLine
 10
829.9118719349
 20
183.9458682805
 30
0.0
 11
800.8498909349
 21
204.0656192805
 31
0.0
  0
LINE
  5
768
330
2
100
AcDbEntity
  8
0
100
AcDbLine
 10
836.5658949349
 20
202.4546262805
 30
0.0
 11
836.5658949349
 21
187.2046722805
 31
0.0
  0
ARC
  5
769
330
2
100
AcDbEntity
  8
0
100
AcDbCircle
 10
826.7664869349
 20
192.2046722805
 30
0.0
 40
5.0
100
AcDbArc
 50
235.304794
 51
270.0
  0
ARC
  5
76A
330
2
100
AcDbEntity
  8
0
100
AcDbCircle
 10
799.5658949349
 20
164.8153672805
 30
0.0
 40
30.0
100
AcDbArc
 50
358.328796
 51
48.18961
  0
ARC
  5
76B
330
2
100
AcDbEntity
  8
0
100
AcDbCircle
 10
854.8158949349
 20
160.9054012805
 30
0.0
 40
2.5
100
AcDbArc
 50
180.0
 51
268.0
  0
LINE
  5
76C
330
2
100
AcDbEntity
  8
0
100
AcDbLine
 10
851.3158949349
 20
187.4546722805
 30
0.0
 11
844.3158949349
 21
187.4546722805
 31
0.0
  0
LINE
  5
76D
330
2
100
AcDbEntity
  8
0
100
AcDbLine
 10
837.7688979349
 20
161.9146642805
 30
0.0
 11
844.3158949349
 21
161.9146642805
 31
0.0
  0
LINE
  5
76E
330
2
100
AcDbEntity
  8
0
100
AcDbLine
 10
834.0658949349
 20
177.4546642805
 30
0.0
 11
844.3158949349
 21
177.4546642805
 31
0.0
  0
LINE
  5
76F
330
2
100
AcDbEntity
  8
0
100
AcDbLine
 10
844.3158949349
 20
187.2046722805
 30
0.0
 11
826.7666999349
 21
187.2046722805
 31
0.0
  0
ARC
  5
770
330
2
100
AcDbEntity
  8
0
100
AcDbCircle
 10
827.0658949349
 20
179.8348832805
 30
0.0
 40
5.0
100
AcDbArc
 50
0.0
 51
55.304981
  0
ARC
  5
771
330
2
100
AcDbEntity
  8
0
100
AcDbCircle
 10
834.0658949349
 20
179.4546642805
 30
0.0
 40
2.0
100
AcDbArc
 50
180.0
 51
270.0
  0
LINE
  5
772
330
2
100
AcDbEntity
  8
0
100
AcDbLine
 10
832.0658949349
 20
179.4546642805
 30
0.0
 11
832.0658949349
 21
179.8349062805
 31
0.0
  0
ARC
  5
773
330
2
100
AcDbEntity
  8
0
100
AcDbCircle
 10
839.3158949349
 20
175.4546872805
 30
0.0
 40
2.0
100
AcDbArc
 50
90.0
 51
180.0
  0
ARC
  5
775
330
2
100
AcDbEntity
  8
0
100
AcDbCircle
 10
854.8158949349
 20
172.5238482805
 30
0.0
 40
2.5
100
AcDbArc
 50
180.0
 51
244.230682
  0
ARC
  5
776
330
2
100
AcDbEntity
  8
0
100
AcDbCircle
 10
851.3158949349
 20
186.4546722805
 30
0.0
 40
1.0
100
AcDbArc
 50
0.0
 51
90.0
  0
ARC
  5
777
330
2
100
AcDbEntity
  8
0
100
AcDbCircle
 10
824.5658949349
 20
202.4546722805
 30
0.0
 40
12.0
100
AcDbArc
 50
0.0
 51
90.0
  0
CIRCLE
  5
778
330
2
100
AcDbEntity
  8
0
100
AcDbCircle
 10
824.5658949349
 20
202.4546722805
 30
0.0
 40
5.5
  0
LINE
  5
779
330
2
100
AcDbEntity
  8
CENTER
100
AcDbLine
 10
833.4721449349
 20
202.4546722805
 30
0.0
 11
815.6596449349
 21
202.4546722805
 31
0.0
  0
LINE
  5
77A
330
2
100
AcDbEntity
  8
0
100
AcDbLine
 10
799.5658949349
 20
213.7096312805
 30
0.0
 11
799.5658949349
 21
205.5129452805
 31
0.0
  0
ARC
  5
77B
330
2
100
AcDbEntity
  8
0
100
AcDbCircle
 10
798.0038829349
 20
199.9546722805
 30
0.0
 40
5.0
100
AcDbArc
 50
55.305019
 51
90.0
  0
LINE
  5
77C
330
2
100
AcDbEntity
  8
CENTER
100
AcDbLine
 10
824.5658949349
 20
211.3609222805
 30
0.0
 11
824.5658949349
 21
193.5484222805
 31
0.0
  0
ARC
  5
77D
330
2
100
AcDbEntity
  8
0
100
AcDbCircle
 10
880.7593459349
 20
159.9994342805
 30
0.0
 40
2.5
100
AcDbArc
 50
244.230675
 51
268.0
  0
ARC
  5
77E
330
2
100
AcDbEntity
  8
0
100
AcDbCircle
 10
902.3158949349
 20
154.9546642805
 30
0.0
 40
2.0
100
AcDbArc
 50
0.0
 51
90.0
  0
LINE
  5
77F
330
2
100
AcDbEntity
  8
0
100
AcDbLine
 10
1010.3158949349
 20
80.9546642805
 30
0.0
 11
1010.3158949349
 21
156.9546422805
 31
0.0
  0
LINE
  5
780
330
2
100
AcDbEntity
  8
0
100
AcDbLine
 10
1068.8158949349
 20
83.9546432805
 30
0.0
 11
1068.8158949349
 21
153.9546422805
 31
0.0
  0
LINE
  5
781
330
2
100
AcDbEntity
  8
0
100
AcDbLine
 10
1019.8158949349
 20
78.9546432805
 30
0.0
 11
1019.8158949349
 21
158.9546422805
 31
0.0
  0
LINE
  5
782
330
2
100
AcDbEntity
  8
0
100
AcDbLine
 10
1066.3158949349
 20
94.9546452805
 30
0.0
 11
1019.8158949349
 21
94.9546452805
 31
0.0
  0
LINE
  5
783
330
2
100
AcDbEntity
  8
0
100
AcDbLine
 10
1063.8158949349
 20
78.9546432805
 30
0.0
 11
1019.8158949349
 21
78.9546432805
 31
0.0
  0
LINE
  5
784
330
2
100
AcDbEntity
  8
0
100
AcDbLine
 10
1019.8158949349
 20
88.7056452805
 30
0.0
 11
1010.3158949349
 21
88.7056452805
 31
0.0
  0
LINE
  5
785
330
2
100
AcDbEntity
  8
0
100
AcDbLine
 10
1019.8158949349
 20
80.9546432805
 30
0.0
 11
1010.3158949349
 21
80.9546432805
 31
0.0
  0
ARC
  5
786
330
2
100
AcDbEntity
  8
0
100
AcDbCircle
 10
1063.8158949349
 20
83.9546432805
 30
0.0
 40
5.0
100
AcDbArc
 50
270.0
 51
0.0
  0
LINE
  5
787
330
2
100
AcDbEntity
  8
0
100
AcDbLine
 10
1066.3158949349
 20
144.9546422805
 30
0.0
 11
1019.8158949349
 21
144.9546422805
 31
0.0
  0
LINE
  5
788
330
2
100
AcDbEntity
  8
0
100
AcDbLine
 10
1063.8158949349
 20
158.9546422805
 30
0.0
 11
1019.8158949349
 21
158.9546422805
 31
0.0
  0
LINE
  5
789
330
2
100
AcDbEntity
  8
0
100
AcDbLine
 10
1019.8158949349
 20
149.2036422805
 30
0.0
 11
1010.3158949349
 21
149.2036422805
 31
0.0
  0
LINE
  5
78A
330
2
100
AcDbEntity
  8
HOJO
100
AcDbLine
 10
1016.0159069349
 20
170.0171422805
 30
0.0
 11
1014.2159189349
 21
170.6421422805
 31
0.0
  0
LINE
  5
78B
330
2
100
AcDbEntity
  8
0
100
AcDbLine
 10
1016.8158949349
 20
158.4546422805
 30
0.0
 11
1009.8158949349
 21
158.4546422805
 31
0.0
  0
LINE
  5
78C
330
2
100
AcDbEntity
  8
0
100
AcDbLine
 10
1019.8158949349
 20
156.9546422805
 30
0.0
 11
1010.3158949349
 21
156.9546422805
 31
0.0
  0
LINE
  5
78D
330
2
100
AcDbEntity
  8
0
100
AcDbLine
 10
1009.8158949349
 20
158.4546422805
 30
0.0
 11
1009.8158949349
 21
156.9546422805
 31
0.0
  0
LINE
  5
78E
330
2
100
AcDbEntity
  8
0
100
AcDbLine
 10
1010.6158829349
 20
170.8296422805
 30
0.0
 11
1010.6158829349
 21
158.4546422805
 31
0.0
  0
LINE
  5
78F
330
2
100
AcDbEntity
  8
0
100
AcDbLine
 10
1014.2159189349
 20
172.0796422805
 30
0.0
 11
1014.2159189349
 21
158.4546422805
 31
0.0
  0
LINE
  5
790
330
2
100
AcDbEntity
  8
0
100
AcDbLine
 10
1012.4159309349
 20
171.4546422805
 30
0.0
 11
1012.4159309349
 21
158.4546422805
 31
0.0
  0
LINE
  5
791
330
2
100
AcDbEntity
  8
HOJO
100
AcDbLine
 10
1010.6158829349
 20
170.8296422805
 30
0.0
 11
1012.4148939349
 21
170.3819412805
 31
0.0
  0
LINE
  5
792
330
2
100
AcDbEntity
  8
HOJO
100
AcDbLine
 10
1014.2159189349
 20
172.0796422805
 30
0.0
 11
1012.4159309349
 21
171.4546422805
 31
0.0
  0
LINE
  5
793
330
2
100
AcDbEntity
  8
0
100
AcDbLine
 10
1016.8158949349
 20
158.4546422805
 30
0.0
 11
1016.8158949349
 21
156.9546422805
 31
0.0
  0
LINE
  5
794
330
2
100
AcDbEntity
  8
0
100
AcDbLine
 10
1016.0159069349
 20
170.0171422805
 30
0.0
 11
1016.0159069349
 21
158.4546422805
 31
0.0
  0
ARC
  5
795
330
2
100
AcDbEntity
  8
0
100
AcDbCircle
 10
1063.8158949349
 20
153.9546422805
 30
0.0
 40
5.0
100
AcDbArc
 50
0.0
 51
90.0
  0
LINE
  5
796
330
2
100
AcDbEntity
  8
0
100
AcDbLine
 10
125.1541569349
 20
348.6296602805
 30
0.0
 11
231.1541569349
 21
348.6296602805
 31
0.0
  0
LINE
  5
797
330
2
100
AcDbEntity
  8
0
100
AcDbLine
 10
125.1541569349
 20
394.6296602805
 30
0.0
 11
231.1541569349
 21
394.6296602805
 31
0.0
  0
LINE
  5
798
330
2
100
AcDbEntity
  8
0
100
AcDbLine
 10
125.1541569349
 20
333.6296602805
 30
0.0
 11
239.1541569349
 21
333.6296602805
 31
0.0
  0
LINE
  5
799
330
2
100
AcDbEntity
  8
0
100
AcDbLine
 10
125.1541569349
 20
409.6296302805
 30
0.0
 11
239.1541569349
 21
409.6296302805
 31
0.0
  0
ARC
  5
79A
330
2
100
AcDbEntity
  8
0
100
AcDbCircle
 10
270.3236829349
 20
371.6296602805
 30
0.0
 40
15.0
100
AcDbArc
 50
130.747627
 51
229.252373
  0
LINE
  5
79B
330
2
100
AcDbEntity
  8
0
100
AcDbLine
 10
239.1540349349
 20
409.6296602805
 30
0.0
 11
239.1540349349
 21
333.6296602805
 31
0.0
  0
LINE
  5
79C
330
2
100
AcDbEntity
  8
0
100
AcDbLine
 10
239.1540349349
 20
409.6296602805
 30
0.0
 11
239.1540349349
 21
333.6296602805
 31
0.0
  0
LINE
  5
79D
330
2
100
AcDbEntity
  8
0
100
AcDbLine
 10
283.1540349349
 20
316.6296602805
 30
0.0
 11
283.1540349349
 21
426.6296602805
 31
0.0
  0
ARC
  5
79E
330
2
100
AcDbEntity
  8
0
100
AcDbCircle
 10
240.7196179349
 20
373.2233492805
 30
0.0
 40
65.0
100
AcDbArc
 50
337.957932
 51
19.041382
  0
LINE
  5
79F
330
2
100
AcDbEntity
  8
CENTER
100
AcDbLine
 10
355.9040349349
 20
471.6296602805
 30
0.0
 11
355.9040349349
 21
303.6296602805
 31
0.0
  0
LINE
  5
7A0
330
2
100
AcDbEntity
  8
0
100
AcDbLine
 10
335.9040349349
 20
403.6296602805
 30
0.0
 11
335.9040349349
 21
326.4319672805
 31
0.0
  0
LINE
  5
7A1
330
2
100
AcDbEntity
  8
0
100
AcDbLine
 10
291.1540349349
 20
429.1296602805
 30
0.0
 11
291.1540349349
 21
314.1296602805
 31
0.0
  0
LINE
  5
7A2
330
2
100
AcDbEntity
  8
0
100
AcDbLine
 10
282.2858709349
 20
401.7356482805
 30
0.0
 11
260.5327579349
 21
382.9935212805
 31
0.0
  0
LINE
  5
7A3
330
2
100
AcDbEntity
  8
0
100
AcDbLine
 10
280.7412849349
 20
411.0819002805
 30
0.0
 11
239.1540349349
 21
409.6296602805
 31
0.0
  0
LINE
  5
7A4
330
2
100
AcDbEntity
  8
0
100
AcDbLine
 10
344.9040349349
 20
421.6296602805
 30
0.0
 11
344.9040349349
 21
461.6296602805
 31
0.0
  0
ARC
  5
7A5
330
2
100
AcDbEntity
  8
0
100
AcDbCircle
 10
316.2528819349
 20
406.6296602805
 30
0.0
 40
3.0
100
AcDbArc
 50
270.0
 51
345.124313
  0
LINE
  5
7A6
330
2
100
AcDbEntity
  8
0
100
AcDbLine
 10
343.4040349349
 20
419.6296602805
 30
0.0
 11
343.4040349349
 21
421.6296602805
 31
0.0
  0
ARC
  5
7A7
330
2
100
AcDbEntity
  8
0
100
AcDbCircle
 10
330.7111949349
 20
416.6296602805
 30
0.0
 40
3.0
100
AcDbArc
 50
90.0
 51
165.124329
  0
LINE
  5
7A8
330
2
100
AcDbEntity
  8
0
100
AcDbLine
 10
325.7477849349
 20
409.6296602805
 30
0.0
 11
322.4609509349
 21
409.6296602805
 31
0.0
  0
LINE
  5
7A9
330
2
100
AcDbEntity
  8
0
100
AcDbLine
 10
325.7477849349
 20
409.6296602805
 30
0.0
 11
327.8117499349
 21
417.3998322805
 31
0.0
  0
ARC
  5
7AA
330
2
100
AcDbEntity
  8
0
100
AcDbCircle
 10
322.4609509349
 20
406.6296602805
 30
0.0
 40
3.0
100
AcDbArc
 50
90.0
 51
165.124329
  0
LINE
  5
7AB
330
2
100
AcDbEntity
  8
0
100
AcDbLine
 10
319.5615059349
 20
407.3998322805
 30
0.0
 11
319.1523569349
 21
405.8594882805
 31
0.0
  0
ARC
  5
7AC
330
2
100
AcDbEntity
  8
0
100
AcDbCircle
 10
280.6540349349
 20
403.6296302805
 30
0.0
 40
2.5
100
AcDbArc
 50
310.74762
 51
0.0
  0
ARC
  5
7AD
330
2
100
AcDbEntity
  8
0
100
AcDbCircle
 10
303.8652169349
 20
402.1296602805
 30
0.0
 40
1.5
100
AcDbArc
 50
90.0
 51
178.499664
  0
ARC
  5
7AE
330
2
100
AcDbEntity
  8
0
100
AcDbCircle
 10
302.0084359349
 20
408.6296602805
 30
0.0
 40
5.0
100
AcDbArc
 50
181.0002
 51
270.0
  0
LINE
  5
7AF
330
2
100
AcDbEntity
  8
0
100
AcDbLine
 10
285.6540349349
 20
429.1296602805
 30
0.0
 11
291.1540349349
 21
429.1296602805
 31
0.0
  0
LINE
  5
7B0
330
2
100
AcDbEntity
  8
0
100
AcDbLine
 10
296.6712469349
 20
427.8971472805
 30
0.0
 11
297.0091069349
 21
408.5423802805
 31
0.0
  0
LINE
  5
7B1
330
2
100
AcDbEntity
  8
0
100
AcDbLine
 10
295.6714299349
 20
428.8796602805
 30
0.0
 11
291.1540349349
 21
428.8796602805
 31
0.0
  0
ARC
  5
7B2
330
2
100
AcDbEntity
  8
0
100
AcDbCircle
 10
295.6713389349
 20
427.8796602805
 30
0.0
 40
1.0
100
AcDbArc
 50
1.000702
 51
90.0
  0
LINE
  5
7B3
330
2
100
AcDbEntity
  8
0
100
AcDbLine
 10
296.5144479349
 20
419.1296602805
 30
0.0
 11
291.1540349349
 21
419.1296602805
 31
0.0
  0
ARC
  5
7B4
330
2
100
AcDbEntity
  8
0
100
AcDbCircle
 10
285.6540349349
 20
426.6296602805
 30
0.0
 40
2.5
100
AcDbArc
 50
90.0
 51
180.0
  0
ARC
  5
7B5
330
2
100
AcDbEntity
  8
0
100
AcDbCircle
 10
280.6540349349
 20
413.5804052805
 30
0.0
 40
2.5
100
AcDbArc
 50
272.0
 51
0.0
  0
LINE
  5
7B6
330
2
100
AcDbEntity
  8
0
100
AcDbLine
 10
302.3657359349
 20
402.1689362805
 30
0.0
 11
302.1630379349
 21
394.4296482805
 31
0.0
  0
LINE
  5
7B7
330
2
100
AcDbEntity
  8
0
100
AcDbLine
 10
231.1541569349
 20
407.6296302805
 30
0.0
 11
231.1541569349
 21
394.6296602805
 31
0.0
  0
ARC
  5
7B8
330
2
100
AcDbEntity
  8
0
100
AcDbCircle
 10
233.1541569349
 20
407.6296602805
 30
0.0
 40
2.0
100
AcDbArc
 50
90.0
 51
180.0
  0
LINE
  5
7B9
330
2
100
AcDbEntity
  8
0
100
AcDbLine
 10
282.2858709349
 20
341.5236732805
 30
0.0
 11
260.5327579349
 21
360.2657692805
 31
0.0
  0
LINE
  5
7BA
330
2
100
AcDbEntity
  8
0
100
AcDbLine
 10
280.7412849349
 20
332.1773902805
 30
0.0
 11
239.1540349349
 21
333.6296602805
 31
0.0
  0
LINE
  5
7BB
330
2
100
AcDbEntity
  8
CENTER
100
AcDbLine
 10
310.9039739349
 20
308.6296602805
 30
0.0
 11
310.9039739349
 21
330.6296602805
 31
0.0
  0
LINE
  5
7BC
330
2
100
AcDbEntity
  8
HIDS
  6
sekkei_H
100
AcDbLine
 10
316.4039739349
 20
313.6296602805
 30
0.0
 11
316.4039739349
 21
325.6296602805
 31
0.0
  0
LINE
  5
7BD
330
2
100
AcDbEntity
  8
0
100
AcDbLine
 10
300.9686719349
 20
348.8296422805
 30
0.0
 11
300.3847479349
 21
326.5349642805
 31
0.0
  0
LINE
  5
7BE
330
2
100
AcDbEntity
  8
0
100
AcDbLine
 10
285.6540349349
 20
314.1296602805
 30
0.0
 11
291.1540349349
 21
314.1296602805
 31
0.0
  0
LINE
  5
7BF
330
2
100
AcDbEntity
  8
0
100
AcDbLine
 10
299.8582589349
 20
339.6296602805
 30
0.0
 11
291.1540349349
 21
339.6296602805
 31
0.0
  0
ARC
  5
7C0
330
2
100
AcDbEntity
  8
0
100
AcDbCircle
 10
299.9040349349
 20
324.6296602805
 30
0.0
 40
1.0
100
AcDbArc
 50
90.0
 51
180.0
  0
ARC
  5
7C1
330
2
100
AcDbEntity
  8
0
100
AcDbCircle
 10
298.4040349349
 20
313.8796602805
 30
0.0
 40
0.5
100
AcDbArc
 50
0.0
 51
90.0
  0
LINE
  5
7C2
330
2
100
AcDbEntity
  8
HIDS
  6
sekkei_H
100
AcDbLine
 10
305.4039739349
 20
313.6296602805
 30
0.0
 11
305.4039739349
 21
325.6296602805
 31
0.0
  0
LINE
  5
7C3
330
2
100
AcDbEntity
  8
0
100
AcDbLine
 10
298.9040349349
 20
324.6296602805
 30
0.0
 11
298.9040349349
 21
313.6296602805
 31
0.0
  0
ARC
  5
7C4
330
2
100
AcDbEntity
  8
0
100
AcDbCircle
 10
299.3850839349
 20
326.5611482805
 30
0.0
 40
1.0
100
AcDbArc
 50
285.039177
 51
358.499649
  0
LINE
  5
7C5
330
2
100
AcDbEntity
  8
0
100
AcDbLine
 10
298.4206369349
 20
324.1296602805
 30
0.0
 11
291.1540349349
 21
324.1296602805
 31
0.0
  0
LINE
  5
7C6
330
2
100
AcDbEntity
  8
0
100
AcDbLine
 10
298.4040349349
 20
314.3796602805
 30
0.0
 11
291.1540349349
 21
314.3796602805
 31
0.0
  0
LINE
  5
7C7
330
2
100
AcDbEntity
  8
0
100
AcDbLine
 10
293.6540349349
 20
314.3796602805
 30
0.0
 11
291.1540349349
 21
314.3796602805
 31
0.0
  0
ARC
  5
7C8
330
2
100
AcDbEntity
  8
0
100
AcDbCircle
 10
280.6540349349
 20
339.6296912805
 30
0.0
 40
2.5
100
AcDbArc
 50
0.0
 51
49.25238
  0
ARC
  5
7C9
330
2
100
AcDbEntity
  8
0
100
AcDbCircle
 10
280.6540349349
 20
329.6789152805
 30
0.0
 40
2.5
100
AcDbArc
 50
0.0
 51
88.0
  0
ARC
  5
7CA
330
2
100
AcDbEntity
  8
0
100
AcDbCircle
 10
285.6540349349
 20
316.6296602805
 30
0.0
 40
2.5
100
AcDbArc
 50
180.0
 51
270.0
  0
LINE
  5
7CB
330
2
100
AcDbEntity
  8
0
100
AcDbLine
 10
231.1541569349
 20
348.6296602805
 30
0.0
 11
231.1541569349
 21
335.6296602805
 31
0.0
  0
ARC
  5
7CC
330
2
100
AcDbEntity
  8
0
100
AcDbCircle
 10
233.1541569349
 20
335.6296602805
 30
0.0
 40
2.0
100
AcDbArc
 50
180.0
 51
270.0
  0
LINE
  5
7CD
330
2
100
AcDbEntity
  8
0
100
AcDbLine
 10
66.6541569349
 20
406.6296602805
 30
0.0
 11
66.6541569349
 21
336.6296602805
 31
0.0
  0
LINE
  5
7CE
330
2
100
AcDbEntity
  8
0
100
AcDbLine
 10
115.6541569349
 20
411.6296602805
 30
0.0
 11
115.6541569349
 21
331.6296602805
 31
0.0
  0
LINE
  5
7CF
330
2
100
AcDbEntity
  8
0
100
AcDbLine
 10
121.1541569349
 20
375.1296602805
 30
0.0
 11
121.1541569349
 21
368.1296602805
 31
0.0
  0
LINE
  5
7D0
330
2
100
AcDbEntity
  8
0
100
AcDbLine
 10
123.1541569349
 20
375.1296602805
 30
0.0
 11
123.1541569349
 21
368.1296602805
 31
0.0
  0
LINE
  5
7D1
330
2
100
AcDbEntity
  8
0
100
AcDbLine
 10
125.6541569349
 20
377.6296602805
 30
0.0
 11
125.6541569349
 21
365.6296602805
 31
0.0
  0
LINE
  5
7D2
330
2
100
AcDbEntity
  8
0
100
AcDbLine
 10
118.6541569349
 20
377.6296602805
 30
0.0
 11
118.6541569349
 21
365.6296602805
 31
0.0
  0
LINE
  5
7D3
330
2
100
AcDbEntity
  8
0
100
AcDbLine
 10
69.1541569349
 20
397.6296602805
 30
0.0
 11
115.6541569349
 21
397.6296602805
 31
0.0
  0
LINE
  5
7D4
330
2
100
AcDbEntity
  8
0
100
AcDbLine
 10
71.6541569349
 20
411.6296602805
 30
0.0
 11
115.6541569349
 21
411.6296602805
 31
0.0
  0
LINE
  5
7D5
330
2
100
AcDbEntity
  8
0
100
AcDbLine
 10
124.6541569349
 20
378.6296602805
 30
0.0
 11
119.6541569349
 21
378.6296602805
 31
0.0
  0
LINE
  5
7D6
330
2
100
AcDbEntity
  8
0
100
AcDbLine
 10
125.1541569349
 20
394.6296602805
 30
0.0
 11
115.6541569349
 21
394.6296602805
 31
0.0
  0
LINE
  5
7D7
330
2
100
AcDbEntity
  8
0
100
AcDbLine
 10
125.1541569349
 20
409.6296602805
 30
0.0
 11
115.6541569349
 21
409.6296602805
 31
0.0
  0
LINE
  5
7D8
330
2
100
AcDbEntity
  8
0
100
AcDbLine
 10
125.1541569349
 20
378.4956882805
 30
0.0
 11
125.1541569349
 21
409.6296602805
 31
0.0
  0
ARC
  5
7D9
330
2
100
AcDbEntity
  8
0
100
AcDbCircle
 10
122.1541569349
 20
375.1296602805
 30
0.0
 40
1.0
100
AcDbArc
 50
0.0
 51
90.0
  0
ARC
  5
7DA
330
2
100
AcDbEntity
  8
0
100
AcDbCircle
 10
122.1541569349
 20
375.1296602805
 30
0.0
 40
1.0
100
AcDbArc
 50
90.0
 51
180.0
  0
ARC
  5
7DB
330
2
100
AcDbEntity
  8
0
100
AcDbCircle
 10
124.6541569349
 20
377.6296602805
 30
0.0
 40
1.0
100
AcDbArc
 50
0.0
 51
90.0
  0
ARC
  5
7DC
330
2
100
AcDbEntity
  8
0
100
AcDbCircle
 10
119.6541569349
 20
377.6296602805
 30
0.0
 40
1.0
100
AcDbArc
 50
90.0
 51
180.0
  0
ARC
  5
7DD
330
2
100
AcDbEntity
  8
0
100
AcDbCircle
 10
71.6541569349
 20
406.6296602805
 30
0.0
 40
5.0
100
AcDbArc
 50
90.0
 51
180.0
  0
LINE
  5
7DE
330
2
100
AcDbEntity
  8
0
100
AcDbLine
 10
69.1541569349
 20
347.6296602805
 30
0.0
 11
115.6541569349
 21
347.6296602805
 31
0.0
  0
LINE
  5
7DF
330
2
100
AcDbEntity
  8
0
100
AcDbLine
 10
71.6541569349
 20
331.6296602805
 30
0.0
 11
115.6541569349
 21
331.6296602805
 31
0.0
  0
LINE
  5
7E0
330
2
100
AcDbEntity
  8
0
100
AcDbLine
 10
119.6541569349
 20
364.6296602805
 30
0.0
 11
124.6541569349
 21
364.6296602805
 31
0.0
  0
LINE
  5
7E1
330
2
100
AcDbEntity
  8
0
100
AcDbLine
 10
125.1541569349
 20
348.6296602805
 30
0.0
 11
115.6541569349
 21
348.6296602805
 31
0.0
  0
LINE
  5
7E2
330
2
100
AcDbEntity
  8
0
100
AcDbLine
 10
125.1541569349
 20
333.6296602805
 30
0.0
 11
115.6541569349
 21
333.6296602805
 31
0.0
  0
LINE
  5
7E3
330
2
100
AcDbEntity
  8
0
100
AcDbLine
 10
125.1541569349
 20
333.6296602805
 30
0.0
 11
125.1541569349
 21
364.7636632805
 31
0.0
  0
ARC
  5
7E4
330
2
100
AcDbEntity
  8
0
100
AcDbCircle
 10
124.6541569349
 20
365.6296602805
 30
0.0
 40
1.0
100
AcDbArc
 50
270.0
 51
0.0
  0
ARC
  5
7E5
330
2
100
AcDbEntity
  8
0
100
AcDbCircle
 10
122.1541569349
 20
368.1296602805
 30
0.0
 40
1.0
100
AcDbArc
 50
270.0
 51
0.0
  0
ARC
  5
7E6
330
2
100
AcDbEntity
  8
0
100
AcDbCircle
 10
122.1541569349
 20
368.1296602805
 30
0.0
 40
1.0
100
AcDbArc
 50
180.0
 51
270.0
  0
ARC
  5
7E7
330
2
100
AcDbEntity
  8
0
100
AcDbCircle
 10
119.6541569349
 20
365.6296602805
 30
0.0
 40
1.0
100
AcDbArc
 50
180.0
 51
270.0
  0
ARC
  5
7E8
330
2
100
AcDbEntity
  8
0
100
AcDbCircle
 10
71.6541569349
 20
336.6296602805
 30
0.0
 40
5.0
100
AcDbArc
 50
180.0
 51
270.0
  0
LINE
  5
7F1
330
2
100
AcDbEntity
  8
CENTER
100
AcDbLine
 10
743.4721289349
 20
202.4546722805
 30
0.0
 11
725.6596289349
 21
202.4546722805
 31
0.0
  0
LINE
  5
7F2
330
2
100
AcDbEntity
  8
CENTER
100
AcDbLine
 10
734.5658789349
 20
211.3609222805
 30
0.0
 11
734.5658789349
 21
193.5484222805
 31
0.0
  0
LINE
  5
7F3
330
2
100
AcDbEntity
  8
CENTER
100
AcDbLine
 10
743.4721289349
 20
82.4546642805
 30
0.0
 11
725.6596289349
 21
82.4546642805
 31
0.0
  0
LINE
  5
7F4
330
2
100
AcDbEntity
  8
CENTER
100
AcDbLine
 10
734.5658789349
 20
91.3609142805
 30
0.0
 11
734.5658789349
 21
73.5484142805
 31
0.0
  0
LINE
  5
7F5
330
2
100
AcDbEntity
  8
CENTER
100
AcDbLine
 10
833.4721449349
 20
82.4546642805
 30
0.0
 11
815.6596449349
 21
82.4546642805
 31
0.0
  0
LINE
  5
7F6
330
2
100
AcDbEntity
  8
CENTER
100
AcDbLine
 10
824.5658949349
 20
91.3609142805
 30
0.0
 11
824.5658949349
 21
73.5484142805
 31
0.0
  0
ARC
  5
8C1
330
2
100
AcDbEntity
  8
0
100
AcDbCircle
 10
310.9039589349
 20
202.4546562805
 30
0.0
 40
12.0
100
AcDbArc
 50
90.0
 51
180.0
  0
ARC
  5
8C3
330
2
100
AcDbEntity
  8
0
100
AcDbCircle
 10
310.9039589349
 20
82.4546402805
 30
0.0
 40
12.0
100
AcDbArc
 50
180.0
 51
270.0
  0
LINE
  5
8C4
330
2
100
AcDbEntity
  8
CENTER
100
AcDbLine
 10
56.6540309349
 20
118.9546602805
 30
0.0
 11
323.9040349349
 21
118.9546602805
 31
0.0
  0
LINE
  5
8C5
330
2
100
AcDbEntity
  8
0
100
AcDbLine
 10
298.9039589349
 20
202.4546262805
 30
0.0
 11
298.9039589349
 21
82.4546202805
 31
0.0
  0
LINE
  5
8C6
330
2
100
AcDbEntity
  8
0
100
AcDbLine
 10
71.6540309349
 20
158.9546412805
 30
0.0
 11
115.6540309349
 21
158.9546412805
 31
0.0
  0
LINE
  5
8C7
330
2
100
AcDbEntity
  8
0
100
AcDbLine
 10
69.1540309349
 20
144.9546412805
 30
0.0
 11
115.6540309349
 21
144.9546412805
 31
0.0
  0
LINE
  5
8C8
330
2
100
AcDbEntity
  8
0
100
AcDbLine
 10
71.6540309349
 20
78.9546402805
 30
0.0
 11
115.6540309349
 21
78.9546402805
 31
0.0
  0
LINE
  5
8C9
330
2
100
AcDbEntity
  8
0
100
AcDbLine
 10
69.1540309349
 20
94.9546412805
 30
0.0
 11
115.6540309349
 21
94.9546412805
 31
0.0
  0
LINE
  5
8CA
330
2
100
AcDbEntity
  8
0
100
AcDbLine
 10
66.6540309349
 20
83.9546402805
 30
0.0
 11
66.6540309349
 21
153.9546412805
 31
0.0
  0
ARC
  5
8CB
330
2
100
AcDbEntity
  8
0
100
AcDbCircle
 10
71.6540309349
 20
83.9546402805
 30
0.0
 40
5.0
100
AcDbArc
 50
180.0
 51
270.0
  0
ARC
  5
8CC
330
2
100
AcDbEntity
  8
0
100
AcDbCircle
 10
71.6540309349
 20
153.9546412805
 30
0.0
 40
5.0
100
AcDbArc
 50
90.0
 51
180.0
  0
LINE
  5
8CD
330
2
100
AcDbEntity
  8
0
100
AcDbLine
 10
125.1540309349
 20
156.9546412805
 30
0.0
 11
239.1540349349
 21
156.9546412805
 31
0.0
  0
LINE
  5
8CE
330
2
100
AcDbEntity
  8
0
100
AcDbLine
 10
125.1540309349
 20
80.9546802805
 30
0.0
 11
239.1540349349
 21
80.9546802805
 31
0.0
  0
LINE
  5
8CF
330
2
100
AcDbEntity
  8
0
100
AcDbLine
 10
125.1540309349
 20
149.2036412805
 30
0.0
 11
231.1540349349
 21
149.2036412805
 31
0.0
  0
LINE
  5
8D0
330
2
100
AcDbEntity
  8
0
100
AcDbLine
 10
125.1540309349
 20
88.7056802805
 30
0.0
 11
231.1540349349
 21
88.7056802805
 31
0.0
  0
LINE
  5
8D1
330
2
100
AcDbEntity
  8
0
100
AcDbLine
 10
115.6540309349
 20
78.9546402805
 30
0.0
 11
115.6540309349
 21
158.9546412805
 31
0.0
  0
LINE
  5
8D2
330
2
100
AcDbEntity
  8
0
100
AcDbLine
 10
125.1540309349
 20
80.9546602805
 30
0.0
 11
125.1540309349
 21
156.9546412805
 31
0.0
  0
LINE
  5
8D3
330
2
100
AcDbEntity
  8
0
100
AcDbLine
 10
115.6540309349
 20
80.9546402805
 30
0.0
 11
125.1540309349
 21
80.9546402805
 31
0.0
  0
LINE
  5
8D4
330
2
100
AcDbEntity
  8
0
100
AcDbLine
 10
115.6540309349
 20
88.7056402805
 30
0.0
 11
125.1540309349
 21
88.7056402805
 31
0.0
  0
LINE
  5
8D5
330
2
100
AcDbEntity
  8
0
100
AcDbLine
 10
115.6540309349
 20
149.2036412805
 30
0.0
 11
125.1540309349
 21
149.2036412805
 31
0.0
  0
LINE
  5
8D6
330
2
100
AcDbEntity
  8
0
100
AcDbLine
 10
118.6540309349
 20
158.4546412805
 30
0.0
 11
125.6540309349
 21
158.4546412805
 31
0.0
  0
LINE
  5
8D7
330
2
100
AcDbEntity
  8
0
100
AcDbLine
 10
123.0540209349
 20
171.4546412805
 30
0.0
 11
123.0540209349
 21
158.4546412805
 31
0.0
  0
LINE
  5
8D8
330
2
100
AcDbEntity
  8
0
100
AcDbLine
 10
121.2540409349
 20
172.0796412805
 30
0.0
 11
121.2540409349
 21
158.4546412805
 31
0.0
  0
LINE
  5
8D9
330
2
100
AcDbEntity
  8
0
100
AcDbLine
 10
124.8540319349
 20
170.8296412805
 30
0.0
 11
124.8540319349
 21
158.4546412805
 31
0.0
  0
LINE
  5
8DA
330
2
100
AcDbEntity
  8
0
100
AcDbLine
 10
119.4540299349
 20
170.0171412805
 30
0.0
 11
119.4540299349
 21
158.4546412805
 31
0.0
  0
LINE
  5
8DB
330
2
100
AcDbEntity
  8
0
100
AcDbLine
 10
115.6540309349
 20
156.9546412805
 30
0.0
 11
125.1540309349
 21
156.9546412805
 31
0.0
  0
LINE
  5
8DC
330
2
100
AcDbEntity
  8
0
100
AcDbLine
 10
118.6540309349
 20
158.4546412805
 30
0.0
 11
118.6540309349
 21
156.9546412805
 31
0.0
  0
LINE
  5
8DD
330
2
100
AcDbEntity
  8
HOJO
100
AcDbLine
 10
121.2540409349
 20
172.0796412805
 30
0.0
 11
123.0540209349
 21
171.4546412805
 31
0.0
  0
LINE
  5
8DE
330
2
100
AcDbEntity
  8
HOJO
100
AcDbLine
 10
124.8540319349
 20
170.8296412805
 30
0.0
 11
123.0550319349
 21
170.3819402805
 31
0.0
  0
LINE
  5
8DF
330
2
100
AcDbEntity
  8
HOJO
100
AcDbLine
 10
119.4540299349
 20
170.0171412805
 30
0.0
 11
121.2540409349
 21
170.6421412805
 31
0.0
  0
LINE
  5
8E0
330
2
100
AcDbEntity
  8
0
100
AcDbLine
 10
125.6540309349
 20
158.4546412805
 30
0.0
 11
125.6540309349
 21
156.9546412805
 31
0.0
  0
LINE
  5
8E1
330
2
100
AcDbEntity
  8
0
100
AcDbLine
 10
291.1540499349
 20
187.4546642805
 30
0.0
 11
291.1540499349
 21
72.4546602805
 31
0.0
  0
LINE
  5
8E2
330
2
100
AcDbEntity
  8
0
100
AcDbLine
 10
231.1540349349
 20
154.9546412805
 30
0.0
 11
231.1540349349
 21
82.9546602805
 31
0.0
  0
LINE
  5
8E3
330
2
100
AcDbEntity
  8
0
100
AcDbLine
 10
283.1540349349
 20
186.4546642805
 30
0.0
 11
283.1540349349
 21
89.0420032805
 31
0.0
  0
LINE
  5
8E4
330
2
100
AcDbEntity
  8
0
100
AcDbLine
 10
239.1540349349
 20
156.9546642805
 30
0.0
 11
239.1540349349
 21
80.9546602805
 31
0.0
  0
LINE
  5
8E5
330
2
100
AcDbEntity
  8
0
100
AcDbLine
 10
291.1540349349
 20
79.1387802805
 30
0.0
 11
239.1540349349
 21
80.9546602805
 31
0.0
  0
LINE
  5
8E6
330
2
100
AcDbEntity
  8
0
100
AcDbLine
 10
239.1540349349
 20
109.5546582805
 30
0.0
 11
283.1540349349
 21
109.5546582805
 31
0.0
  0
LINE
  5
8E7
330
2
100
AcDbEntity
  8
0
100
AcDbLine
 10
239.1540349349
 20
99.3546602805
 30
0.0
 11
283.1540349349
 21
99.3546602805
 31
0.0
  0
ARC
  5
8E8
330
2
100
AcDbEntity
  8
0
100
AcDbCircle
 10
233.1540349349
 20
82.9546802805
 30
0.0
 40
2.0
100
AcDbArc
 50
180.0
 51
270.0
  0
LINE
  5
8E9
330
2
100
AcDbEntity
  8
0
100
AcDbLine
 10
285.6540349349
 20
72.4546602805
 30
0.0
 11
291.1540349349
 21
72.4546602805
 31
0.0
  0
ARC
  5
8EA
330
2
100
AcDbEntity
  8
0
100
AcDbCircle
 10
285.6540349349
 20
74.9546602805
 30
0.0
 40
2.5
100
AcDbArc
 50
180.0
 51
270.0
  0
LINE
  5
8EB
330
2
100
AcDbEntity
  8
0
100
AcDbLine
 10
283.1540349349
 20
74.9546602805
 30
0.0
 11
283.1540349349
 21
77.0039242805
 31
0.0
  0
ARC
  5
8EC
330
2
100
AcDbEntity
  8
0
100
AcDbCircle
 10
280.6540349349
 20
77.0039242805
 30
0.0
 40
2.5
100
AcDbArc
 50
0.0
 51
88.0
  0
LINE
  5
8ED
330
2
100
AcDbEntity
  8
0
100
AcDbLine
 10
297.7161689349
 20
73.6381402805
 30
0.0
 11
298.2666139349
 21
81.8945602805
 31
0.0
  0
LINE
  5
8EE
330
2
100
AcDbEntity
  8
0
100
AcDbLine
 10
296.7184119349
 20
72.7046402805
 30
0.0
 11
291.1540499349
 21
72.7046402805
 31
0.0
  0
ARC
  5
8EF
330
2
100
AcDbEntity
  8
0
100
AcDbCircle
 10
296.7184119349
 20
73.7046402805
 30
0.0
 40
1.0
100
AcDbArc
 50
270.0
 51
356.185791
  0
LINE
  5
8F0
330
2
100
AcDbEntity
  8
0
100
AcDbLine
 10
291.1540499349
 20
82.4546402805
 30
0.0
 11
298.9039589349
 21
82.4546402805
 31
0.0
  0
ARC
  5
8F1
330
2
100
AcDbEntity
  8
0
100
AcDbCircle
 10
298.8653079349
 20
81.8546602805
 30
0.0
 40
0.6
100
AcDbArc
 50
90.0
 51
176.186096
  0
LINE
  5
8F2
330
2
100
AcDbEntity
  8
0
100
AcDbLine
 10
284.2791109349
 20
86.8006612805
 30
0.0
 11
291.1540349349
 21
86.8006612805
 31
0.0
  0
LINE
  5
8F3
330
2
100
AcDbEntity
  8
0
100
AcDbLine
 10
297.7008339349
 20
97.9946802805
 30
0.0
 11
291.1540499349
 21
97.9946802805
 31
0.0
  0
LINE
  5
8F4
330
2
100
AcDbEntity
  8
0
100
AcDbLine
 10
280.7412849349
 20
158.4069192805
 30
0.0
 11
239.1540349349
 21
156.9546642805
 31
0.0
  0
ARC
  5
8F5
330
2
100
AcDbEntity
  8
0
100
AcDbCircle
 10
233.1540349349
 20
154.9546642805
 30
0.0
 40
2.0
100
AcDbArc
 50
90.0
 51
180.0
  0
LINE
  5
8F6
330
2
100
AcDbEntity
  8
0
100
AcDbLine
 10
281.7409029349
 20
170.2724662805
 30
0.0
 11
255.7974679349
 21
157.7480522805
 31
0.0
  0
ARC
  5
8F7
330
2
100
AcDbEntity
  8
0
100
AcDbCircle
 10
254.7105989349
 20
159.9994332805
 30
0.0
 40
2.5
100
AcDbArc
 50
272.0
 51
295.769318
  0
ARC
  5
8F8
330
2
100
AcDbEntity
  8
0
100
AcDbCircle
 10
280.6540349349
 20
160.9053932805
 30
0.0
 40
2.5
100
AcDbArc
 50
272.0
 51
0.0
  0
ARC
  5
8F9
330
2
100
AcDbEntity
  8
0
100
AcDbCircle
 10
280.6540349349
 20
172.5238392805
 30
0.0
 40
2.5
100
AcDbArc
 50
295.769325
 51
0.0
  0
LINE
  5
8FA
330
2
100
AcDbEntity
  8
0
100
AcDbLine
 10
297.7008339349
 20
161.9146782805
 30
0.0
 11
291.1540499349
 21
161.9146782805
 31
0.0
  0
LINE
  5
8FB
330
2
100
AcDbEntity
  8
0
100
AcDbLine
 10
284.1540349349
 20
187.4546642805
 30
0.0
 11
291.1540499349
 21
187.4546642805
 31
0.0
  0
ARC
  5
8FC
330
2
100
AcDbEntity
  8
0
100
AcDbCircle
 10
284.1540349349
 20
186.4546642805
 30
0.0
 40
1.0
100
AcDbArc
 50
90.0
 51
180.0
  0
LINE
  5
8FD
330
2
100
AcDbEntity
  8
0
100
AcDbLine
 10
297.7008339349
 20
177.4546412805
 30
0.0
 11
291.1540499349
 21
177.4546412805
 31
0.0
  0
LINE
  5
8FE
330
2
100
AcDbEntity
  8
0
100
AcDbLine
 10
291.1540499349
 20
187.2046412805
 30
0.0
 11
298.9039589349
 21
187.2046412805
 31
0.0
  0
ARC
  5
8FF
330
2
100
AcDbEntity
  8
0
100
AcDbCircle
 10
400.9040959349
 20
202.4546562805
 30
0.0
 40
11.0
100
AcDbArc
 50
180.0
 51
270.0
  0
LINE
  5
900
330
2
100
AcDbEntity
  8
CENTER
100
AcDbLine
 10
355.9040349349
 20
224.4546562805
 30
0.0
 11
355.9040349349
 21
60.4546402805
 31
0.0
  0
LINE
  5
901
330
2
100
AcDbEntity
  8
0
100
AcDbLine
 10
412.9040959349
 20
202.4546562805
 30
0.0
 11
412.9040959349
 21
82.4546402805
 31
0.0
  0
ARC
  5
902
330
2
100
AcDbEntity
  8
0
100
AcDbCircle
 10
310.9039589349
 20
202.4546562805
 30
0.0
 40
11.0
100
AcDbArc
 50
270.0
 51
0.0
  0
ARC
  5
903
330
2
100
AcDbEntity
  8
0
100
AcDbCircle
 10
355.9040349349
 20
142.4546712805
 30
0.0
 40
60.0
100
AcDbArc
 50
48.189621
 51
131.810394
  0
LINE
  5
904
330
2
100
AcDbEntity
  8
CENTER
100
AcDbLine
 10
392.3417179349
 20
82.4546402805
 30
0.0
 11
409.4664739349
 21
82.4546402805
 31
0.0
  0
ARC
  5
905
330
2
100
AcDbEntity
  8
0
100
AcDbCircle
 10
401.9040959349
 20
185.4546412805
 30
0.0
 40
6.0
100
AcDbArc
 50
0.0
 51
90.0
  0
ARC
  5
906
330
2
100
AcDbEntity
  8
0
100
AcDbCircle
 10
400.9040959349
 20
82.4546402805
 30
0.0
 40
12.0
100
AcDbArc
 50
270.0
 51
0.0
  0
ARC
  5
907
330
2
100
AcDbEntity
  8
0
100
AcDbCircle
 10
401.9040959349
 20
99.4546602805
 30
0.0
 40
6.0
100
AcDbArc
 50
270.0
 51
0.0
  0
ARC
  5
909
330
2
100
AcDbEntity
  8
0
100
AcDbCircle
 10
372.6540349349
 20
118.9546642805
 30
0.0
 40
19.0
100
AcDbArc
 50
270.0
 51
7.5527
  0
ARC
  5
90A
330
2
100
AcDbEntity
  8
0
100
AcDbCircle
 10
372.6540349349
 20
118.9546642805
 30
0.0
 40
20.6
100
AcDbArc
 50
270.0
 51
7.5527
  0
ARC
  5
90B
330
2
100
AcDbEntity
  8
0
100
AcDbCircle
 10
375.9040959349
 20
120.0939842805
 30
0.0
 40
30.0
100
AcDbArc
 50
311.810551
 51
0.0
  0
LINE
  5
90C
330
2
100
AcDbEntity
  8
0
100
AcDbLine
 10
407.9040959349
 20
185.4546412805
 30
0.0
 11
407.9040959349
 21
99.4546602805
 31
0.0
  0
ARC
  5
90D
330
2
100
AcDbEntity
  8
0
100
AcDbCircle
 10
339.1540349349
 20
118.9546642805
 30
0.0
 40
19.0
100
AcDbArc
 50
172.447601
 51
270.0
  0
ARC
  5
90E
330
2
100
AcDbEntity
  8
0
100
AcDbCircle
 10
339.1540349349
 20
118.9546642805
 30
0.0
 40
20.6
100
AcDbArc
 50
172.447403
 51
270.0
  0
ARC
  5
90F
330
2
100
AcDbEntity
  8
0
100
AcDbCircle
 10
335.9040349349
 20
120.0939732805
 30
0.0
 40
30.0
100
AcDbArc
 50
180.0
 51
228.189697
  0
LINE
  5
910
330
2
100
AcDbEntity
  8
0
100
AcDbLine
 10
303.9039589349
 20
185.4546412805
 30
0.0
 11
303.9039589349
 21
99.4546602805
 31
0.0
  0
ARC
  5
915
330
2
100
AcDbEntity
  8
0
100
AcDbCircle
 10
355.9040349349
 20
142.4546712805
 30
0.0
 40
60.0
100
AcDbArc
 50
228.189697
 51
311.810303
  0
LINE
  5
916
330
2
100
AcDbEntity
  8
0
100
AcDbLine
 10
339.1540349349
 20
98.3546602805
 30
0.0
 11
372.6540349349
 21
98.3546602805
 31
0.0
  0
LINE
  5
917
330
2
100
AcDbEntity
  8
0
100
AcDbLine
 10
339.1540349349
 20
99.9546602805
 30
0.0
 11
372.6540349349
 21
99.9546602805
 31
0.0
  0
LINE
  5
918
330
2
100
AcDbEntity
  8
0
100
AcDbLine
 10
310.9040349349
 20
70.4546402805
 30
0.0
 11
400.9040959349
 21
70.4546402805
 31
0.0
  0
LINE
  5
919
330
2
100
AcDbEntity
  8
0
100
AcDbLine
 10
383.9040959349
 20
75.4546402805
 30
0.0
 11
327.9040349349
 21
75.4546402805
 31
0.0
  0
LINE
  5
91A
330
2
100
AcDbEntity
  8
CENTER
100
AcDbLine
 10
310.9039589349
 20
91.0170182805
 30
0.0
 11
310.9039589349
 21
73.8922622805
 31
0.0
  0
CIRCLE
  5
91B
330
2
100
AcDbEntity
  8
0
100
AcDbCircle
 10
310.9039589349
 20
82.4546402805
 30
0.0
 40
5.5
  0
ARC
  5
91C
330
2
100
AcDbEntity
  8
0
100
AcDbCircle
 10
310.9039589349
 20
82.4546402805
 30
0.0
 40
11.0
100
AcDbArc
 50
0.0
 51
90.0
  0
ARC
  5
91D
330
2
100
AcDbEntity
  8
0
100
AcDbCircle
 10
327.9040349349
 20
81.4546402805
 30
0.0
 40
6.0
100
AcDbArc
 50
180.0
 51
270.0
  0
LINE
  5
91E
330
2
100
AcDbEntity
  8
CENTER
100
AcDbLine
 10
302.3415809349
 20
82.4546402805
 30
0.0
 11
319.4663369349
 21
82.4546402805
 31
0.0
  0
LINE
  5
91F
330
2
100
AcDbEntity
  8
0
100
AcDbLine
 10
321.9040349349
 20
81.4546402805
 30
0.0
 11
321.9040349349
 21
82.4546402805
 31
0.0
  0
ARC
  5
920
330
2
100
AcDbEntity
  8
0
100
AcDbCircle
 10
309.9039589349
 20
99.4546602805
 30
0.0
 40
6.0
100
AcDbArc
 50
180.0
 51
270.0
  0
LINE
  5
921
330
2
100
AcDbEntity
  8
0
100
AcDbLine
 10
309.9039589349
 20
93.4546412805
 30
0.0
 11
310.9039589349
 21
93.4546412805
 31
0.0
  0
LINE
  5
93F
330
2
100
AcDbEntity
  8
CENTER
100
AcDbLine
 10
400.9040959349
 20
91.0170182805
 30
0.0
 11
400.9040959349
 21
73.8922622805
 31
0.0
  0
CIRCLE
  5
940
330
2
100
AcDbEntity
  8
0
100
AcDbCircle
 10
400.9040959349
 20
82.4546402805
 30
0.0
 40
5.5
  0
ARC
  5
941
330
2
100
AcDbEntity
  8
0
100
AcDbCircle
 10
400.9040959349
 20
82.4546402805
 30
0.0
 40
11.0
100
AcDbArc
 50
90.0
 51
180.0
  0
ARC
  5
942
330
2
100
AcDbEntity
  8
0
100
AcDbCircle
 10
383.9040959349
 20
81.4546402805
 30
0.0
 40
6.0
100
AcDbArc
 50
270.0
 51
0.0
  0
LINE
  5
943
330
2
100
AcDbEntity
  8
0
100
AcDbLine
 10
389.9040959349
 20
81.4546402805
 30
0.0
 11
389.9040959349
 21
82.4546202805
 31
0.0
  0
LINE
  5
960
330
2
100
AcDbEntity
  8
0
100
AcDbLine
 10
401.9040959349
 20
93.4546412805
 30
0.0
 11
400.9040959349
 21
93.4546412805
 31
0.0
  0
LINE
  5
961
330
2
100
AcDbEntity
  8
CENTER
100
AcDbLine
 10
313.8761427021
 20
160.4546642805
 30
0.0
 11
397.9320038144
 21
160.4546642805
 31
0.0
  0
CIRCLE
  5
962
330
2
100
AcDbEntity
  8
0
100
AcDbCircle
 10
355.9040349349
 20
160.4546642805
 30
0.0
 40
27.5
  0
ARC
  5
963
330
2
100
AcDbEntity
  8
0
100
AcDbCircle
 10
355.9040349349
 20
160.4546642805
 30
0.0
 40
31.75
100
AcDbArc
 50
7.552697
 51
172.447403
  0
ARC
  5
964
330
2
100
AcDbEntity
  8
0
100
AcDbCircle
 10
355.9040349349
 20
160.4546642805
 30
0.0
 40
30.15
100
AcDbArc
 50
172.447403
 51
7.552697
  0
ARC
  5
965
330
2
100
AcDbEntity
  8
HIDS
100
AcDbCircle
 10
355.9040349349
 20
160.4546642805
 30
0.0
 40
11.0
100
AcDbArc
 50
15.826599
 51
344.1734
  0
LINE
  5
966
330
2
100
AcDbEntity
  8
0
100
AcDbLine
 10
305.9039589349
 20
164.8153592805
 30
0.0
 11
305.9039589349
 21
120.0939732805
 31
0.0
  0
LINE
  5
967
330
2
100
AcDbEntity
  8
0
100
AcDbLine
 10
318.7326329349
 20
121.6622522805
 30
0.0
 11
324.4294559349
 21
164.6277592805
 31
0.0
  0
LINE
  5
968
330
2
100
AcDbEntity
  8
0
100
AcDbLine
 10
320.3188299349
 20
121.4519552805
 30
0.0
 11
326.0156379349
 21
164.4174782805
 31
0.0
  0
ARC
  5
969
330
2
100
AcDbEntity
  8
0
100
AcDbCircle
 10
335.9040349349
 20
164.8153592805
 30
0.0
 40
30.0
100
AcDbArc
 50
131.810394
 51
180.0
  0
ARC
  5
96A
330
2
100
AcDbEntity
  8
0
100
AcDbCircle
 10
309.9039889349
 20
185.4547022805
 30
0.0
 40
6.0
100
AcDbArc
 50
90.0
 51
180.0
  0
LINE
  5
96B
330
2
100
AcDbEntity
  8
0
100
AcDbLine
 10
309.9039589349
 20
191.4546412805
 30
0.0
 11
310.9039589349
 21
191.4546412805
 31
0.0
  0
LINE
  5
96C
330
2
100
AcDbEntity
  8
0
100
AcDbLine
 10
405.9040959349
 20
164.8153202805
 30
0.0
 11
405.9040959349
 21
120.0939732805
 31
0.0
  0
LINE
  5
96D
330
2
100
AcDbEntity
  8
0
100
AcDbLine
 10
387.3787049349
 20
164.6278202805
 30
0.0
 11
393.0752999349
 21
121.6622902805
 31
0.0
  0
LINE
  5
96E
330
2
100
AcDbEntity
  8
0
100
AcDbLine
 10
385.7925239349
 20
164.4175012805
 30
0.0
 11
391.4893009349
 21
121.4519902805
 31
0.0
  0
LINE
  5
96F
330
2
100
AcDbEntity
  8
HIDS
100
AcDbLine
 10
369.4040349349
 20
163.4546182805
 30
0.0
 11
363.4040349349
 21
163.4546412805
 31
0.0
  0
LINE
  5
970
330
2
100
AcDbEntity
  8
HIDS
100
AcDbLine
 10
369.4040349349
 20
157.4546182805
 30
0.0
 11
363.4040349349
 21
157.4546642805
 31
0.0
  0
LINE
  5
971
330
2
100
AcDbEntity
  8
HIDS
100
AcDbLine
 10
363.4040349349
 20
157.4546642805
 30
0.0
 11
363.4040349349
 21
163.4546412805
 31
0.0
  0
LINE
  5
972
330
2
100
AcDbEntity
  8
HIDS
100
AcDbLine
 10
369.4040349349
 20
157.4546182805
 30
0.0
 11
369.4040349349
 21
163.4546182805
 31
0.0
  0
ARC
  5
973
330
2
100
AcDbEntity
  8
0
100
AcDbCircle
 10
375.9040959349
 20
164.8153202805
 30
0.0
 40
30.0
100
AcDbArc
 50
0.0
 51
48.189629
  0
LINE
  5
974
330
2
100
AcDbEntity
  8
0
100
AcDbLine
 10
401.9040959349
 20
191.4546412805
 30
0.0
 11
400.9040959349
 21
191.4546412805
 31
0.0
  0
ARC
  5
975
330
2
100
AcDbEntity
  8
0
100
AcDbCircle
 10
400.9040959349
 20
202.4546562805
 30
0.0
 40
12.0
100
AcDbArc
 50
0.0
 51
90.0
  0
LINE
  5
976
330
2
100
AcDbEntity
  8
CENTER
100
AcDbLine
 10
392.3417179349
 20
202.4546562805
 30
0.0
 11
409.4664739349
 21
202.4546562805
 31
0.0
  0
LINE
  5
977
330
2
100
AcDbEntity
  8
0
100
AcDbLine
 10
400.9040959349
 20
214.4546562805
 30
0.0
 11
310.9039589349
 21
214.4546562805
 31
0.0
  0
LINE
  5
978
330
2
100
AcDbEntity
  8
0
100
AcDbLine
 10
327.9040349349
 20
209.4546562805
 30
0.0
 11
383.9040959349
 21
209.4546562805
 31
0.0
  0
ARC
  5
979
330
2
100
AcDbEntity
  8
0
100
AcDbCircle
 10
327.9040349349
 20
203.4547172805
 30
0.0
 40
6.0
100
AcDbArc
 50
90.0
 51
180.0
  0
LINE
  5
97A
330
2
100
AcDbEntity
  8
CENTER
100
AcDbLine
 10
302.3415809349
 20
202.4546562805
 30
0.0
 11
319.4663369349
 21
202.4546562805
 31
0.0
  0
CIRCLE
  5
97B
330
2
100
AcDbEntity
  8
0
100
AcDbCircle
 10
310.9039589349
 20
202.4546562805
 30
0.0
 40
5.5
  0
LINE
  5
97C
330
2
100
AcDbEntity
  8
CENTER
100
AcDbLine
 10
310.9039589349
 20
211.0170342805
 30
0.0
 11
310.9039589349
 21
193.8922782805
 31
0.0
  0
LINE
  5
97D
330
2
100
AcDbEntity
  8
0
100
AcDbLine
 10
321.9040349349
 20
203.4546562805
 30
0.0
 11
321.9040349349
 21
202.4546562805
 31
0.0
  0
LINE
  5
97E
330
2
100
AcDbEntity
  8
0
100
AcDbLine
 10
389.9040959349
 20
203.4546562805
 30
0.0
 11
389.9040959349
 21
202.4546262805
 31
0.0
  0
ARC
  5
97F
330
2
100
AcDbEntity
  8
0
100
AcDbCircle
 10
383.9040959349
 20
203.4546562805
 30
0.0
 40
6.0
100
AcDbArc
 50
0.0
 51
90.0
  0
LINE
  5
980
330
2
100
AcDbEntity
  8
CENTER
100
AcDbLine
 10
400.9040959349
 20
211.0170342805
 30
0.0
 11
400.9040959349
 21
193.8922782805
 31
0.0
  0
CIRCLE
  5
981
330
2
100
AcDbEntity
  8
0
100
AcDbCircle
 10
400.9040959349
 20
202.4546562805
 30
0.0
 40
5.5
  0
TEXT
  5
994
330
2
100
AcDbEntity
  8
TITLE
100
AcDbText
 10
500.0633681939
 20
339.9711258415
 30
0.0
 40
7.0
  1
HFM-22L-300~450-S60
100
AcDbText
  0
TEXT
  5
995
330
2
100
AcDbEntity
  8
TITLE
100
AcDbText
 10
500.0633681939
 20
351.1711258415
 30
0.0
 40
7.0
  1
HFM-22L-300~450-S40W
100
AcDbText
  0
TEXT
  5
996
330
2
100
AcDbEntity
  8
TITLE
100
AcDbText
 10
500.0633681939
 20
362.3711258415
 30
0.0
 40
7.0
  1
HFM-22L-300~450-S40
100
AcDbText
  0
TEXT
  5
997
330
2
100
AcDbEntity
  8
TITLE
100
AcDbText
 10
500.0633681939
 20
373.5711258415
 30
0.0
 40
7.0
  1
HFM-22L-300~450-T60W
100
AcDbText
  0
TEXT
  5
998
330
2
100
AcDbEntity
  8
TITLE
100
AcDbText
 10
500.0633681939
 20
384.7711258415
 30
0.0
 40
7.0
  1
HFM-22L-300~450-T60
100
AcDbText
  0
TEXT
  5
99E
330
2
100
AcDbEntity
  8
TITLE
100
AcDbText
 10
500.0633681939
 20
395.7711258415
 30
0.0
 40
7.0
  1
HFM-22L-300~450-T40W
100
AcDbText
  0
TEXT
  5
99F
330
2
100
AcDbEntity
  8
TITLE
100
AcDbText
 10
500.0633681939
 20
328.9711258415
 30
0.0
 40
7.0
  1
HFM-22L-300~450-S60W
100
AcDbText
  0
LINE
  5
C34
330
2
100
AcDbEntity
  8
CENTER
100
AcDbLine
 10
222.9421476407
 20
129.9546682805
 30
0.0
 11
308.1116580321
 21
129.9546682805
 31
0.0
  0
LINE
  5
1004
330
2
100
AcDbEntity
  8
CENTER
100
AcDbLine
 10
912.5277822292
 20
129.9546682805
 30
0.0
 11
827.3582718378
 21
129.9546682805
 31
0.0
  0
INSERT
  5
178A
330
2
100
AcDbEntity
  8
0
100
AcDbBlockReference
  2
A$C18d8f9dc
 10
125.1540309349
 20
156.9546412805
 30
0.0
  0
LINE
  5
17B1
330
2
100
AcDbEntity
  8
CENTER
100
AcDbLine
 10
136.3623973968
 20
385.6296602805
 30
0.0
 11
145.9459164731
 21
385.6296602805
 31
0.0
  0
CIRCLE
  5
17B2
330
2
100
AcDbEntity
  8
0
100
AcDbCircle
 10
141.1541569349
 20
385.6296602805
 30
0.0
 40
3.799999999999998
  0
CIRCLE
  5
17B3
330
2
100
AcDbEntity
  8
0
100
AcDbCircle
 10
141.1541569349
 20
385.6296602805
 30
0.0
 40
3.499999999999146
  0
LINE
  5
17B4
330
2
100
AcDbEntity
  8
CENTER
100
AcDbLine
 10
141.1541569349
 20
390.4214198187
 30
0.0
 11
141.1541569349
 21
380.8379007424
 31
0.0
  0
ARC
  5
17B5
330
2
100
AcDbEntity
  8
0
100
AcDbCircle
 10
142.9677932986
 20
387.4432966442
 30
0.0
 40
1.336363636363619
100
AcDbArc
 50
180.0
 51
270.0
  0
ARC
  5
17B6
330
2
100
AcDbEntity
  8
0
100
AcDbCircle
 10
139.3405205713
 20
387.4432966442
 30
0.0
 40
1.336363636363619
100
AcDbArc
 50
270.0
 51
0.0
  0
ARC
  5
17B7
330
2
100
AcDbEntity
  8
0
100
AcDbCircle
 10
142.9677932986
 20
383.8160239169
 30
0.0
 40
1.336363636363619
100
AcDbArc
 50
90.0
 51
180.0
  0
LINE
  5
17B8
330
2
100
AcDbEntity
  8
0
100
AcDbLine
 10
139.0541569349
 20
386.1069330078
 30
0.0
 11
139.3405205713
 21
386.1069330078
 31
0.0
  0
LINE
  5
17B9
330
2
100
AcDbEntity
  8
0
100
AcDbLine
 10
139.0541569349
 20
385.6296602805
 30
0.0
 11
139.0541569349
 21
386.1069330078
 31
0.0
  0
LINE
  5
17BA
330
2
100
AcDbEntity
  8
0
100
AcDbLine
 10
141.2272375748
 20
381.8303630797
 30
0.0
 11
141.2272375748
 21
382.1304233323
 31
0.0
  0
LINE
  5
17BB
330
2
100
AcDbEntity
  8
0
100
AcDbLine
 10
140.8131271026
 20
381.8449940266
 30
0.0
 11
140.8131271026
 21
382.1463143813
 31
0.0
  0
LINE
  5
17BC
330
2
100
AcDbEntity
  8
0
100
AcDbLine
 10
141.6314296622
 20
383.8160239169
 30
0.0
 11
141.6314296622
 21
383.5296602805
 31
0.0
  0
LINE
  5
17BD
330
2
100
AcDbEntity
  8
0
100
AcDbLine
 10
141.6314296622
 20
383.5296602805
 30
0.0
 11
141.1541569349
 21
383.5296602805
 31
0.0
  0
LINE
  5
17BE
330
2
100
AcDbEntity
  8
0
100
AcDbLine
 10
141.1541569349
 20
383.5296602805
 30
0.0
 11
140.6768842077
 21
383.5296602805
 31
0.0
  0
LINE
  5
17BF
330
2
100
AcDbEntity
  8
0
100
AcDbLine
 10
140.6768842077
 20
383.5296602805
 30
0.0
 11
140.6768842077
 21
383.8160239169
 31
0.0
  0
LINE
  5
17C0
330
2
100
AcDbEntity
  8
0
100
AcDbLine
 10
139.3405205713
 20
385.1523875533
 30
0.0
 11
139.0541569349
 21
385.1523875533
 31
0.0
  0
ARC
  5
17C1
330
2
100
AcDbEntity
  8
0
100
AcDbCircle
 10
139.3405205713
 20
383.8160239169
 30
0.0
 40
1.336363636363619
100
AcDbArc
 50
0.0
 51
90.0
  0
LINE
  5
17C2
330
2
100
AcDbEntity
  8
0
100
AcDbLine
 10
139.0541569349
 20
385.1523875533
 30
0.0
 11
139.0541569349
 21
385.6296602805
 31
0.0
  0
LINE
  5
17C3
330
2
100
AcDbEntity
  8
0
100
AcDbLine
 10
142.9677932986
 20
386.1069330078
 30
0.0
 11
143.2541569349
 21
386.1069330078
 31
0.0
  0
LINE
  5
17C4
330
2
100
AcDbEntity
  8
0
100
AcDbLine
 10
143.2541569349
 20
386.1069330078
 30
0.0
 11
143.2541569349
 21
385.6296602805
 31
0.0
  0
LINE
  5
17C5
330
2
100
AcDbEntity
  8
0
100
AcDbLine
 10
143.2541569349
 20
385.1523875533
 30
0.0
 11
142.9677932986
 21
385.1523875533
 31
0.0
  0
LINE
  5
17C6
330
2
100
AcDbEntity
  8
0
100
AcDbLine
 10
143.2541569349
 20
385.6296602805
 30
0.0
 11
143.2541569349
 21
385.1523875533
 31
0.0
  0
LINE
  5
17C7
330
2
100
AcDbEntity
  8
0
100
AcDbLine
 10
141.1541569349
 20
387.7296602805
 30
0.0
 11
141.6314296622
 21
387.7296602805
 31
0.0
  0
LINE
  5
17C8
330
2
100
AcDbEntity
  8
0
100
AcDbLine
 10
141.6314296622
 20
387.7296602805
 30
0.0
 11
141.6314296622
 21
387.4432966442
 31
0.0
  0
LINE
  5
17C9
330
2
100
AcDbEntity
  8
0
100
AcDbLine
 10
140.6768842077
 20
387.7296602805
 30
0.0
 11
141.1541569349
 21
387.7296602805
 31
0.0
  0
LINE
  5
17CA
330
2
100
AcDbEntity
  8
0
100
AcDbLine
 10
140.6768842077
 20
387.4432966442
 30
0.0
 11
140.6768842077
 21
387.7296602805
 31
0.0
  0
LINE
  5
17CB
330
2
100
AcDbEntity
  8
0
100
AcDbLine
 10
141.1541569349
 20
374.9246963866
 30
0.0
 11
141.1541569349
 21
378.5194223866
 31
0.0
  0
LINE
  5
17CC
330
2
100
AcDbEntity
  8
0
100
AcDbLine
 10
139.5814929349
 20
371.9387963866
 30
0.0
 11
142.8017389349
 21
371.9387963866
 31
0.0
  0
LINE
  5
17CD
330
2
100
AcDbEntity
  8
0
100
AcDbLine
 10
136.9603389349
 20
374.9246963866
 30
0.0
 11
145.4977529349
 21
374.9246963866
 31
0.0
  0
LINE
  5
17CE
330
2
100
AcDbEntity
  8
0
100
AcDbLine
 10
138.3083609349
 20
373.4246963866
 30
0.0
 11
143.9821589349
 21
373.4246963866
 31
0.0
  0
CIRCLE
  5
17CF
330
2
100
AcDbEntity
  8
0
100
AcDbCircle
 10
141.1541569349
 20
385.6296602805
 30
0.0
 40
4.0
  0
CIRCLE
  5
17D0
330
2
100
AcDbEntity
  8
0
100
AcDbCircle
 10
141.1541569349
 20
374.9246963866
 30
0.0
 40
4.926010018386079
  0
INSERT
  5
17E5
330
2
100
AcDbEntity
  8
0
100
AcDbBlockReference
  2
A$C489724a8
 10
1010.3158949349
 20
156.9546422805
 30
0.0
  0
ENDSEC
  0
SECTION
  2
OBJECTS
  0
DICTIONARY
  5
7
330
0
100
AcDbDictionary
281
     1
  3
ACAD_CIP_PREVIOUS_PRODUCT_INFO
350
16FC
  3
ACAD_COLOR
350
1612
  3
ACAD_DETAILVIEWSTYLE
350
16F8
  3
ACAD_GROUP
350
75
  3
ACAD_LAYOUT
350
61
  3
ACAD_MATERIAL
350
15E8
  3
ACAD_MLEADERSTYLE
350
1637
  3
ACAD_MLINESTYLE
350
76
  3
ACAD_PLOTSETTINGS
350
77
  3
ACAD_PLOTSTYLENAME
350
6
  3
ACAD_SCALELIST
350
1615
  3
ACAD_SECTIONVIEWSTYLE
350
16F6
  3
ACAD_TABLESTYLE
350
1613
  3
ACAD_VISUALSTYLE
350
1601
  3
AcadDim
350
480
  3
ACDB_RECOMPOSE_DATA
350
1916
  3
AcDbVariableDictionary
350
102
  3
DWGPROPS
350
1917
  0
DICTIONARY
  5
1668
330
6E
100
AcDbDictionary
280
     1
281
     1
  0
DICTIONARY
  5
1781
330
66
100
AcDbDictionary
280
     1
281
     1
  3
ACAD_LAYERSTATES
360
1782
  0
DICTIONARY
  5
163C
330
5E
100
AcDbDictionary
280
     1
281
     1
  3
ADSK_XREC_LAYER_RECONCILED
360
163D
  0
DICTIONARY
  5
163E
330
3E
100
AcDbDictionary
280
     1
281
     1
  3
ADSK_XREC_LAYER_RECONCILED
360
163F
  0
DICTIONARY
  5
1644
330
2B5
100
AcDbDictionary
280
     1
281
     1
  3
ADSK_XREC_LAYER_RECONCILED
360
1645
  0
DICTIONARY
  5
1646
330
2BA
100
AcDbDictionary
280
     1
281
     1
  3
ADSK_XREC_LAYER_RECONCILED
360
1647
  0
DICTIONARY
  5
164A
330
3FA
100
AcDbDictionary
280
     1
281
     1
  3
ADSK_XREC_LAYER_RECONCILED
360
164B
  0
XRECORD
  5
16FC
102
{ACAD_REACTORS
330
7
102
}
330
7
100
AcDbXrecord
280
     1
300
ACD
300
2020
300
87224ACD_2020_0F
  0
DICTIONARY
  5
1612
102
{ACAD_REACTORS
330
7
102
}
330
7
100
AcDbDictionary
281
     1
  0
DICTIONARY
  5
16F8
102
{ACAD_REACTORS
330
7
102
}
330
7
100
AcDbDictionary
281
     1
  3
Imperial24
350
16F9
  0
DICTIONARY
  5
75
102
{ACAD_REACTORS
330
7
102
}
330
7
100
AcDbDictionary
281
     1
  0
DICTIONARY
  5
61
102
{ACAD_REACTORS
330
7
102
}
330
7
100
AcDbDictionary
281
     1
  3
Model
350
60
  3
レイアウト1
350
1910
  0
DICTIONARY
  5
15E8
102
{ACAD_REACTORS
330
7
102
}
330
7
100
AcDbDictionary
281
     1
  3
ByBlock
350
15F1
  3
ByLayer
350
15E9
  3
Global
350
15F9
  0
DICTIONARY
  5
1637
102
{ACAD_REACTORS
330
7
102
}
330
7
100
AcDbDictionary
281
     1
  3
Standard
350
1638
  0
DICTIONARY
  5
76
102
{ACAD_REACTORS
330
7
102
}
330
7
100
AcDbDictionary
281
     1
  3
STANDARD
350
78
  0
DICTIONARY
  5
77
102
{ACAD_REACTORS
330
7
102
}
330
7
100
AcDbDictionary
281
     1
  0
ACDBDICTIONARYWDFLT
  5
6
102
{ACAD_REACTORS
330
7
102
}
330
7
100
AcDbDictionary
281
     1
  3
Normal
350
5
100
AcDbDictionaryWithDefault
340
5
  0
DICTIONARY
  5
1615
102
{ACAD_REACTORS
330
7
102
}
330
7
100
AcDbDictionary
281
     1
  3
A0
350
1616
  3
A1
350
1617
  3
A2
350
1618
  3
A3
350
1619
  3
A4
350
161A
  3
A5
350
161B
  3
A6
350
161C
  3
A7
350
161D
  3
A8
350
161E
  3
A9
350
161F
  3
B0
350
1620
  3
B1
350
1621
  3
B2
350
1622
  3
B3
350
1623
  3
B4
350
1624
  3
B5
350
1625
  3
B6
350
1626
  3
B7
350
1627
  3
B8
350
1628
  3
B9
350
1629
  3
C0
350
162A
  3
C1
350
162B
  3
C2
350
162C
  3
C3
350
162D
  3
C4
350
162E
  3
C5
350
162F
  3
C6
350
1630
  3
C7
350
1631
  3
C8
350
1632
  3
C9
350
1633
  3
D0
350
1634
  3
D1
350
1635
  3
D2
350
1636
  0
DICTIONARY
  5
16F6
102
{ACAD_REACTORS
330
7
102
}
330
7
100
AcDbDictionary
281
     1
  3
Imperial24
350
16F7
  0
DICTIONARY
  5
1613
102
{ACAD_REACTORS
330
7
102
}
330
7
100
AcDbDictionary
281
     1
  3
Standard
350
1614
  0
DICTIONARY
  5
1601
102
{ACAD_REACTORS
330
7
102
}
330
7
100
AcDbDictionary
281
     1
  3
2dWireframe
350
1607
  3
3D Hidden
350
1609
  3
3dWireframe
350
1608
  3
Basic
350
1606
  3
Brighten
350
160D
  3
ColorChange
350
1611
  3
Conceptual
350
160A
  3
Dim
350
160C
  3
EdgeColorOff
350
16F5
  3
Facepattern
350
1610
  3
Flat
350
1602
  3
FlatWithEdges
350
1603
  3
Gouraud
350
1604
  3
GouraudWithEdges
350
1605
  3
Hidden
350
16ED
  3
JitterOff
350
16F3
  3
Linepattern
350
160F
  3
OverhangOff
350
16F4
  3
Realistic
350
160B
  3
Shaded
350
16F2
  3
Shaded with edges
350
16F1
  3
Shades of Gray
350
16EE
  3
Sketchy
350
16EF
  3
Thicken
350
160E
  3
Wireframe
350
16EC
  3
X-Ray
350
16F0
  0
XRECORD
  5
480
102
{ACAD_REACTORS
330
7
102
}
330
7
100
AcDbXrecord
280
     1
 90
   990106
  3

 60
     0
 61
     0
 62
     1
 63
     3
 64
     1
 65
     0
 66
     0
 67
     3
 68
     1
 69
     0
 70
     0
 71
     0
 72
     0
 40
0.0
170
     2
340
0
  0
XRECORD
  5
1916
102
{ACAD_REACTORS
330
7
102
}
330
7
100
AcDbXrecord
280
     1
 90
        1
330
1614
  0
DICTIONARY
  5
102
102
{ACAD_REACTORS
330
7
102
}
330
7
100
AcDbDictionary
281
     1
  3
CANNOSCALE
350
164E
  3
CMLEADERSTYLE
350
164D
  3
CTABLESTYLE
350
164C
  3
CVIEWDETAILSTYLE
350
176B
  3
CVIEWSECTIONSTYLE
350
176C
  3
DIMASSOC
350
103
  3
INDEXCTL
350
169D
  3
SORTENTS
350
169C
  3
XCLIPFRAME
350
1914
  0
XRECORD
  5
1917
102
{ACAD_REACTORS
330
7
102
}
330
7
100
AcDbXrecord
280
     1
  1
DWGPROPS COOKIE
  2

  3

  4

  6

  7

  8
ykitaga
  9

300
=
301
=
302
=
303
=
304
=
305
=
306
=
307
=
308
=
309
=
 40
0.1074410648
 41
2453753.368587963
 42
2460516.493958333
  1

 90
        0
  0
DICTIONARY
  5
1782
102
{ACAD_REACTORS
330
1781
102
}
330
1781
100
AcDbDictionary
281
     1
  0
XRECORD
  5
163D
102
{ACAD_REACTORS
330
163C
102
}
330
163C
100
AcDbXrecord
280
     1
290
     1
  0
XRECORD
  5
163F
102
{ACAD_REACTORS
330
163E
102
}
330
163E
100
AcDbXrecord
280
     1
290
     1
  0
XRECORD
  5
1645
102
{ACAD_REACTORS
330
1644
102
}
330
1644
100
AcDbXrecord
280
     1
290
     1
  0
XRECORD
  5
1647
102
{ACAD_REACTORS
330
1646
102
}
330
1646
100
AcDbXrecord
280
     1
290
     1
  0
XRECORD
  5
164B
102
{ACAD_REACTORS
330
164A
102
}
330
164A
100
AcDbXrecord
280
     1
290
     1
  0
ACDBDETAILVIEWSTYLE
  5
16F9
102
{ACAD_XDICTIONARY
360
1970
102
}
102
{ACAD_REACTORS
330
16F8
102
}
330
16F8
100
AcDbModelDocViewStyle
 70
     0
  3
Imperial24
290
     0
100
AcDbDetailViewStyle
 70
     0
 71
     0
 90
        3
 71
     1
340
16
 40
0.24
340
0
 40
0.24
300

 40
0.36
280
     3
 71
     2
340
8
 90
       25
 71
     3
340
16
 40
0.24
 90
        1
 40
0.75
 90
        1
300
%<\AcVar ViewType \f "%tc1">% %<\AcVar ViewDetailId>%\PSCALE %<\AcVar ViewScale \f "%sn">%
 71
     4
340
8
 90
       25
340
8
 90
       25
280
     0
  0
LAYOUT
  5
60
102
{ACAD_XDICTIONARY
360
1918
102
}
102
{ACAD_REACTORS
330
61
102
}
330
61
100
AcDbPlotSettings
  1

  2
Canon LBP-1420
  4
A4
  6

 40
5.873749733
 41
5.8737478256
 42
5.8737487793
 43
5.8737487793
 44
209.9733276367
 45
296.925994873
 46
0.0
 47
5.37
 48
0.0
 49
0.0
140
0.0
141
0.0
142
1.0
143
0.088099941
 70
 11956
 72
     1
 73
     1
 74
     1
  7
Sekkei.ctb
 75
     0
147
11.3507453947
148
-88.9740150773
149
-101.3630682339
100
AcDbLayout
  1
Model
 70
     1
 71
     0
 10
0.0
 20
0.0
 11
12.0
 21
9.0
 12
0.0
 22
0.0
 32
0.0
 14
0.0
 24
0.0
 34
0.0
 15
0.0
 25
0.0
 35
0.0
146
0.0
 13
0.0
 23
0.0
 33
0.0
 16
1.0
 26
0.0
 36
0.0
 17
0.0
 27
1.0
 37
0.0
 76
     0
330
2
331
15E6
  0
LAYOUT
  5
1910
102
{ACAD_XDICTIONARY
360
1972
102
}
102
{ACAD_REACTORS
330
61
102
}
330
61
100
AcDbPlotSettings
  1

  2
LBP8610
  4

  6

 40
0.0
 41
0.0
 42
0.0
 43
0.0
 44
0.0
 45
0.0
 46
0.0
 47
0.0
 48
0.0
 49
0.0
140
0.0
141
0.0
142
1.0
143
1.0
 70
   688
 72
     0
 73
     0
 74
     5
  7

 75
    16
147
1.0
148
0.0
149
0.0
100
AcDbLayout
  1
レイアウト1
 70
     1
 71
     1
 10
0.0
 20
0.0
 11
12.0
 21
9.0
 12
0.0
 22
0.0
 32
0.0
 14
0.0
 24
0.0
 34
0.0
 15
0.0
 25
0.0
 35
0.0
146
0.0
 13
0.0
 23
0.0
 33
0.0
 16
1.0
 26
0.0
 36
0.0
 17
0.0
 27
1.0
 37
0.0
 76
     0
330
190F
  0
MATERIAL
  5
15F1
102
{ACAD_XDICTIONARY
360
15F2
102
}
102
{ACAD_REACTORS
330
15E8
102
}
330
15E8
100
AcDbMaterial
  1
ByBlock
 72
     0
 43
0.0208333333
 43
0.0
 43
0.0
 43
0.0
 43
0.0
 43
0.0208333333
 43
0.0
 43
0.0
 43
0.0
 43
0.0
 43
1.0
 43
0.0
 43
0.0
 43
0.0
 43
0.0
 43
1.0
 77
     0
 47
0.0208333333
 47
0.0
 47
0.0
 47
0.0
 47
0.0
 47
0.0208333333
 47
0.0
 47
0.0
 47
0.0
 47
0.0
 47
1.0
 47
0.0
 47
0.0
 47
0.0
 47
0.0
 47
1.0
171
     0
 49
0.0208333333
 49
0.0
 49
0.0
 49
0.0
 49
0.0
 49
0.0208333333
 49
0.0
 49
0.0
 49
0.0
 49
0.0
 49
1.0
 49
0.0
 49
0.0
 49
0.0
 49
0.0
 49
1.0
175
     0
142
0.0208333333
142
0.0
142
0.0
142
0.0
142
0.0
142
0.0208333333
142
0.0
142
0.0
142
0.0
142
0.0
142
1.0
142
0.0
142
0.0
142
0.0
142
0.0
142
1.0
179
     0
144
0.0208333333
144
0.0
144
0.0
144
0.0
144
0.0
144
0.0208333333
144
0.0
144
0.0
144
0.0
144
0.0
144
1.0
144
0.0
144
0.0
144
0.0
144
0.0
144
1.0
147
0.0208333333
147
0.0
147
0.0
147
0.0
147
0.0
147
0.0208333333
147
0.0
147
0.0
147
0.0
147
0.0
147
1.0
147
0.0
147
0.0
147
0.0
147
0.0
147
1.0
  0
MATERIAL
  5
15E9
102
{ACAD_XDICTIONARY
360
15EA
102
}
102
{ACAD_REACTORS
330
15E8
102
}
330
15E8
100
AcDbMaterial
  1
ByLayer
 72
     0
 43
0.0208333333
 43
0.0
 43
0.0
 43
0.0
 43
0.0
 43
0.0208333333
 43
0.0
 43
0.0
 43
0.0
 43
0.0
 43
1.0
 43
0.0
 43
0.0
 43
0.0
 43
0.0
 43
1.0
 77
     0
 47
0.0208333333
 47
0.0
 47
0.0
 47
0.0
 47
0.0
 47
0.0208333333
 47
0.0
 47
0.0
 47
0.0
 47
0.0
 47
1.0
 47
0.0
 47
0.0
 47
0.0
 47
0.0
 47
1.0
171
     0
 49
0.0208333333
 49
0.0
 49
0.0
 49
0.0
 49
0.0
 49
0.0208333333
 49
0.0
 49
0.0
 49
0.0
 49
0.0
 49
1.0
 49
0.0
 49
0.0
 49
0.0
 49
0.0
 49
1.0
175
     0
142
0.0208333333
142
0.0
142
0.0
142
0.0
142
0.0
142
0.0208333333
142
0.0
142
0.0
142
0.0
142
0.0
142
1.0
142
0.0
142
0.0
142
0.0
142
0.0
142
1.0
179
     0
144
0.0208333333
144
0.0
144
0.0
144
0.0
144
0.0
144
0.0208333333
144
0.0
144
0.0
144
0.0
144
0.0
144
1.0
144
0.0
144
0.0
144
0.0
144
0.0
144
1.0
147
0.0208333333
147
0.0
147
0.0
147
0.0
147
0.0
147
0.0208333333
147
0.0
147
0.0
147
0.0
147
0.0
147
1.0
147
0.0
147
0.0
147
0.0
147
0.0
147
1.0
  0
MATERIAL
  5
15F9
102
{ACAD_XDICTIONARY
360
15FA
102
}
102
{ACAD_REACTORS
330
15E8
102
}
330
15E8
100
AcDbMaterial
  1
Global
 72
     0
 43
0.0208333333
 43
0.0
 43
0.0
 43
0.0
 43
0.0
 43
0.0208333333
 43
0.0
 43
0.0
 43
0.0
 43
0.0
 43
1.0
 43
0.0
 43
0.0
 43
0.0
 43
0.0
 43
1.0
 77
     0
 47
0.0208333333
 47
0.0
 47
0.0
 47
0.0
 47
0.0
 47
0.0208333333
 47
0.0
 47
0.0
 47
0.0
 47
0.0
 47
1.0
 47
0.0
 47
0.0
 47
0.0
 47
0.0
 47
1.0
171
     0
 49
0.0208333333
 49
0.0
 49
0.0
 49
0.0
 49
0.0
 49
0.0208333333
 49
0.0
 49
0.0
 49
0.0
 49
0.0
 49
1.0
 49
0.0
 49
0.0
 49
0.0
 49
0.0
 49
1.0
175
     0
142
0.0208333333
142
0.0
142
0.0
142
0.0
142
0.0
142
0.0208333333
142
0.0
142
0.0
142
0.0
142
0.0
142
1.0
142
0.0
142
0.0
142
0.0
142
0.0
142
1.0
179
     0
144
0.0208333333
144
0.0
144
0.0
144
0.0
144
0.0
144
0.0208333333
144
0.0
144
0.0
144
0.0
144
0.0
144
1.0
144
0.0
144
0.0
144
0.0
144
0.0
144
1.0
147
0.0208333333
147
0.0
147
0.0
147
0.0
147
0.0
147
0.0208333333
147
0.0
147
0.0
147
0.0
147
0.0
147
1.0
147
0.0
147
0.0
147
0.0
147
0.0
147
1.0
  0
MLEADERSTYLE
  5
1638
102
{ACAD_REACTORS
330
1637
102
}
330
1637
100
AcDbMLeaderStyle
170
     2
171
     1
172
     0
 90
        2
 40
0.0
 41
0.0
173
     1
 91
-1056964608
340
6A
 92
       -2
290
     1
 42
0.09
291
     1
 43
0.36
  3
Standard
 44
0.18
300

342
16
174
     1
178
     6
175
     1
176
     0
 93
-1056964608
 45
0.18
292
     0
297
     0
 46
0.18
 94
-1056964608
 47
1.0
 49
1.0
140
1.0
293
     1
141
0.0
294
     1
177
     0
142
1.0
295
     0
296
     0
143
0.125
1001
ACAD_MLEADERVER
1070
     2
  0
MLINESTYLE
  5
78
102
{ACAD_REACTORS
330
76
102
}
330
76
100
AcDbMlineStyle
  2
STANDARD
 70
     0
  3

 62
     0
 51
90.0
 52
90.0
 71
     2
 49
0.5
 62
   256
  6
BYLAYER
 49
-0.5
 62
   256
  6
BYLAYER
  0
ACDBPLACEHOLDER
  5
5
102
{ACAD_REACTORS
330
6
102
}
330
6
  0
SCALE
  5
1616
102
{ACAD_REACTORS
330
1615
102
}
330
1615
100
AcDbScale
 70
     0
300
1:1
140
1.0
141
1.0
290
     1
  0
SCALE
  5
1617
102
{ACAD_REACTORS
330
1615
102
}
330
1615
100
AcDbScale
 70
     0
300
1:2
140
1.0
141
2.0
290
     0
  0
SCALE
  5
1618
102
{ACAD_REACTORS
330
1615
102
}
330
1615
100
AcDbScale
 70
     0
300
1:4
140
1.0
141
4.0
290
     0
  0
SCALE
  5
1619
102
{ACAD_REACTORS
330
1615
102
}
330
1615
100
AcDbScale
 70
     0
300
1:5
140
1.0
141
5.0
290
     0
  0
SCALE
  5
161A
102
{ACAD_REACTORS
330
1615
102
}
330
1615
100
AcDbScale
 70
     0
300
1:8
140
1.0
141
8.0
290
     0
  0
SCALE
  5
161B
102
{ACAD_REACTORS
330
1615
102
}
330
1615
100
AcDbScale
 70
     0
300
1:10
140
1.0
141
10.0
290
     0
  0
SCALE
  5
161C
102
{ACAD_REACTORS
330
1615
102
}
330
1615
100
AcDbScale
 70
     0
300
1:16
140
1.0
141
16.0
290
     0
  0
SCALE
  5
161D
102
{ACAD_REACTORS
330
1615
102
}
330
1615
100
AcDbScale
 70
     0
300
1:20
140
1.0
141
20.0
290
     0
  0
SCALE
  5
161E
102
{ACAD_REACTORS
330
1615
102
}
330
1615
100
AcDbScale
 70
     0
300
1:30
140
1.0
141
30.0
290
     0
  0
SCALE
  5
161F
102
{ACAD_REACTORS
330
1615
102
}
330
1615
100
AcDbScale
 70
     0
300
1:40
140
1.0
141
40.0
290
     0
  0
SCALE
  5
1620
102
{ACAD_REACTORS
330
1615
102
}
330
1615
100
AcDbScale
 70
     0
300
1:50
140
1.0
141
50.0
290
     0
  0
SCALE
  5
1621
102
{ACAD_REACTORS
330
1615
102
}
330
1615
100
AcDbScale
 70
     0
300
1:100
140
1.0
141
100.0
290
     0
  0
SCALE
  5
1622
102
{ACAD_REACTORS
330
1615
102
}
330
1615
100
AcDbScale
 70
     0
300
2:1
140
2.0
141
1.0
290
     0
  0
SCALE
  5
1623
102
{ACAD_REACTORS
330
1615
102
}
330
1615
100
AcDbScale
 70
     0
300
4:1
140
4.0
141
1.0
290
     0
  0
SCALE
  5
1624
102
{ACAD_REACTORS
330
1615
102
}
330
1615
100
AcDbScale
 70
     0
300
8:1
140
8.0
141
1.0
290
     0
  0
SCALE
  5
1625
102
{ACAD_REACTORS
330
1615
102
}
330
1615
100
AcDbScale
 70
     0
300
10:1
140
10.0
141
1.0
290
     0
  0
SCALE
  5
1626
102
{ACAD_REACTORS
330
1615
102
}
330
1615
100
AcDbScale
 70
     0
300
100:1
140
100.0
141
1.0
290
     0
  0
SCALE
  5
1627
102
{ACAD_REACTORS
330
1615
102
}
330
1615
100
AcDbScale
 70
     0
300
1/128" = 1'-0"
140
0.0078125
141
12.0
290
     0
  0
SCALE
  5
1628
102
{ACAD_REACTORS
330
1615
102
}
330
1615
100
AcDbScale
 70
     0
300
1/64" = 1'-0"
140
0.015625
141
12.0
290
     0
  0
SCALE
  5
1629
102
{ACAD_REACTORS
330
1615
102
}
330
1615
100
AcDbScale
 70
     0
300
1/32" = 1'-0"
140
0.03125
141
12.0
290
     0
  0
SCALE
  5
162A
102
{ACAD_REACTORS
330
1615
102
}
330
1615
100
AcDbScale
 70
     0
300
1/16" = 1'-0"
140
0.0625
141
12.0
290
     0
  0
SCALE
  5
162B
102
{ACAD_REACTORS
330
1615
102
}
330
1615
100
AcDbScale
 70
     0
300
3/32" = 1'-0"
140
0.09375
141
12.0
290
     0
  0
SCALE
  5
162C
102
{ACAD_REACTORS
330
1615
102
}
330
1615
100
AcDbScale
 70
     0
300
1/8" = 1'-0"
140
0.125
141
12.0
290
     0
  0
SCALE
  5
162D
102
{ACAD_REACTORS
330
1615
102
}
330
1615
100
AcDbScale
 70
     0
300
3/16" = 1'-0"
140
0.1875
141
12.0
290
     0
  0
SCALE
  5
162E
102
{ACAD_REACTORS
330
1615
102
}
330
1615
100
AcDbScale
 70
     0
300
1/4" = 1'-0"
140
0.25
141
12.0
290
     0
  0
SCALE
  5
162F
102
{ACAD_REACTORS
330
1615
102
}
330
1615
100
AcDbScale
 70
     0
300
3/8" = 1'-0"
140
0.375
141
12.0
290
     0
  0
SCALE
  5
1630
102
{ACAD_REACTORS
330
1615
102
}
330
1615
100
AcDbScale
 70
     0
300
1/2" = 1'-0"
140
0.5
141
12.0
290
     0
  0
SCALE
  5
1631
102
{ACAD_REACTORS
330
1615
102
}
330
1615
100
AcDbScale
 70
     0
300
3/4" = 1'-0"
140
0.75
141
12.0
290
     0
  0
SCALE
  5
1632
102
{ACAD_REACTORS
330
1615
102
}
330
1615
100
AcDbScale
 70
     0
300
1" = 1'-0"
140
1.0
141
12.0
290
     0
  0
SCALE
  5
1633
102
{ACAD_REACTORS
330
1615
102
}
330
1615
100
AcDbScale
 70
     0
300
1-1/2" = 1'-0"
140
1.5
141
12.0
290
     0
  0
SCALE
  5
1634
102
{ACAD_REACTORS
330
1615
102
}
330
1615
100
AcDbScale
 70
     0
300
3" = 1'-0"
140
3.0
141
12.0
290
     0
  0
SCALE
  5
1635
102
{ACAD_REACTORS
330
1615
102
}
330
1615
100
AcDbScale
 70
     0
300
6" = 1'-0"
140
6.0
141
12.0
290
     0
  0
SCALE
  5
1636
102
{ACAD_REACTORS
330
1615
102
}
330
1615
100
AcDbScale
 70
     0
300
1'-0" = 1'-0"
140
12.0
141
12.0
290
     0
  0
ACDBSECTIONVIEWSTYLE
  5
16F7
102
{ACAD_XDICTIONARY
360
196E
102
}
102
{ACAD_REACTORS
330
16F6
102
}
330
16F6
100
AcDbModelDocViewStyle
 70
     0
  3
Imperial24
290
     0
100
AcDbSectionViewStyle
 70
     0
 71
     0
 90
       78
 71
     1
340
16
 40
0.24
340
0
340
0
 40
0.24
300
I, O, Q, S, X, Z
 40
0.48
 90
        3
 40
0.18
 90
        1
 71
     2
340
8
 90
       25
340
8
 90
       50
 40
0.24
 40
0.0
 40
0.24
 71
     3
340
16
 40
0.24
 90
        1
 40
0.75
 90
        1
300
%<\AcVar ViewType \f "%tc1">% %<\AcVar ViewSectionStartId>%-%<\AcVar ViewSectionEndId>%\PSCALE %<\AcVar ViewScale \f "%sn">%
 71
     4
300
ANSI31
 40
1.0
 90
        0
290
     0
290
     0
 90
        6
 40
0.0
 40
1.5707963268
 40
0.2617993878
 40
1.308996939
 40
-0.2617993878
 40
1.8325957146
  0
TABLESTYLE
  5
1614
102
{ACAD_XDICTIONARY
360
164F
102
}
102
{ACAD_REACTORS
330
1613
102
}
330
1613
100
AcDbTableStyle
  3
Standard
 70
     0
 71
     0
 40
0.06
 41
0.06
280
     0
281
     0
  7
STANDARD
140
0.18
170
     2
 62
     0
 63
     7
283
     0
274
    -2
284
     1
 64
     0
275
    -2
285
     1
 65
     0
276
    -2
286
     1
 66
     0
277
    -2
287
     1
 67
     0
278
    -2
288
     1
 68
     0
279
    -2
289
     1
 69
     0
  7
STANDARD
140
0.25
170
     5
 62
     0
 63
     7
283
     0
274
    -2
284
     1
 64
     0
275
    -2
285
     1
 65
     0
276
    -2
286
     1
 66
     0
277
    -2
287
     1
 67
     0
278
    -2
288
     1
 68
     0
279
    -2
289
     1
 69
     0
  7
STANDARD
140
0.18
170
     5
 62
     0
 63
     7
283
     0
274
    -2
284
     1
 64
     0
275
    -2
285
     1
 65
     0
276
    -2
286
     1
 66
     0
277
    -2
287
     1
 67
     0
278
    -2
288
     1
 68
     0
279
    -2
289
     1
 69
     0
  0
VISUALSTYLE
  5
1607
102
{ACAD_XDICTIONARY
360
1943
102
}
102
{ACAD_REACTORS
330
1601
102
}
330
1601
100
AcDbVisualStyle
  2
2dWireframe
 70
     4
 71
     0
 72
     2
 73
     0
 90
        0
 40
-0.6
 41
-30.0
 62
     5
 63
     7
 74
     1
 91
        4
 64
     7
 65
   257
 75
     1
175
     1
 42
1.0
 92
        0
 66
   257
 43
1.0
 76
     1
 77
     6
 78
     2
 67
     7
 79
     5
170
     0
171
     0
290
     0
174
     0
 93
        1
 44
0.0
173
     0
291
     0
 45
0.0
1001
ACAD
1000
AcDbSavedByObjectVersion
1070
     0
  0
VISUALSTYLE
  5
1609
102
{ACAD_XDICTIONARY
360
1947
102
}
102
{ACAD_REACTORS
330
1601
102
}
330
1601
100
AcDbVisualStyle
  2
3D Hidden
 70
     6
 71
     1
 72
     2
 73
     2
 90
        0
 40
-0.6
 41
-30.0
 62
     5
 63
     7
 74
     2
 91
        2
 64
     7
 65
   257
 75
     2
175
     1
 42
40.0
 92
        0
 66
   257
 43
1.0
 76
     1
 77
     6
 78
     2
 67
     7
 79
     3
170
     0
171
     0
290
     0
174
     0
 93
        1
 44
0.0
173
     0
291
     0
 45
0.0
1001
ACAD
1000
AcDbSavedByObjectVersion
1070
     0
  0
VISUALSTYLE
  5
1608
102
{ACAD_XDICTIONARY
360
1945
102
}
102
{ACAD_REACTORS
330
1601
102
}
330
1601
100
AcDbVisualStyle
  2
3dWireframe
 70
     5
 71
     0
 72
     2
 73
     0
 90
        0
 40
-0.6
 41
-30.0
 62
     5
 63
     7
 74
     1
 91
        4
 64
     7
 65
   257
 75
     1
175
     1
 42
1.0
 92
        0
 66
   257
 43
1.0
 76
     1
 77
     6
 78
     2
 67
     7
 79
     5
170
     0
171
     0
290
     0
174
     0
 93
        1
 44
0.0
173
     0
291
     0
 45
0.0
1001
ACAD
1000
AcDbSavedByObjectVersion
1070
     0
  0
VISUALSTYLE
  5
1606
102
{ACAD_XDICTIONARY
360
1941
102
}
102
{ACAD_REACTORS
330
1601
102
}
330
1601
100
AcDbVisualStyle
  2
Basic
 70
     7
 71
     1
 72
     0
 73
     1
 90
        0
 40
-0.6
 41
-30.0
 62
     5
 63
     7
 74
     0
 91
        4
 64
     7
 65
   257
 75
     1
175
     1
 42
1.0
 92
        8
 66
     7
 43
1.0
 76
     1
 77
     6
 78
     2
 67
     7
 79
     5
170
     0
171
     0
290
     0
174
     0
 93
        1
 44
0.0
173
     0
291
     1
 45
0.0
1001
ACAD
1000
AcDbSavedByObjectVersion
1070
     0
  0
VISUALSTYLE
  5
160D
102
{ACAD_XDICTIONARY
360
194F
102
}
102
{ACAD_REACTORS
330
1601
102
}
330
1601
100
AcDbVisualStyle
  2
Brighten
 70
    12
 71
     2
 72
     2
 73
     0
 90
        0
 40
-0.6
 41
-30.0
 62
     5
 63
     7
 74
     1
 91
        4
 64
     7
 65
   257
 75
     1
175
     1
 42
1.0
 92
        8
 66
     7
 43
1.0
 76
     1
 77
     6
 78
     2
 67
     7
 79
     5
170
     0
171
     0
290
     0
174
     0
 93
        1
 44
50.0
173
     0
291
     1
 45
0.0
1001
ACAD
1000
AcDbSavedByObjectVersion
1070
     0
  0
VISUALSTYLE
  5
1611
102
{ACAD_XDICTIONARY
360
1957
102
}
102
{ACAD_REACTORS
330
1601
102
}
330
1601
100
AcDbVisualStyle
  2
ColorChange
 70
    16
 71
     2
 72
     2
 73
     3
 90
        0
 40
-0.6
 41
-30.0
 62
     5
 63
     8
 74
     1
 91
        4
 64
     7
 65
   257
 75
     1
175
     1
 42
1.0
 92
        8
 66
     8
 43
1.0
 76
     1
 77
     6
 78
     2
 67
     7
 79
     5
170
     0
171
     0
290
     0
174
     0
 93
        1
 44
0.0
173
     0
291
     1
 45
0.0
1001
ACAD
1000
AcDbSavedByObjectVersion
1070
     0
  0
VISUALSTYLE
  5
160A
102
{ACAD_XDICTIONARY
360
1949
102
}
102
{ACAD_REACTORS
330
1601
102
}
330
1601
100
AcDbVisualStyle
  2
Conceptual
 70
     9
 71
     3
 72
     2
 73
     0
 90
        0
 40
-0.6
 41
-30.0
 62
     5
 63
     7
 74
     2
 91
        2
 64
     7
 65
   257
 75
     1
175
     1
 42
40.0
 92
        8
 66
     7
 43
1.0
 76
     1
 77
     6
 78
     2
 67
     7
 79
     3
170
     0
171
     0
290
     0
174
     0
 93
        1
 44
0.0
173
     0
291
     0
 45
0.0
1001
ACAD
1000
AcDbSavedByObjectVersion
1070
     0
  0
VISUALSTYLE
  5
160C
102
{ACAD_XDICTIONARY
360
194D
102
}
102
{ACAD_REACTORS
330
1601
102
}
330
1601
100
AcDbVisualStyle
  2
Dim
 70
    11
 71
     2
 72
     2
 73
     0
 90
        0
 40
-0.6
 41
-30.0
 62
     5
 63
     7
 74
     1
 91
        4
 64
     7
 65
   257
 75
     1
175
     1
 42
1.0
 92
        8
 66
     7
 43
1.0
 76
     1
 77
     6
 78
     2
 67
     7
 79
     5
170
     0
171
     0
290
     0
174
     0
 93
        1
 44
-50.0
173
     0
291
     1
 45
0.0
1001
ACAD
1000
AcDbSavedByObjectVersion
1070
     0
  0
VISUALSTYLE
  5
16F5
102
{ACAD_XDICTIONARY
360
196C
102
}
102
{ACAD_REACTORS
330
1601
102
}
330
1601
100
AcDbVisualStyle
  2
EdgeColorOff
 70
    22
 71
     2
 72
     2
 73
     0
 90
        0
 40
-0.6
 41
-30.0
 62
     5
 63
     7
 74
     1
 91
        4
 64
     7
 65
   257
 75
     1
175
     1
 42
1.0
 92
        8
 66
     7
 43
1.0
 76
     1
 77
     6
 78
     2
 67
     7
 79
     5
170
     0
171
     0
290
     0
174
     0
 93
        1
 44
0.0
173
     0
291
     1
 45
0.0
1001
ACAD
1000
AcDbSavedByObjectVersion
1070
     0
  0
VISUALSTYLE
  5
1610
102
{ACAD_XDICTIONARY
360
1955
102
}
102
{ACAD_REACTORS
330
1601
102
}
330
1601
100
AcDbVisualStyle
  2
Facepattern
 70
    15
 71
     2
 72
     2
 73
     0
 90
        0
 40
-0.6
 41
-30.0
 62
     5
 63
     7
 74
     1
 91
        4
 64
     7
 65
   257
 75
     1
175
     1
 42
1.0
 92
        8
 66
     7
 43
1.0
 76
     1
 77
     6
 78
     2
 67
     7
 79
     5
170
     0
171
     0
290
     0
174
     0
 93
        1
 44
0.0
173
     0
291
     1
 45
0.0
1001
ACAD
1000
AcDbSavedByObjectVersion
1070
     0
  0
VISUALSTYLE
  5
1602
102
{ACAD_XDICTIONARY
360
1939
102
}
102
{ACAD_REACTORS
330
1601
102
}
330
1601
100
AcDbVisualStyle
  2
Flat
 70
     0
 71
     2
 72
     1
 73
     1
 90
        2
 40
-0.6
 41
30.0
 62
     5
 63
     7
 74
     0
 91
        4
 64
     7
 65
   257
 75
     1
175
     1
 42
1.0
 92
        8
 66
     7
 43
1.0
 76
     1
 77
     6
 78
     2
 67
     7
 79
     5
170
     0
171
     0
290
     0
174
     0
 93
       13
 44
0.0
173
     0
291
     1
 45
0.0
1001
ACAD
1000
AcDbSavedByObjectVersion
1070
     0
  0
VISUALSTYLE
  5
1603
102
{ACAD_XDICTIONARY
360
193B
102
}
102
{ACAD_REACTORS
330
1601
102
}
330
1601
100
AcDbVisualStyle
  2
FlatWithEdges
 70
     1
 71
     2
 72
     1
 73
     1
 90
        2
 40
-0.6
 41
30.0
 62
     5
 63
     7
 74
     1
 91
        4
 64
     7
 65
   257
 75
     1
175
     1
 42
1.0
 92
        0
 66
   257
 43
1.0
 76
     1
 77
     6
 78
     2
 67
     7
 79
     5
170
     0
171
     0
290
     0
174
     0
 93
       13
 44
0.0
173
     0
291
     1
 45
0.0
1001
ACAD
1000
AcDbSavedByObjectVersion
1070
     0
  0
VISUALSTYLE
  5
1604
102
{ACAD_XDICTIONARY
360
193D
102
}
102
{ACAD_REACTORS
330
1601
102
}
330
1601
100
AcDbVisualStyle
  2
Gouraud
 70
     2
 71
     2
 72
     2
 73
     1
 90
        2
 40
-0.6
 41
30.0
 62
     5
 63
     7
 74
     0
 91
        4
 64
     7
 65
   257
 75
     1
175
     1
 42
1.0
 92
        0
 66
     7
 43
1.0
 76
     1
 77
     6
 78
     2
 67
     7
 79
     5
170
     0
171
     0
290
     0
174
     0
 93
       13
 44
0.0
173
     0
291
     1
 45
0.0
1001
ACAD
1000
AcDbSavedByObjectVersion
1070
     0
  0
VISUALSTYLE
  5
1605
102
{ACAD_XDICTIONARY
360
193F
102
}
102
{ACAD_REACTORS
330
1601
102
}
330
1601
100
AcDbVisualStyle
  2
GouraudWithEdges
 70
     3
 71
     2
 72
     2
 73
     1
 90
        2
 40
-0.6
 41
30.0
 62
     5
 63
     7
 74
     1
 91
        4
 64
     7
 65
   257
 75
     1
175
     1
 42
1.0
 92
        0
 66
   257
 43
1.0
 76
     1
 77
     6
 78
     2
 67
     7
 79
     5
170
     0
171
     0
290
     0
174
     0
 93
       13
 44
0.0
173
     0
291
     1
 45
0.0
1001
ACAD
1000
AcDbSavedByObjectVersion
1070
     0
  0
VISUALSTYLE
  5
16ED
102
{ACAD_XDICTIONARY
360
195C
102
}
102
{ACAD_REACTORS
330
1601
102
}
330
1601
100
AcDbVisualStyle
  2
Hidden
 70
     6
 71
     1
 72
     2
 73
     2
 90
        0
 40
-0.6
 41
-30.0
 62
     5
 63
     7
 74
     2
 91
        2
 64
     7
 65
   257
 75
     2
175
     1
 42
40.0
 92
        0
 66
   257
 43
1.0
 76
     1
 77
     6
 78
     2
 67
     7
 79
     3
170
     0
171
     0
290
     0
174
     0
 93
        1
 44
0.0
173
     0
291
     0
 45
0.0
1001
ACAD
1000
AcDbSavedByObjectVersion
1070
     0
  0
VISUALSTYLE
  5
16F3
102
{ACAD_XDICTIONARY
360
1968
102
}
102
{ACAD_REACTORS
330
1601
102
}
330
1601
100
AcDbVisualStyle
  2
JitterOff
 70
    20
 71
     2
 72
     2
 73
     0
 90
        0
 40
-0.6
 41
-30.0
 62
     5
 63
     7
 74
     1
 91
        4
 64
     7
 65
   257
 75
     1
175
     1
 42
1.0
 92
       10
 66
     7
 43
1.0
 76
     1
 77
     6
 78
     2
 67
     7
 79
     5
170
     0
171
     0
290
     0
174
     0
 93
        1
 44
0.0
173
     0
291
     1
 45
0.0
1001
ACAD
1000
AcDbSavedByObjectVersion
1070
     0
  0
VISUALSTYLE
  5
160F
102
{ACAD_XDICTIONARY
360
1953
102
}
102
{ACAD_REACTORS
330
1601
102
}
330
1601
100
AcDbVisualStyle
  2
Linepattern
 70
    14
 71
     2
 72
     2
 73
     0
 90
        0
 40
-0.6
 41
-30.0
 62
     5
 63
     7
 74
     1
 91
        4
 64
     7
 65
   257
 75
     7
175
     7
 42
1.0
 92
        8
 66
     7
 43
1.0
 76
     1
 77
     6
 78
     2
 67
     7
 79
     5
170
     0
171
     0
290
     0
174
     0
 93
        1
 44
0.0
173
     0
291
     1
 45
0.0
1001
ACAD
1000
AcDbSavedByObjectVersion
1070
     0
  0
VISUALSTYLE
  5
16F4
102
{ACAD_XDICTIONARY
360
196A
102
}
102
{ACAD_REACTORS
330
1601
102
}
330
1601
100
AcDbVisualStyle
  2
OverhangOff
 70
    21
 71
     2
 72
     2
 73
     0
 90
        0
 40
-0.6
 41
-30.0
 62
     5
 63
     7
 74
     1
 91
        4
 64
     7
 65
   257
 75
     1
175
     1
 42
1.0
 92
        9
 66
     7
 43
1.0
 76
     1
 77
     6
 78
     2
 67
     7
 79
     5
170
     0
171
     0
290
     0
174
     0
 93
        1
 44
0.0
173
     0
291
     1
 45
0.0
1001
ACAD
1000
AcDbSavedByObjectVersion
1070
     0
  0
VISUALSTYLE
  5
160B
102
{ACAD_XDICTIONARY
360
194B
102
}
102
{ACAD_REACTORS
330
1601
102
}
330
1601
100
AcDbVisualStyle
  2
Realistic
 70
     8
 71
     2
 72
     2
 73
     0
 90
        0
 40
-0.6
 41
-30.0
 62
     5
 63
     7
 74
     1
 91
        0
 64
     7
 65
   257
 75
     1
175
     1
 42
1.0
 92
        8
 66
     8
 43
1.0
 76
     1
 77
     6
 78
     2
 67
     7
 79
     5
170
     0
171
     0
290
     0
174
     0
 93
       13
 44
0.0
173
     0
291
     0
 45
0.0
1001
ACAD
1000
AcDbSavedByObjectVersion
1070
     0
  0
VISUALSTYLE
  5
16F2
102
{ACAD_XDICTIONARY
360
1966
102
}
102
{ACAD_REACTORS
330
1601
102
}
330
1601
100
AcDbVisualStyle
  2
Shaded
 70
    27
 71
     2
 72
     2
 73
     1
 90
        2
 40
-0.6
 41
30.0
 62
     5
 63
     7
 74
     0
 91
        4
 64
     7
 65
   257
 75
     1
175
     1
 42
1.0
 92
        8
 66
   257
 43
1.0
 76
     1
 77
     6
 78
     2
 67
     8
 79
     3
170
     0
171
     0
290
     0
174
     0
 93
        5
 44
0.0
173
     0
291
     0
 45
0.0
1001
ACAD
1000
AcDbSavedByObjectVersion
1070
     0
  0
VISUALSTYLE
  5
16F1
102
{ACAD_XDICTIONARY
360
1964
102
}
102
{ACAD_REACTORS
330
1601
102
}
330
1601
100
AcDbVisualStyle
  2
Shaded with edges
 70
    26
 71
     2
 72
     2
 73
     1
 90
        2
 40
-0.6
 41
30.0
 62
     5
 63
     7
 74
     1
 91
        2
 64
     7
 65
   257
 75
     2
175
     1
 42
1.0
 92
        8
 66
   257
 43
1.0
 76
     1
 77
     6
 78
     2
 67
     7
 79
     3
170
     0
171
     0
290
     0
174
     0
 93
        5
 44
0.0
173
     0
291
     0
 45
0.0
1001
ACAD
1000
AcDbSavedByObjectVersion
1070
     0
  0
VISUALSTYLE
  5
16EE
102
{ACAD_XDICTIONARY
360
195E
102
}
102
{ACAD_REACTORS
330
1601
102
}
330
1601
100
AcDbVisualStyle
  2
Shades of Gray
 70
    23
 71
     2
 72
     2
 73
     3
 90
        0
 40
-0.6
 41
-30.0
 62
     5
 63
     7
 74
     2
 91
        2
 64
     7
 65
     7
 75
     1
175
     1
 42
40.0
 92
        8
 66
     7
 43
1.0
 76
     1
 77
     6
 78
     2
 67
     7
 79
     3
170
     0
171
     0
290
     0
174
     0
 93
        1
 44
0.0
173
     0
291
     0
 45
0.0
1001
ACAD
1000
AcDbSavedByObjectVersion
1070
     0
  0
VISUALSTYLE
  5
16EF
102
{ACAD_XDICTIONARY
360
1960
102
}
102
{ACAD_REACTORS
330
1601
102
}
330
1601
100
AcDbVisualStyle
  2
Sketchy
 70
    24
 71
     1
 72
     2
 73
     2
 90
        0
 40
-0.6
 41
-30.0
 62
     5
 63
     7
 74
     2
 91
        2
 64
     7
 65
     7
 75
     1
175
     1
 42
40.0
 92
       11
 66
     7
 43
1.0
 76
     1
 77
     6
 78
     2
 67
     7
 79
     6
170
     0
171
     0
290
     0
174
     0
 93
        1
 44
0.0
173
     0
291
     0
 45
0.0
1001
ACAD
1000
AcDbSavedByObjectVersion
1070
     0
  0
VISUALSTYLE
  5
160E
102
{ACAD_XDICTIONARY
360
1951
102
}
102
{ACAD_REACTORS
330
1601
102
}
330
1601
100
AcDbVisualStyle
  2
Thicken
 70
    13
 71
     2
 72
     2
 73
     0
 90
        0
 40
-0.6
 41
-30.0
 62
     5
 63
     7
 74
     1
 91
        4
 64
     7
 65
   257
 75
     1
175
     1
 42
1.0
 92
       12
 66
     7
 43
1.0
 76
     1
 77
     6
 78
     2
 67
     7
 79
     5
170
     0
171
     0
290
     0
174
     0
 93
        1
 44
0.0
173
     0
291
     1
 45
0.0
1001
ACAD
1000
AcDbSavedByObjectVersion
1070
     0
  0
VISUALSTYLE
  5
16EC
102
{ACAD_XDICTIONARY
360
195A
102
}
102
{ACAD_REACTORS
330
1601
102
}
330
1601
100
AcDbVisualStyle
  2
Wireframe
 70
     5
 71
     0
 72
     2
 73
     0
 90
        0
 40
-0.6
 41
-30.0
 62
     5
 63
     7
 74
     1
 91
        4
 64
     7
 65
   257
 75
     1
175
     1
 42
1.0
 92
        0
 66
   257
 43
1.0
 76
     1
 77
     6
 78
     2
 67
     7
 79
     3
170
     0
171
     0
290
     0
174
     0
 93
        1
 44
0.0
173
     0
291
     0
 45
0.0
1001
ACAD
1000
AcDbSavedByObjectVersion
1070
     0
  0
VISUALSTYLE
  5
16F0
102
{ACAD_XDICTIONARY
360
1962
102
}
102
{ACAD_REACTORS
330
1601
102
}
330
1601
100
AcDbVisualStyle
  2
X-Ray
 70
    25
 71
     2
 72
     2
 73
     1
 90
        1
 40
0.5
 41
-30.0
 62
     5
 63
     7
 74
     1
 91
        0
 64
     7
 65
   257
 75
     1
175
     1
 42
1.0
 92
        8
 66
     7
 43
1.0
 76
     1
 77
     6
 78
     2
 67
     7
 79
     3
170
     0
171
     0
290
     0
174
     0
 93
       13
 44
0.0
173
     0
291
     0
 45
0.0
1001
ACAD
1000
AcDbSavedByObjectVersion
1070
     0
  0
DICTIONARYVAR
  5
164E
102
{ACAD_REACTORS
330
102
102
}
330
102
100
DictionaryVariables
280
     0
  1
1:1
  0
DICTIONARYVAR
  5
164D
102
{ACAD_REACTORS
330
102
102
}
330
102
100
DictionaryVariables
280
     0
  1
STANDARD
  0
DICTIONARYVAR
  5
164C
102
{ACAD_REACTORS
330
102
102
}
330
102
100
DictionaryVariables
280
     0
  1
STANDARD
  0
DICTIONARYVAR
  5
176B
102
{ACAD_REACTORS
330
102
102
}
330
102
100
DictionaryVariables
280
     0
  1
Imperial24
  0
DICTIONARYVAR
  5
176C
102
{ACAD_REACTORS
330
102
102
}
330
102
100
DictionaryVariables
280
     0
  1
Imperial24
  0
DICTIONARYVAR
  5
103
102
{ACAD_REACTORS
330
102
102
}
330
102
100
DictionaryVariables
280
     0
  1
1
  0
DICTIONARYVAR
  5
169D
102
{ACAD_REACTORS
330
102
102
}
330
102
100
DictionaryVariables
280
     0
  1
0
  0
DICTIONARYVAR
  5
169C
102
{ACAD_REACTORS
330
102
102
}
330
102
100
DictionaryVariables
280
     0
  1
127
  0
DICTIONARYVAR
  5
1914
102
{ACAD_REACTORS
330
102
102
}
330
102
100
DictionaryVariables
280
     0
  1
2
  0
DICTIONARY
  5
1970
330
16F9
100
AcDbDictionary
280
     1
281
     1
  3
ACAD_XREC_ROUNDTRIP
360
1971
  0
DICTIONARY
  5
1918
330
60
100
AcDbDictionary
280
     1
281
     1
  3
ACAD_XREC_ROUNDTRIP
360
1919
  0
DICTIONARY
  5
1972
330
1910
100
AcDbDictionary
280
     1
281
     1
  3
ACAD_XREC_ROUNDTRIP
360
1973
  0
DICTIONARY
  5
15F2
330
15F1
100
AcDbDictionary
280
     1
281
     1
  3
ACAD_XREC_ROUNDTRIP
360
1937
  3
BUMPTILE
360
15F4
  3
DIFFUSETILE
360
15F3
  3
OPACITYTILE
360
15F7
  3
REFLECTIONTILE
360
15F6
  3
REFRACTIONTILE
360
15F8
  3
SPECULARTILE
360
15F5
  0
DICTIONARY
  5
15EA
330
15E9
100
AcDbDictionary
280
     1
281
     1
  3
ACAD_XREC_ROUNDTRIP
360
1936
  3
BUMPTILE
360
15EC
  3
DIFFUSETILE
360
15EB
  3
OPACITYTILE
360
15EF
  3
REFLECTIONTILE
360
15EE
  3
REFRACTIONTILE
360
15F0
  3
SPECULARTILE
360
15ED
  0
DICTIONARY
  5
15FA
330
15F9
100
AcDbDictionary
280
     1
281
     1
  3
ACAD_XREC_ROUNDTRIP
360
1938
  3
BUMPTILE
360
15FC
  3
DIFFUSETILE
360
15FB
  3
OPACITYTILE
360
15FF
  3
REFLECTIONTILE
360
15FE
  3
REFRACTIONTILE
360
1600
  3
SPECULARTILE
360
15FD
  0
DICTIONARY
  5
196E
330
16F7
100
AcDbDictionary
280
     1
281
     1
  3
ACAD_XREC_ROUNDTRIP
360
196F
  0
DICTIONARY
  5
164F
330
1614
100
AcDbDictionary
280
     1
281
     1
  3
ACAD_ROUNDTRIP_2008_TABLESTYLE_CELLSTYLEMAP
360
1915
  3
ACAD_XREC_ROUNDTRIP
360
1959
  0
DICTIONARY
  5
1943
330
1607
100
AcDbDictionary
280
     1
281
     1
  3
ACAD_XREC_ROUNDTRIP
360
1944
  0
DICTIONARY
  5
1947
330
1609
100
AcDbDictionary
280
     1
281
     1
  3
ACAD_XREC_ROUNDTRIP
360
1948
  0
DICTIONARY
  5
1945
330
1608
100
AcDbDictionary
280
     1
281
     1
  3
ACAD_XREC_ROUNDTRIP
360
1946
  0
DICTIONARY
  5
1941
330
1606
100
AcDbDictionary
280
     1
281
     1
  3
ACAD_XREC_ROUNDTRIP
360
1942
  0
DICTIONARY
  5
194F
330
160D
100
AcDbDictionary
280
     1
281
     1
  3
ACAD_XREC_ROUNDTRIP
360
1950
  0
DICTIONARY
  5
1957
330
1611
100
AcDbDictionary
280
     1
281
     1
  3
ACAD_XREC_ROUNDTRIP
360
1958
  0
DICTIONARY
  5
1949
330
160A
100
AcDbDictionary
280
     1
281
     1
  3
ACAD_XREC_ROUNDTRIP
360
194A
  0
DICTIONARY
  5
194D
330
160C
100
AcDbDictionary
280
     1
281
     1
  3
ACAD_XREC_ROUNDTRIP
360
194E
  0
DICTIONARY
  5
196C
330
16F5
100
AcDbDictionary
280
     1
281
     1
  3
ACAD_XREC_ROUNDTRIP
360
196D
  0
DICTIONARY
  5
1955
330
1610
100
AcDbDictionary
280
     1
281
     1
  3
ACAD_XREC_ROUNDTRIP
360
1956
  0
DICTIONARY
  5
1939
330
1602
100
AcDbDictionary
280
     1
281
     1
  3
ACAD_XREC_ROUNDTRIP
360
193A
  0
DICTIONARY
  5
193B
330
1603
100
AcDbDictionary
280
     1
281
     1
  3
ACAD_XREC_ROUNDTRIP
360
193C
  0
DICTIONARY
  5
193D
330
1604
100
AcDbDictionary
280
     1
281
     1
  3
ACAD_XREC_ROUNDTRIP
360
193E
  0
DICTIONARY
  5
193F
330
1605
100
AcDbDictionary
280
     1
281
     1
  3
ACAD_XREC_ROUNDTRIP
360
1940
  0
DICTIONARY
  5
195C
330
16ED
100
AcDbDictionary
280
     1
281
     1
  3
ACAD_XREC_ROUNDTRIP
360
195D
  0
DICTIONARY
  5
1968
330
16F3
100
AcDbDictionary
280
     1
281
     1
  3
ACAD_XREC_ROUNDTRIP
360
1969
  0
DICTIONARY
  5
1953
330
160F
100
AcDbDictionary
280
     1
281
     1
  3
ACAD_XREC_ROUNDTRIP
360
1954
  0
DICTIONARY
  5
196A
330
16F4
100
AcDbDictionary
280
     1
281
     1
  3
ACAD_XREC_ROUNDTRIP
360
196B
  0
DICTIONARY
  5
194B
330
160B
100
AcDbDictionary
280
     1
281
     1
  3
ACAD_XREC_ROUNDTRIP
360
194C
  0
DICTIONARY
  5
1966
330
16F2
100
AcDbDictionary
280
     1
281
     1
  3
ACAD_XREC_ROUNDTRIP
360
1967
  0
DICTIONARY
  5
1964
330
16F1
100
AcDbDictionary
280
     1
281
     1
  3
ACAD_XREC_ROUNDTRIP
360
1965
  0
DICTIONARY
  5
195E
330
16EE
100
AcDbDictionary
280
     1
281
     1
  3
ACAD_XREC_ROUNDTRIP
360
195F
  0
DICTIONARY
  5
1960
330
16EF
100
AcDbDictionary
280
     1
281
     1
  3
ACAD_XREC_ROUNDTRIP
360
1961
  0
DICTIONARY
  5
1951
330
160E
100
AcDbDictionary
280
     1
281
     1
  3
ACAD_XREC_ROUNDTRIP
360
1952
  0
DICTIONARY
  5
195A
330
16EC
100
AcDbDictionary
280
     1
281
     1
  3
ACAD_XREC_ROUNDTRIP
360
195B
  0
DICTIONARY
  5
1962
330
16F0
100
AcDbDictionary
280
     1
281
     1
  3
ACAD_XREC_ROUNDTRIP
360
1963
  0
XRECORD
  5
1971
102
{ACAD_REACTORS
330
1970
102
}
330
1970
100
AcDbXrecord
280
     1
102
DISPLAYNAME
  1
Imperial24
102
FLAGS
 90
        0
  0
XRECORD
  5
1919
102
{ACAD_REACTORS
330
1918
102
}
330
1918
100
AcDbXrecord
280
     1
102
SHADEPLOT
 70
     0
102
SHADEPLOTRESLEVEL
 70
     2
102
SHADEPLOTCUSTOMDPI
 70
   300
  0
XRECORD
  5
1973
102
{ACAD_REACTORS
330
1972
102
}
330
1972
100
AcDbXrecord
280
     1
102
SHADEPLOT
 70
     0
102
SHADEPLOTRESLEVEL
 70
     2
102
SHADEPLOTCUSTOMDPI
 70
   300
  0
XRECORD
  5
1937
102
{ACAD_REACTORS
330
15F2
102
}
330
15F2
100
AcDbXrecord
280
     1
102
MATERIAL
148
0.0
149
0.0
149
0.0
 93
        0
 94
      127
282
     0
 72
     0
 77
     0
171
     0
175
     0
179
     0
273
     0
  0
XRECORD
  5
15F4
102
{ACAD_REACTORS
330
15F2
102
}
330
15F2
100
AcDbXrecord
280
     1
270
     1
271
     1
  0
XRECORD
  5
15F3
102
{ACAD_REACTORS
330
15F2
102
}
330
15F2
100
AcDbXrecord
280
     1
270
     1
271
     1
  0
XRECORD
  5
15F7
102
{ACAD_REACTORS
330
15F2
102
}
330
15F2
100
AcDbXrecord
280
     1
270
     1
271
     1
  0
XRECORD
  5
15F6
102
{ACAD_REACTORS
330
15F2
102
}
330
15F2
100
AcDbXrecord
280
     1
270
     1
271
     1
  0
XRECORD
  5
15F8
102
{ACAD_REACTORS
330
15F2
102
}
330
15F2
100
AcDbXrecord
280
     1
270
     1
271
     1
  0
XRECORD
  5
15F5
102
{ACAD_REACTORS
330
15F2
102
}
330
15F2
100
AcDbXrecord
280
     1
270
     1
271
     1
  0
XRECORD
  5
1936
102
{ACAD_REACTORS
330
15EA
102
}
330
15EA
100
AcDbXrecord
280
     1
102
MATERIAL
148
0.0
149
0.0
149
0.0
 93
        0
 94
      127
282
     0
 72
     0
 77
     0
171
     0
175
     0
179
     0
273
     0
  0
XRECORD
  5
15EC
102
{ACAD_REACTORS
330
15EA
102
}
330
15EA
100
AcDbXrecord
280
     1
270
     1
271
     1
  0
XRECORD
  5
15EB
102
{ACAD_REACTORS
330
15EA
102
}
330
15EA
100
AcDbXrecord
280
     1
270
     1
271
     1
  0
XRECORD
  5
15EF
102
{ACAD_REACTORS
330
15EA
102
}
330
15EA
100
AcDbXrecord
280
     1
270
     1
271
     1
  0
XRECORD
  5
15EE
102
{ACAD_REACTORS
330
15EA
102
}
330
15EA
100
AcDbXrecord
280
     1
270
     1
271
     1
  0
XRECORD
  5
15F0
102
{ACAD_REACTORS
330
15EA
102
}
330
15EA
100
AcDbXrecord
280
     1
270
     1
271
     1
  0
XRECORD
  5
15ED
102
{ACAD_REACTORS
330
15EA
102
}
330
15EA
100
AcDbXrecord
280
     1
270
     1
271
     1
  0
XRECORD
  5
1938
102
{ACAD_REACTORS
330
15FA
102
}
330
15FA
100
AcDbXrecord
280
     1
102
MATERIAL
148
0.0
149
0.0
149
0.0
 93
        0
 94
      127
282
     0
 72
     0
 77
     0
171
     0
175
     0
179
     0
273
     0
  0
XRECORD
  5
15FC
102
{ACAD_REACTORS
330
15FA
102
}
330
15FA
100
AcDbXrecord
280
     1
270
     1
271
     1
  0
XRECORD
  5
15FB
102
{ACAD_REACTORS
330
15FA
102
}
330
15FA
100
AcDbXrecord
280
     1
270
     1
271
     1
  0
XRECORD
  5
15FF
102
{ACAD_REACTORS
330
15FA
102
}
330
15FA
100
AcDbXrecord
280
     1
270
     1
271
     1
  0
XRECORD
  5
15FE
102
{ACAD_REACTORS
330
15FA
102
}
330
15FA
100
AcDbXrecord
280
     1
270
     1
271
     1
  0
XRECORD
  5
1600
102
{ACAD_REACTORS
330
15FA
102
}
330
15FA
100
AcDbXrecord
280
     1
270
     1
271
     1
  0
XRECORD
  5
15FD
102
{ACAD_REACTORS
330
15FA
102
}
330
15FA
100
AcDbXrecord
280
     1
270
     1
271
     1
  0
XRECORD
  5
196F
102
{ACAD_REACTORS
330
196E
102
}
330
196E
100
AcDbXrecord
280
     1
102
DISPLAYNAME
  1
Imperial24
102
FLAGS
 90
        0
  0
CELLSTYLEMAP
  5
1915
102
{ACAD_REACTORS
330
164F
102
}
330
164F
100
AcDbCellStyleMap
 90
        3
300
CELLSTYLE
  1
TABLEFORMAT_BEGIN
 90
        5
170
     1
 91
        0
 92
    32768
 62
   257
 93
        1
300
CONTENTFORMAT
  1
CONTENTFORMAT_BEGIN
 90
        0
 91
        0
 92
      512
 93
        0
300

 40
0.0
140
1.0
 94
        5
 62
     0
340
16
144
0.25
309
CONTENTFORMAT_END
171
     1
301
MARGIN
  1
CELLMARGIN_BEGIN
 40
0.06
 40
0.06
 40
0.06
 40
0.06
 40
0.18
 40
0.18
309
CELLMARGIN_END
 94
        6
 95
        1
302
GRIDFORMAT
  1
GRIDFORMAT_BEGIN
 90
        0
 91
        1
 62
     0
 92
       -2
340
0
 93
        0
 40
0.045
309
GRIDFORMAT_END
 95
        2
302
GRIDFORMAT
  1
GRIDFORMAT_BEGIN
 90
        0
 91
        1
 62
     0
 92
       -2
340
0
 93
        0
 40
0.045
309
GRIDFORMAT_END
 95
        4
302
GRIDFORMAT
  1
GRIDFORMAT_BEGIN
 90
        0
 91
        1
 62
     0
 92
       -2
340
0
 93
        0
 40
0.045
309
GRIDFORMAT_END
 95
        8
302
GRIDFORMAT
  1
GRIDFORMAT_BEGIN
 90
        0
 91
        1
 62
     0
 92
       -2
340
0
 93
        0
 40
0.045
309
GRIDFORMAT_END
 95
       16
302
GRIDFORMAT
  1
GRIDFORMAT_BEGIN
 90
        0
 91
        1
 62
     0
 92
       -2
340
0
 93
        0
 40
0.045
309
GRIDFORMAT_END
 95
       32
302
GRIDFORMAT
  1
GRIDFORMAT_BEGIN
 90
        0
 91
        1
 62
     0
 92
       -2
340
0
 93
        0
 40
0.045
309
GRIDFORMAT_END
309
TABLEFORMAT_END
  1
CELLSTYLE_BEGIN
 90
        1
 91
        1
300
_TITLE
309
CELLSTYLE_END
300
CELLSTYLE
  1
TABLEFORMAT_BEGIN
 90
        5
170
     1
 91
        0
 92
        0
 62
   257
 93
        1
300
CONTENTFORMAT
  1
CONTENTFORMAT_BEGIN
 90
        0
 91
        0
 92
      512
 93
        0
300

 40
0.0
140
1.0
 94
        5
 62
     0
340
16
144
0.18
309
CONTENTFORMAT_END
171
     1
301
MARGIN
  1
CELLMARGIN_BEGIN
 40
0.06
 40
0.06
 40
0.06
 40
0.06
 40
0.18
 40
0.18
309
CELLMARGIN_END
 94
        6
 95
        1
302
GRIDFORMAT
  1
GRIDFORMAT_BEGIN
 90
        0
 91
        1
 62
     0
 92
       -2
340
0
 93
        0
 40
0.045
309
GRIDFORMAT_END
 95
        2
302
GRIDFORMAT
  1
GRIDFORMAT_BEGIN
 90
        0
 91
        1
 62
     0
 92
       -2
340
0
 93
        0
 40
0.045
309
GRIDFORMAT_END
 95
        4
302
GRIDFORMAT
  1
GRIDFORMAT_BEGIN
 90
        0
 91
        1
 62
     0
 92
       -2
340
0
 93
        0
 40
0.045
309
GRIDFORMAT_END
 95
        8
302
GRIDFORMAT
  1
GRIDFORMAT_BEGIN
 90
        0
 91
        1
 62
     0
 92
       -2
340
0
 93
        0
 40
0.045
309
GRIDFORMAT_END
 95
       16
302
GRIDFORMAT
  1
GRIDFORMAT_BEGIN
 90
        0
 91
        1
 62
     0
 92
       -2
340
0
 93
        0
 40
0.045
309
GRIDFORMAT_END
 95
       32
302
GRIDFORMAT
  1
GRIDFORMAT_BEGIN
 90
        0
 91
        1
 62
     0
 92
       -2
340
0
 93
        0
 40
0.045
309
GRIDFORMAT_END
309
TABLEFORMAT_END
  1
CELLSTYLE_BEGIN
 90
        2
 91
        1
300
_HEADER
309
CELLSTYLE_END
300
CELLSTYLE
  1
TABLEFORMAT_BEGIN
 90
        5
170
     1
 91
        0
 92
        0
 62
   257
 93
        1
300
CONTENTFORMAT
  1
CONTENTFORMAT_BEGIN
 90
        0
 91
        0
 92
      512
 93
        0
300

 40
0.0
140
1.0
 94
        2
 62
     0
340
16
144
0.18
309
CONTENTFORMAT_END
171
     1
301
MARGIN
  1
CELLMARGIN_BEGIN
 40
0.06
 40
0.06
 40
0.06
 40
0.06
 40
0.18
 40
0.18
309
CELLMARGIN_END
 94
        6
 95
        1
302
GRIDFORMAT
  1
GRIDFORMAT_BEGIN
 90
        0
 91
        1
 62
     0
 92
       -2
340
0
 93
        0
 40
0.045
309
GRIDFORMAT_END
 95
        2
302
GRIDFORMAT
  1
GRIDFORMAT_BEGIN
 90
        0
 91
        1
 62
     0
 92
       -2
340
0
 93
        0
 40
0.045
309
GRIDFORMAT_END
 95
        4
302
GRIDFORMAT
  1
GRIDFORMAT_BEGIN
 90
        0
 91
        1
 62
     0
 92
       -2
340
0
 93
        0
 40
0.045
309
GRIDFORMAT_END
 95
        8
302
GRIDFORMAT
  1
GRIDFORMAT_BEGIN
 90
        0
 91
        1
 62
     0
 92
       -2
340
0
 93
        0
 40
0.045
309
GRIDFORMAT_END
 95
       16
302
GRIDFORMAT
  1
GRIDFORMAT_BEGIN
 90
        0
 91
        1
 62
     0
 92
       -2
340
0
 93
        0
 40
0.045
309
GRIDFORMAT_END
 95
       32
302
GRIDFORMAT
  1
GRIDFORMAT_BEGIN
 90
        0
 91
        1
 62
     0
 92
       -2
340
0
 93
        0
 40
0.045
309
GRIDFORMAT_END
309
TABLEFORMAT_END
  1
CELLSTYLE_BEGIN
 90
        3
 91
        2
300
_DATA
309
CELLSTYLE_END
  0
XRECORD
  5
1959
102
{ACAD_REACTORS
330
164F
102
}
330
164F
100
AcDbXrecord
280
     1
102
ACAD_ROUNDTRIP_PRE2007_TABLESTYLE
 90
      512
 91
        0
  1

 92
      512
 93
        0
  2

 94
      512
 95
        0
  3

  0
XRECORD
  5
1944
102
{ACAD_REACTORS
330
1943
102
}
330
1943
100
AcDbXrecord
280
     1
102
RTVSPost2010Prop28
280
     1
102
RTVSPost2010PropOp28
 70
     1
102
RTVSPost2010Prop29
280
     1
102
RTVSPost2010PropOp29
 70
     1
102
RTVSPost2010Prop30
280
     0
102
RTVSPost2010PropOp30
 70
     1
102
RTVSPost2010Prop31
280
     0
102
RTVSPost2010PropOp31
 70
     1
102
RTVSPost2010Prop32
280
     0
102
RTVSPost2010PropOp32
 70
     1
102
RTVSPost2010Prop33
280
     0
102
RTVSPost2010PropOp33
 70
     1
102
RTVSPost2010Prop34
280
     0
102
RTVSPost2010PropOp34
 70
     1
102
RTVSPost2010Prop35
280
     0
102
RTVSPost2010PropOp35
 70
     1
102
RTVSPost2010Prop36
280
     0
102
RTVSPost2010PropOp36
 70
     1
102
RTVSPost2010Prop37
 90
       50
102
RTVSPost2010PropOp37
 70
     1
102
RTVSPost2010Prop38
140
0.0
102
RTVSPost2010PropOp38
 70
     1
102
RTVSPost2010Prop39
140
1.0
102
RTVSPost2010PropOp39
 70
     1
102
RTVSPost2010Prop40
 90
        0
102
RTVSPost2010PropOp40
 70
     1
102
RTVSPost2010Prop41ColorIndex
 90
       18
102
RTVSPost2010Prop41ColorRGB
 90
        0
102
RTVSPost2010PropOp41
 70
     1
102
RTVSPost2010Prop42
 90
       50
102
RTVSPost2010PropOp42
 70
     1
102
RTVSPost2010Prop43
 90
        3
102
RTVSPost2010PropOp43
 70
     1
102
RTVSPost2010Prop44ColorIndex
 90
        5
102
RTVSPost2010Prop44ColorRGB
 90
      255
102
RTVSPost2010PropOp44
 70
     1
102
RTVSPost2010Prop45
280
     0
102
RTVSPost2010PropOp45
 70
     1
102
RTVSPost2010Prop46
 90
       50
102
RTVSPost2010PropOp46
 70
     1
102
RTVSPost2010Prop47
 90
       50
102
RTVSPost2010PropOp47
 70
     1
102
RTVSPost2010Prop48
 90
       50
102
RTVSPost2010PropOp48
 70
     1
102
RTVSPost2010Prop49
280
     0
102
RTVSPost2010PropOp49
 70
     1
102
RTVSPost2010Prop50
 90
       50
102
RTVSPost2010PropOp50
 70
     1
102
RTVSPost2010Prop51ColorIndex
 90
      256
102
RTVSPost2010Prop51ColorRGB
 90
-16777216
102
RTVSPost2010PropOp51
 70
     0
102
RTVSPost2010Prop52
140
1.0
102
RTVSPost2010PropOp52
 70
     0
102
RTVSPost2010Prop53
 90
        2
102
RTVSPost2010PropOp53
 70
     1
102
RTVSPost2010Prop54
  1
strokes_ogs.tif
102
RTVSPost2010PropOp54
 70
     1
102
RTVSPost2010Prop55
280
     0
102
RTVSPost2010PropOp55
 70
     1
102
RTVSPost2010Prop56
140
1.0
102
RTVSPost2010PropOp56
 70
     1
102
RTVSPost2010Prop57
140
1.0
102
RTVSPost2010PropOp57
 70
     1
102
RTVSPropertyOp0
 70
     1
102
RTVSPropertyOp1
 70
     1
102
RTVSPropertyOp2
 70
     1
102
RTVSPropertyOp3
 70
     1
102
RTVSPropertyOp4
 70
     1
102
RTVSPropertyOp5
 70
     1
102
RTVSPropertyOp6
 70
     1
102
RTVSPropertyOp7
 70
     1
102
RTVSPropertyOp8
 70
     1
102
RTVSPropertyOp9
 70
     1
102
RTVSPropertyOp10
 70
     1
102
RTVSPropertyOp11
 70
     1
102
RTVSPropertyOp12
 70
     1
102
RTVSPropertyOp13
 70
     1
102
RTVSPropertyOp14
 70
     1
102
RTVSPropertyOp15
 70
     1
102
RTVSPropertyOp16
 70
     1
102
RTVSPropertyOp17
 70
     1
102
RTVSPropertyOp18
 70
     1
102
RTVSPropertyOp19
 70
     1
102
RTVSPropertyOp20
 70
     1
102
RTVSPropertyOp21
 70
     1
102
RTVSPropertyOp22
 70
     1
102
RTVSPropertyOp23
 70
     1
102
RTVSPropertyOp24
 70
     1
102
RTVSPropertyOp25
 70
     1
102
RTVSPropertyOp26
 70
     1
102
RTVSPropertyOp27
 70
     1
102
RTVSPropertyOp28
 70
     1
102
RTVSPropertyOp29
 70
     1
102
RTVSPropertyOp30
 70
     1
102
RTVSPropertyOp31
 70
     1
102
RTVSPropertyOp32
 70
     1
102
RTVSPropertyOp33
 70
     1
102
RTVSPropertyOp34
 70
     1
102
RTVSPropertyOp35
 70
     1
102
RTVSPropertyOp36
 70
     1
102
RTVSPropertyOp37
 70
     1
102
RTVSPropertyOp38
 70
     1
102
RTVSPropertyOp39
 70
     1
102
RTVSPropertyOp40
 70
     1
102
RTVSPropertyOp41
 70
     1
102
RTVSPropertyOp42
 70
     1
102
RTVSPropertyOp43
 70
     1
102
RTVSPropertyOp44
 70
     1
102
RTVSPropertyOp45
 70
     1
102
RTVSPropertyOp46
 70
     1
102
RTVSPropertyOp47
 70
     1
102
RTVSPropertyOp48
 70
     1
102
RTVSPropertyOp49
 70
     1
102
RTVSPropertyOp50
 70
     1
102
RTVSPropertyOp51
 70
     0
102
RTVSPropertyOp52
 70
     0
102
RTVSPropertyOp53
 70
     1
102
RTVSPropertyOp54
 70
     1
102
RTVSPropertyOp55
 70
     1
102
RTVSPropertyOp56
 70
     1
102
RTVSPropertyOp57
 70
     1
102
RTVSPropertyOp58
 70
     1
102
RTVSPropertyOp59
 70
     1
102
RTVSPropertyOp60
 70
     1
102
RTVSPropertyOp61
 70
     1
102
RTVSPropertyOp62
 70
     1
  0
XRECORD
  5
1948
102
{ACAD_REACTORS
330
1947
102
}
330
1947
100
AcDbXrecord
280
     1
102
RTVSPost2010Prop28
280
     0
102
RTVSPost2010PropOp28
 70
     1
102
RTVSPost2010Prop29
280
     1
102
RTVSPost2010PropOp29
 70
     1
102
RTVSPost2010Prop30
280
     1
102
RTVSPost2010PropOp30
 70
     1
102
RTVSPost2010Prop31
280
     0
102
RTVSPost2010PropOp31
 70
     1
102
RTVSPost2010Prop32
280
     0
102
RTVSPost2010PropOp32
 70
     1
102
RTVSPost2010Prop33
280
     0
102
RTVSPost2010PropOp33
 70
     1
102
RTVSPost2010Prop34
280
     0
102
RTVSPost2010PropOp34
 70
     1
102
RTVSPost2010Prop35
280
     0
102
RTVSPost2010PropOp35
 70
     1
102
RTVSPost2010Prop36
280
     0
102
RTVSPost2010PropOp36
 70
     1
102
RTVSPost2010Prop37
 90
       50
102
RTVSPost2010PropOp37
 70
     1
102
RTVSPost2010Prop38
140
0.0
102
RTVSPost2010PropOp38
 70
     1
102
RTVSPost2010Prop39
140
1.0
102
RTVSPost2010PropOp39
 70
     1
102
RTVSPost2010Prop40
 90
        0
102
RTVSPost2010PropOp40
 70
     1
102
RTVSPost2010Prop41ColorIndex
 90
       18
102
RTVSPost2010Prop41ColorRGB
 90
        0
102
RTVSPost2010PropOp41
 70
     1
102
RTVSPost2010Prop42
 90
       50
102
RTVSPost2010PropOp42
 70
     1
102
RTVSPost2010Prop43
 90
        3
102
RTVSPost2010PropOp43
 70
     1
102
RTVSPost2010Prop44ColorIndex
 90
        5
102
RTVSPost2010Prop44ColorRGB
 90
      255
102
RTVSPost2010PropOp44
 70
     1
102
RTVSPost2010Prop45
280
     0
102
RTVSPost2010PropOp45
 70
     1
102
RTVSPost2010Prop46
 90
       50
102
RTVSPost2010PropOp46
 70
     1
102
RTVSPost2010Prop47
 90
       50
102
RTVSPost2010PropOp47
 70
     1
102
RTVSPost2010Prop48
 90
       50
102
RTVSPost2010PropOp48
 70
     1
102
RTVSPost2010Prop49
280
     0
102
RTVSPost2010PropOp49
 70
     1
102
RTVSPost2010Prop50
 90
       50
102
RTVSPost2010PropOp50
 70
     1
102
RTVSPost2010Prop51ColorIndex
 90
      256
102
RTVSPost2010Prop51ColorRGB
 90
-16777216
102
RTVSPost2010PropOp51
 70
     0
102
RTVSPost2010Prop52
140
1.0
102
RTVSPost2010PropOp52
 70
     0
102
RTVSPost2010Prop53
 90
        2
102
RTVSPost2010PropOp53
 70
     1
102
RTVSPost2010Prop54
  1
strokes_ogs.tif
102
RTVSPost2010PropOp54
 70
     1
102
RTVSPost2010Prop55
280
     0
102
RTVSPost2010PropOp55
 70
     1
102
RTVSPost2010Prop56
140
1.0
102
RTVSPost2010PropOp56
 70
     1
102
RTVSPost2010Prop57
140
1.0
102
RTVSPost2010PropOp57
 70
     1
102
RTVSPropertyOp0
 70
     1
102
RTVSPropertyOp1
 70
     1
102
RTVSPropertyOp2
 70
     1
102
RTVSPropertyOp3
 70
     1
102
RTVSPropertyOp4
 70
     1
102
RTVSPropertyOp5
 70
     1
102
RTVSPropertyOp6
 70
     1
102
RTVSPropertyOp7
 70
     1
102
RTVSPropertyOp8
 70
     1
102
RTVSPropertyOp9
 70
     1
102
RTVSPropertyOp10
 70
     1
102
RTVSPropertyOp11
 70
     1
102
RTVSPropertyOp12
 70
     1
102
RTVSPropertyOp13
 70
     1
102
RTVSPropertyOp14
 70
     1
102
RTVSPropertyOp15
 70
     1
102
RTVSPropertyOp16
 70
     1
102
RTVSPropertyOp17
 70
     1
102
RTVSPropertyOp18
 70
     1
102
RTVSPropertyOp19
 70
     1
102
RTVSPropertyOp20
 70
     1
102
RTVSPropertyOp21
 70
     1
102
RTVSPropertyOp22
 70
     1
102
RTVSPropertyOp23
 70
     1
102
RTVSPropertyOp24
 70
     1
102
RTVSPropertyOp25
 70
     1
102
RTVSPropertyOp26
 70
     1
102
RTVSPropertyOp27
 70
     1
102
RTVSPropertyOp28
 70
     1
102
RTVSPropertyOp29
 70
     1
102
RTVSPropertyOp30
 70
     1
102
RTVSPropertyOp31
 70
     1
102
RTVSPropertyOp32
 70
     1
102
RTVSPropertyOp33
 70
     1
102
RTVSPropertyOp34
 70
     1
102
RTVSPropertyOp35
 70
     1
102
RTVSPropertyOp36
 70
     1
102
RTVSPropertyOp37
 70
     1
102
RTVSPropertyOp38
 70
     1
102
RTVSPropertyOp39
 70
     1
102
RTVSPropertyOp40
 70
     1
102
RTVSPropertyOp41
 70
     1
102
RTVSPropertyOp42
 70
     1
102
RTVSPropertyOp43
 70
     1
102
RTVSPropertyOp44
 70
     1
102
RTVSPropertyOp45
 70
     1
102
RTVSPropertyOp46
 70
     1
102
RTVSPropertyOp47
 70
     1
102
RTVSPropertyOp48
 70
     1
102
RTVSPropertyOp49
 70
     1
102
RTVSPropertyOp50
 70
     1
102
RTVSPropertyOp51
 70
     0
102
RTVSPropertyOp52
 70
     0
102
RTVSPropertyOp53
 70
     1
102
RTVSPropertyOp54
 70
     1
102
RTVSPropertyOp55
 70
     1
102
RTVSPropertyOp56
 70
     1
102
RTVSPropertyOp57
 70
     1
102
RTVSPropertyOp58
 70
     1
102
RTVSPropertyOp59
 70
     1
102
RTVSPropertyOp60
 70
     1
102
RTVSPropertyOp61
 70
     1
102
RTVSPropertyOp62
 70
     1
  0
XRECORD
  5
1946
102
{ACAD_REACTORS
330
1945
102
}
330
1945
100
AcDbXrecord
280
     1
102
RTVSPost2010Prop28
280
     0
102
RTVSPost2010PropOp28
 70
     1
102
RTVSPost2010Prop29
280
     1
102
RTVSPost2010PropOp29
 70
     1
102
RTVSPost2010Prop30
280
     1
102
RTVSPost2010PropOp30
 70
     1
102
RTVSPost2010Prop31
280
     0
102
RTVSPost2010PropOp31
 70
     1
102
RTVSPost2010Prop32
280
     0
102
RTVSPost2010PropOp32
 70
     1
102
RTVSPost2010Prop33
280
     0
102
RTVSPost2010PropOp33
 70
     1
102
RTVSPost2010Prop34
280
     0
102
RTVSPost2010PropOp34
 70
     1
102
RTVSPost2010Prop35
280
     0
102
RTVSPost2010PropOp35
 70
     1
102
RTVSPost2010Prop36
280
     0
102
RTVSPost2010PropOp36
 70
     1
102
RTVSPost2010Prop37
 90
       50
102
RTVSPost2010PropOp37
 70
     1
102
RTVSPost2010Prop38
140
0.0
102
RTVSPost2010PropOp38
 70
     1
102
RTVSPost2010Prop39
140
1.0
102
RTVSPost2010PropOp39
 70
     1
102
RTVSPost2010Prop40
 90
        0
102
RTVSPost2010PropOp40
 70
     1
102
RTVSPost2010Prop41ColorIndex
 90
       18
102
RTVSPost2010Prop41ColorRGB
 90
        0
102
RTVSPost2010PropOp41
 70
     1
102
RTVSPost2010Prop42
 90
       50
102
RTVSPost2010PropOp42
 70
     1
102
RTVSPost2010Prop43
 90
        3
102
RTVSPost2010PropOp43
 70
     1
102
RTVSPost2010Prop44ColorIndex
 90
        5
102
RTVSPost2010Prop44ColorRGB
 90
      255
102
RTVSPost2010PropOp44
 70
     1
102
RTVSPost2010Prop45
280
     0
102
RTVSPost2010PropOp45
 70
     1
102
RTVSPost2010Prop46
 90
       50
102
RTVSPost2010PropOp46
 70
     1
102
RTVSPost2010Prop47
 90
       50
102
RTVSPost2010PropOp47
 70
     1
102
RTVSPost2010Prop48
 90
       50
102
RTVSPost2010PropOp48
 70
     1
102
RTVSPost2010Prop49
280
     0
102
RTVSPost2010PropOp49
 70
     1
102
RTVSPost2010Prop50
 90
       50
102
RTVSPost2010PropOp50
 70
     1
102
RTVSPost2010Prop51ColorIndex
 90
      256
102
RTVSPost2010Prop51ColorRGB
 90
-16777216
102
RTVSPost2010PropOp51
 70
     0
102
RTVSPost2010Prop52
140
1.0
102
RTVSPost2010PropOp52
 70
     0
102
RTVSPost2010Prop53
 90
        2
102
RTVSPost2010PropOp53
 70
     1
102
RTVSPost2010Prop54
  1
strokes_ogs.tif
102
RTVSPost2010PropOp54
 70
     1
102
RTVSPost2010Prop55
280
     0
102
RTVSPost2010PropOp55
 70
     1
102
RTVSPost2010Prop56
140
1.0
102
RTVSPost2010PropOp56
 70
     1
102
RTVSPost2010Prop57
140
1.0
102
RTVSPost2010PropOp57
 70
     1
102
RTVSPropertyOp0
 70
     1
102
RTVSPropertyOp1
 70
     1
102
RTVSPropertyOp2
 70
     1
102
RTVSPropertyOp3
 70
     1
102
RTVSPropertyOp4
 70
     1
102
RTVSPropertyOp5
 70
     1
102
RTVSPropertyOp6
 70
     1
102
RTVSPropertyOp7
 70
     1
102
RTVSPropertyOp8
 70
     1
102
RTVSPropertyOp9
 70
     1
102
RTVSPropertyOp10
 70
     1
102
RTVSPropertyOp11
 70
     1
102
RTVSPropertyOp12
 70
     1
102
RTVSPropertyOp13
 70
     1
102
RTVSPropertyOp14
 70
     1
102
RTVSPropertyOp15
 70
     1
102
RTVSPropertyOp16
 70
     1
102
RTVSPropertyOp17
 70
     1
102
RTVSPropertyOp18
 70
     1
102
RTVSPropertyOp19
 70
     1
102
RTVSPropertyOp20
 70
     1
102
RTVSPropertyOp21
 70
     1
102
RTVSPropertyOp22
 70
     1
102
RTVSPropertyOp23
 70
     1
102
RTVSPropertyOp24
 70
     1
102
RTVSPropertyOp25
 70
     1
102
RTVSPropertyOp26
 70
     1
102
RTVSPropertyOp27
 70
     1
102
RTVSPropertyOp28
 70
     1
102
RTVSPropertyOp29
 70
     1
102
RTVSPropertyOp30
 70
     1
102
RTVSPropertyOp31
 70
     1
102
RTVSPropertyOp32
 70
     1
102
RTVSPropertyOp33
 70
     1
102
RTVSPropertyOp34
 70
     1
102
RTVSPropertyOp35
 70
     1
102
RTVSPropertyOp36
 70
     1
102
RTVSPropertyOp37
 70
     1
102
RTVSPropertyOp38
 70
     1
102
RTVSPropertyOp39
 70
     1
102
RTVSPropertyOp40
 70
     1
102
RTVSPropertyOp41
 70
     1
102
RTVSPropertyOp42
 70
     1
102
RTVSPropertyOp43
 70
     1
102
RTVSPropertyOp44
 70
     1
102
RTVSPropertyOp45
 70
     1
102
RTVSPropertyOp46
 70
     1
102
RTVSPropertyOp47
 70
     1
102
RTVSPropertyOp48
 70
     1
102
RTVSPropertyOp49
 70
     1
102
RTVSPropertyOp50
 70
     1
102
RTVSPropertyOp51
 70
     0
102
RTVSPropertyOp52
 70
     0
102
RTVSPropertyOp53
 70
     1
102
RTVSPropertyOp54
 70
     1
102
RTVSPropertyOp55
 70
     1
102
RTVSPropertyOp56
 70
     1
102
RTVSPropertyOp57
 70
     1
102
RTVSPropertyOp58
 70
     1
102
RTVSPropertyOp59
 70
     1
102
RTVSPropertyOp60
 70
     1
102
RTVSPropertyOp61
 70
     1
102
RTVSPropertyOp62
 70
     1
  0
XRECORD
  5
1942
102
{ACAD_REACTORS
330
1941
102
}
330
1941
100
AcDbXrecord
280
     1
102
RTVSPost2010Prop28
280
     0
102
RTVSPost2010PropOp28
 70
     1
102
RTVSPost2010Prop29
280
     1
102
RTVSPost2010PropOp29
 70
     1
102
RTVSPost2010Prop30
280
     1
102
RTVSPost2010PropOp30
 70
     1
102
RTVSPost2010Prop31
280
     0
102
RTVSPost2010PropOp31
 70
     1
102
RTVSPost2010Prop32
280
     0
102
RTVSPost2010PropOp32
 70
     1
102
RTVSPost2010Prop33
280
     0
102
RTVSPost2010PropOp33
 70
     1
102
RTVSPost2010Prop34
280
     0
102
RTVSPost2010PropOp34
 70
     1
102
RTVSPost2010Prop35
280
     0
102
RTVSPost2010PropOp35
 70
     1
102
RTVSPost2010Prop36
280
     0
102
RTVSPost2010PropOp36
 70
     1
102
RTVSPost2010Prop37
 90
       50
102
RTVSPost2010PropOp37
 70
     1
102
RTVSPost2010Prop38
140
0.0
102
RTVSPost2010PropOp38
 70
     1
102
RTVSPost2010Prop39
140
1.0
102
RTVSPost2010PropOp39
 70
     1
102
RTVSPost2010Prop40
 90
        0
102
RTVSPost2010PropOp40
 70
     1
102
RTVSPost2010Prop41ColorIndex
 90
       18
102
RTVSPost2010Prop41ColorRGB
 90
        0
102
RTVSPost2010PropOp41
 70
     1
102
RTVSPost2010Prop42
 90
       50
102
RTVSPost2010PropOp42
 70
     1
102
RTVSPost2010Prop43
 90
        3
102
RTVSPost2010PropOp43
 70
     1
102
RTVSPost2010Prop44ColorIndex
 90
        5
102
RTVSPost2010Prop44ColorRGB
 90
      255
102
RTVSPost2010PropOp44
 70
     1
102
RTVSPost2010Prop45
280
     0
102
RTVSPost2010PropOp45
 70
     1
102
RTVSPost2010Prop46
 90
       50
102
RTVSPost2010PropOp46
 70
     1
102
RTVSPost2010Prop47
 90
       50
102
RTVSPost2010PropOp47
 70
     1
102
RTVSPost2010Prop48
 90
       50
102
RTVSPost2010PropOp48
 70
     1
102
RTVSPost2010Prop49
280
     0
102
RTVSPost2010PropOp49
 70
     1
102
RTVSPost2010Prop50
 90
       50
102
RTVSPost2010PropOp50
 70
     1
102
RTVSPost2010Prop51ColorIndex
 90
      256
102
RTVSPost2010Prop51ColorRGB
 90
-16777216
102
RTVSPost2010PropOp51
 70
     0
102
RTVSPost2010Prop52
140
1.0
102
RTVSPost2010PropOp52
 70
     0
102
RTVSPost2010Prop53
 90
        2
102
RTVSPost2010PropOp53
 70
     1
102
RTVSPost2010Prop54
  1
strokes_ogs.tif
102
RTVSPost2010PropOp54
 70
     1
102
RTVSPost2010Prop55
280
     0
102
RTVSPost2010PropOp55
 70
     1
102
RTVSPost2010Prop56
140
1.0
102
RTVSPost2010PropOp56
 70
     1
102
RTVSPost2010Prop57
140
1.0
102
RTVSPost2010PropOp57
 70
     1
102
RTVSPropertyOp0
 70
     1
102
RTVSPropertyOp1
 70
     1
102
RTVSPropertyOp2
 70
     1
102
RTVSPropertyOp3
 70
     1
102
RTVSPropertyOp4
 70
     1
102
RTVSPropertyOp5
 70
     1
102
RTVSPropertyOp6
 70
     1
102
RTVSPropertyOp7
 70
     1
102
RTVSPropertyOp8
 70
     1
102
RTVSPropertyOp9
 70
     1
102
RTVSPropertyOp10
 70
     1
102
RTVSPropertyOp11
 70
     1
102
RTVSPropertyOp12
 70
     1
102
RTVSPropertyOp13
 70
     1
102
RTVSPropertyOp14
 70
     1
102
RTVSPropertyOp15
 70
     1
102
RTVSPropertyOp16
 70
     1
102
RTVSPropertyOp17
 70
     1
102
RTVSPropertyOp18
 70
     1
102
RTVSPropertyOp19
 70
     1
102
RTVSPropertyOp20
 70
     1
102
RTVSPropertyOp21
 70
     1
102
RTVSPropertyOp22
 70
     1
102
RTVSPropertyOp23
 70
     1
102
RTVSPropertyOp24
 70
     1
102
RTVSPropertyOp25
 70
     1
102
RTVSPropertyOp26
 70
     1
102
RTVSPropertyOp27
 70
     1
102
RTVSPropertyOp28
 70
     1
102
RTVSPropertyOp29
 70
     1
102
RTVSPropertyOp30
 70
     1
102
RTVSPropertyOp31
 70
     1
102
RTVSPropertyOp32
 70
     1
102
RTVSPropertyOp33
 70
     1
102
RTVSPropertyOp34
 70
     1
102
RTVSPropertyOp35
 70
     1
102
RTVSPropertyOp36
 70
     1
102
RTVSPropertyOp37
 70
     1
102
RTVSPropertyOp38
 70
     1
102
RTVSPropertyOp39
 70
     1
102
RTVSPropertyOp40
 70
     1
102
RTVSPropertyOp41
 70
     1
102
RTVSPropertyOp42
 70
     1
102
RTVSPropertyOp43
 70
     1
102
RTVSPropertyOp44
 70
     1
102
RTVSPropertyOp45
 70
     1
102
RTVSPropertyOp46
 70
     1
102
RTVSPropertyOp47
 70
     1
102
RTVSPropertyOp48
 70
     1
102
RTVSPropertyOp49
 70
     1
102
RTVSPropertyOp50
 70
     1
102
RTVSPropertyOp51
 70
     0
102
RTVSPropertyOp52
 70
     0
102
RTVSPropertyOp53
 70
     1
102
RTVSPropertyOp54
 70
     1
102
RTVSPropertyOp55
 70
     1
102
RTVSPropertyOp56
 70
     1
102
RTVSPropertyOp57
 70
     1
102
RTVSPropertyOp58
 70
     1
102
RTVSPropertyOp59
 70
     1
102
RTVSPropertyOp60
 70
     1
102
RTVSPropertyOp61
 70
     1
102
RTVSPropertyOp62
 70
     1
  0
XRECORD
  5
1950
102
{ACAD_REACTORS
330
194F
102
}
330
194F
100
AcDbXrecord
280
     1
102
RTVSPost2010Prop28
280
     0
102
RTVSPost2010PropOp28
 70
     1
102
RTVSPost2010Prop29
280
     1
102
RTVSPost2010PropOp29
 70
     1
102
RTVSPost2010Prop30
280
     1
102
RTVSPost2010PropOp30
 70
     1
102
RTVSPost2010Prop31
280
     0
102
RTVSPost2010PropOp31
 70
     1
102
RTVSPost2010Prop32
280
     0
102
RTVSPost2010PropOp32
 70
     1
102
RTVSPost2010Prop33
280
     0
102
RTVSPost2010PropOp33
 70
     1
102
RTVSPost2010Prop34
280
     0
102
RTVSPost2010PropOp34
 70
     1
102
RTVSPost2010Prop35
280
     0
102
RTVSPost2010PropOp35
 70
     1
102
RTVSPost2010Prop36
280
     0
102
RTVSPost2010PropOp36
 70
     1
102
RTVSPost2010Prop37
 90
       50
102
RTVSPost2010PropOp37
 70
     1
102
RTVSPost2010Prop38
140
0.0
102
RTVSPost2010PropOp38
 70
     1
102
RTVSPost2010Prop39
140
1.0
102
RTVSPost2010PropOp39
 70
     1
102
RTVSPost2010Prop40
 90
        0
102
RTVSPost2010PropOp40
 70
     1
102
RTVSPost2010Prop41ColorIndex
 90
       18
102
RTVSPost2010Prop41ColorRGB
 90
        0
102
RTVSPost2010PropOp41
 70
     1
102
RTVSPost2010Prop42
 90
       50
102
RTVSPost2010PropOp42
 70
     1
102
RTVSPost2010Prop43
 90
        3
102
RTVSPost2010PropOp43
 70
     1
102
RTVSPost2010Prop44ColorIndex
 90
        5
102
RTVSPost2010Prop44ColorRGB
 90
      255
102
RTVSPost2010PropOp44
 70
     1
102
RTVSPost2010Prop45
280
     0
102
RTVSPost2010PropOp45
 70
     1
102
RTVSPost2010Prop46
 90
       50
102
RTVSPost2010PropOp46
 70
     1
102
RTVSPost2010Prop47
 90
       50
102
RTVSPost2010PropOp47
 70
     1
102
RTVSPost2010Prop48
 90
       50
102
RTVSPost2010PropOp48
 70
     1
102
RTVSPost2010Prop49
280
     0
102
RTVSPost2010PropOp49
 70
     1
102
RTVSPost2010Prop50
 90
       50
102
RTVSPost2010PropOp50
 70
     1
102
RTVSPost2010Prop51ColorIndex
 90
      256
102
RTVSPost2010Prop51ColorRGB
 90
-16777216
102
RTVSPost2010PropOp51
 70
     0
102
RTVSPost2010Prop52
140
1.0
102
RTVSPost2010PropOp52
 70
     0
102
RTVSPost2010Prop53
 90
        2
102
RTVSPost2010PropOp53
 70
     1
102
RTVSPost2010Prop54
  1
strokes_ogs.tif
102
RTVSPost2010PropOp54
 70
     1
102
RTVSPost2010Prop55
280
     0
102
RTVSPost2010PropOp55
 70
     1
102
RTVSPost2010Prop56
140
1.0
102
RTVSPost2010PropOp56
 70
     1
102
RTVSPost2010Prop57
140
1.0
102
RTVSPost2010PropOp57
 70
     1
102
RTVSPropertyOp0
 70
     1
102
RTVSPropertyOp1
 70
     1
102
RTVSPropertyOp2
 70
     1
102
RTVSPropertyOp3
 70
     1
102
RTVSPropertyOp4
 70
     1
102
RTVSPropertyOp5
 70
     1
102
RTVSPropertyOp6
 70
     1
102
RTVSPropertyOp7
 70
     1
102
RTVSPropertyOp8
 70
     1
102
RTVSPropertyOp9
 70
     1
102
RTVSPropertyOp10
 70
     1
102
RTVSPropertyOp11
 70
     1
102
RTVSPropertyOp12
 70
     1
102
RTVSPropertyOp13
 70
     1
102
RTVSPropertyOp14
 70
     1
102
RTVSPropertyOp15
 70
     1
102
RTVSPropertyOp16
 70
     1
102
RTVSPropertyOp17
 70
     1
102
RTVSPropertyOp18
 70
     1
102
RTVSPropertyOp19
 70
     1
102
RTVSPropertyOp20
 70
     1
102
RTVSPropertyOp21
 70
     1
102
RTVSPropertyOp22
 70
     1
102
RTVSPropertyOp23
 70
     1
102
RTVSPropertyOp24
 70
     1
102
RTVSPropertyOp25
 70
     1
102
RTVSPropertyOp26
 70
     1
102
RTVSPropertyOp27
 70
     1
102
RTVSPropertyOp28
 70
     1
102
RTVSPropertyOp29
 70
     1
102
RTVSPropertyOp30
 70
     1
102
RTVSPropertyOp31
 70
     1
102
RTVSPropertyOp32
 70
     1
102
RTVSPropertyOp33
 70
     1
102
RTVSPropertyOp34
 70
     1
102
RTVSPropertyOp35
 70
     1
102
RTVSPropertyOp36
 70
     1
102
RTVSPropertyOp37
 70
     1
102
RTVSPropertyOp38
 70
     1
102
RTVSPropertyOp39
 70
     1
102
RTVSPropertyOp40
 70
     1
102
RTVSPropertyOp41
 70
     1
102
RTVSPropertyOp42
 70
     1
102
RTVSPropertyOp43
 70
     1
102
RTVSPropertyOp44
 70
     1
102
RTVSPropertyOp45
 70
     1
102
RTVSPropertyOp46
 70
     1
102
RTVSPropertyOp47
 70
     1
102
RTVSPropertyOp48
 70
     1
102
RTVSPropertyOp49
 70
     1
102
RTVSPropertyOp50
 70
     1
102
RTVSPropertyOp51
 70
     0
102
RTVSPropertyOp52
 70
     0
102
RTVSPropertyOp53
 70
     1
102
RTVSPropertyOp54
 70
     1
102
RTVSPropertyOp55
 70
     1
102
RTVSPropertyOp56
 70
     1
102
RTVSPropertyOp57
 70
     1
102
RTVSPropertyOp58
 70
     1
102
RTVSPropertyOp59
 70
     1
102
RTVSPropertyOp60
 70
     1
102
RTVSPropertyOp61
 70
     1
102
RTVSPropertyOp62
 70
     1
  0
XRECORD
  5
1958
102
{ACAD_REACTORS
330
1957
102
}
330
1957
100
AcDbXrecord
280
     1
102
RTVSPost2010Prop28
280
     0
102
RTVSPost2010PropOp28
 70
     1
102
RTVSPost2010Prop29
280
     1
102
RTVSPost2010PropOp29
 70
     1
102
RTVSPost2010Prop30
280
     1
102
RTVSPost2010PropOp30
 70
     1
102
RTVSPost2010Prop31
280
     0
102
RTVSPost2010PropOp31
 70
     1
102
RTVSPost2010Prop32
280
     0
102
RTVSPost2010PropOp32
 70
     1
102
RTVSPost2010Prop33
280
     0
102
RTVSPost2010PropOp33
 70
     1
102
RTVSPost2010Prop34
280
     0
102
RTVSPost2010PropOp34
 70
     1
102
RTVSPost2010Prop35
280
     0
102
RTVSPost2010PropOp35
 70
     1
102
RTVSPost2010Prop36
280
     0
102
RTVSPost2010PropOp36
 70
     1
102
RTVSPost2010Prop37
 90
       50
102
RTVSPost2010PropOp37
 70
     1
102
RTVSPost2010Prop38
140
0.0
102
RTVSPost2010PropOp38
 70
     1
102
RTVSPost2010Prop39
140
1.0
102
RTVSPost2010PropOp39
 70
     1
102
RTVSPost2010Prop40
 90
        0
102
RTVSPost2010PropOp40
 70
     1
102
RTVSPost2010Prop41ColorIndex
 90
       18
102
RTVSPost2010Prop41ColorRGB
 90
        0
102
RTVSPost2010PropOp41
 70
     1
102
RTVSPost2010Prop42
 90
       50
102
RTVSPost2010PropOp42
 70
     1
102
RTVSPost2010Prop43
 90
        3
102
RTVSPost2010PropOp43
 70
     1
102
RTVSPost2010Prop44ColorIndex
 90
        5
102
RTVSPost2010Prop44ColorRGB
 90
      255
102
RTVSPost2010PropOp44
 70
     1
102
RTVSPost2010Prop45
280
     0
102
RTVSPost2010PropOp45
 70
     1
102
RTVSPost2010Prop46
 90
       50
102
RTVSPost2010PropOp46
 70
     1
102
RTVSPost2010Prop47
 90
       50
102
RTVSPost2010PropOp47
 70
     1
102
RTVSPost2010Prop48
 90
       50
102
RTVSPost2010PropOp48
 70
     1
102
RTVSPost2010Prop49
280
     0
102
RTVSPost2010PropOp49
 70
     1
102
RTVSPost2010Prop50
 90
       50
102
RTVSPost2010PropOp50
 70
     1
102
RTVSPost2010Prop51ColorIndex
 90
      256
102
RTVSPost2010Prop51ColorRGB
 90
-16777216
102
RTVSPost2010PropOp51
 70
     0
102
RTVSPost2010Prop52
140
1.0
102
RTVSPost2010PropOp52
 70
     0
102
RTVSPost2010Prop53
 90
        2
102
RTVSPost2010PropOp53
 70
     1
102
RTVSPost2010Prop54
  1
strokes_ogs.tif
102
RTVSPost2010PropOp54
 70
     1
102
RTVSPost2010Prop55
280
     0
102
RTVSPost2010PropOp55
 70
     1
102
RTVSPost2010Prop56
140
1.0
102
RTVSPost2010PropOp56
 70
     1
102
RTVSPost2010Prop57
140
1.0
102
RTVSPost2010PropOp57
 70
     1
102
RTVSPropertyOp0
 70
     1
102
RTVSPropertyOp1
 70
     1
102
RTVSPropertyOp2
 70
     1
102
RTVSPropertyOp3
 70
     1
102
RTVSPropertyOp4
 70
     1
102
RTVSPropertyOp5
 70
     1
102
RTVSPropertyOp6
 70
     1
102
RTVSPropertyOp7
 70
     1
102
RTVSPropertyOp8
 70
     1
102
RTVSPropertyOp9
 70
     1
102
RTVSPropertyOp10
 70
     1
102
RTVSPropertyOp11
 70
     1
102
RTVSPropertyOp12
 70
     1
102
RTVSPropertyOp13
 70
     1
102
RTVSPropertyOp14
 70
     1
102
RTVSPropertyOp15
 70
     1
102
RTVSPropertyOp16
 70
     1
102
RTVSPropertyOp17
 70
     1
102
RTVSPropertyOp18
 70
     1
102
RTVSPropertyOp19
 70
     1
102
RTVSPropertyOp20
 70
     1
102
RTVSPropertyOp21
 70
     1
102
RTVSPropertyOp22
 70
     1
102
RTVSPropertyOp23
 70
     1
102
RTVSPropertyOp24
 70
     1
102
RTVSPropertyOp25
 70
     1
102
RTVSPropertyOp26
 70
     1
102
RTVSPropertyOp27
 70
     1
102
RTVSPropertyOp28
 70
     1
102
RTVSPropertyOp29
 70
     1
102
RTVSPropertyOp30
 70
     1
102
RTVSPropertyOp31
 70
     1
102
RTVSPropertyOp32
 70
     1
102
RTVSPropertyOp33
 70
     1
102
RTVSPropertyOp34
 70
     1
102
RTVSPropertyOp35
 70
     1
102
RTVSPropertyOp36
 70
     1
102
RTVSPropertyOp37
 70
     1
102
RTVSPropertyOp38
 70
     1
102
RTVSPropertyOp39
 70
     1
102
RTVSPropertyOp40
 70
     1
102
RTVSPropertyOp41
 70
     1
102
RTVSPropertyOp42
 70
     1
102
RTVSPropertyOp43
 70
     1
102
RTVSPropertyOp44
 70
     1
102
RTVSPropertyOp45
 70
     1
102
RTVSPropertyOp46
 70
     1
102
RTVSPropertyOp47
 70
     1
102
RTVSPropertyOp48
 70
     1
102
RTVSPropertyOp49
 70
     1
102
RTVSPropertyOp50
 70
     1
102
RTVSPropertyOp51
 70
     0
102
RTVSPropertyOp52
 70
     0
102
RTVSPropertyOp53
 70
     1
102
RTVSPropertyOp54
 70
     1
102
RTVSPropertyOp55
 70
     1
102
RTVSPropertyOp56
 70
     1
102
RTVSPropertyOp57
 70
     1
102
RTVSPropertyOp58
 70
     1
102
RTVSPropertyOp59
 70
     1
102
RTVSPropertyOp60
 70
     1
102
RTVSPropertyOp61
 70
     1
102
RTVSPropertyOp62
 70
     1
  0
XRECORD
  5
194A
102
{ACAD_REACTORS
330
1949
102
}
330
1949
100
AcDbXrecord
280
     1
102
RTVSPost2010Prop28
280
     0
102
RTVSPost2010PropOp28
 70
     1
102
RTVSPost2010Prop29
280
     1
102
RTVSPost2010PropOp29
 70
     1
102
RTVSPost2010Prop30
280
     1
102
RTVSPost2010PropOp30
 70
     1
102
RTVSPost2010Prop31
280
     0
102
RTVSPost2010PropOp31
 70
     1
102
RTVSPost2010Prop32
280
     0
102
RTVSPost2010PropOp32
 70
     1
102
RTVSPost2010Prop33
280
     0
102
RTVSPost2010PropOp33
 70
     1
102
RTVSPost2010Prop34
280
     0
102
RTVSPost2010PropOp34
 70
     1
102
RTVSPost2010Prop35
280
     0
102
RTVSPost2010PropOp35
 70
     1
102
RTVSPost2010Prop36
280
     0
102
RTVSPost2010PropOp36
 70
     1
102
RTVSPost2010Prop37
 90
       50
102
RTVSPost2010PropOp37
 70
     1
102
RTVSPost2010Prop38
140
0.0
102
RTVSPost2010PropOp38
 70
     1
102
RTVSPost2010Prop39
140
1.0
102
RTVSPost2010PropOp39
 70
     1
102
RTVSPost2010Prop40
 90
        0
102
RTVSPost2010PropOp40
 70
     1
102
RTVSPost2010Prop41ColorIndex
 90
       18
102
RTVSPost2010Prop41ColorRGB
 90
        0
102
RTVSPost2010PropOp41
 70
     1
102
RTVSPost2010Prop42
 90
       50
102
RTVSPost2010PropOp42
 70
     1
102
RTVSPost2010Prop43
 90
        3
102
RTVSPost2010PropOp43
 70
     1
102
RTVSPost2010Prop44ColorIndex
 90
        5
102
RTVSPost2010Prop44ColorRGB
 90
      255
102
RTVSPost2010PropOp44
 70
     1
102
RTVSPost2010Prop45
280
     0
102
RTVSPost2010PropOp45
 70
     1
102
RTVSPost2010Prop46
 90
       50
102
RTVSPost2010PropOp46
 70
     1
102
RTVSPost2010Prop47
 90
       50
102
RTVSPost2010PropOp47
 70
     1
102
RTVSPost2010Prop48
 90
       50
102
RTVSPost2010PropOp48
 70
     1
102
RTVSPost2010Prop49
280
     0
102
RTVSPost2010PropOp49
 70
     1
102
RTVSPost2010Prop50
 90
       50
102
RTVSPost2010PropOp50
 70
     1
102
RTVSPost2010Prop51ColorIndex
 90
      256
102
RTVSPost2010Prop51ColorRGB
 90
-16777216
102
RTVSPost2010PropOp51
 70
     0
102
RTVSPost2010Prop52
140
1.0
102
RTVSPost2010PropOp52
 70
     0
102
RTVSPost2010Prop53
 90
        2
102
RTVSPost2010PropOp53
 70
     1
102
RTVSPost2010Prop54
  1
strokes_ogs.tif
102
RTVSPost2010PropOp54
 70
     1
102
RTVSPost2010Prop55
280
     0
102
RTVSPost2010PropOp55
 70
     1
102
RTVSPost2010Prop56
140
1.0
102
RTVSPost2010PropOp56
 70
     1
102
RTVSPost2010Prop57
140
1.0
102
RTVSPost2010PropOp57
 70
     1
102
RTVSPropertyOp0
 70
     1
102
RTVSPropertyOp1
 70
     1
102
RTVSPropertyOp2
 70
     1
102
RTVSPropertyOp3
 70
     1
102
RTVSPropertyOp4
 70
     1
102
RTVSPropertyOp5
 70
     1
102
RTVSPropertyOp6
 70
     1
102
RTVSPropertyOp7
 70
     1
102
RTVSPropertyOp8
 70
     1
102
RTVSPropertyOp9
 70
     1
102
RTVSPropertyOp10
 70
     1
102
RTVSPropertyOp11
 70
     1
102
RTVSPropertyOp12
 70
     1
102
RTVSPropertyOp13
 70
     1
102
RTVSPropertyOp14
 70
     1
102
RTVSPropertyOp15
 70
     1
102
RTVSPropertyOp16
 70
     1
102
RTVSPropertyOp17
 70
     1
102
RTVSPropertyOp18
 70
     1
102
RTVSPropertyOp19
 70
     1
102
RTVSPropertyOp20
 70
     1
102
RTVSPropertyOp21
 70
     1
102
RTVSPropertyOp22
 70
     1
102
RTVSPropertyOp23
 70
     1
102
RTVSPropertyOp24
 70
     1
102
RTVSPropertyOp25
 70
     1
102
RTVSPropertyOp26
 70
     1
102
RTVSPropertyOp27
 70
     1
102
RTVSPropertyOp28
 70
     1
102
RTVSPropertyOp29
 70
     1
102
RTVSPropertyOp30
 70
     1
102
RTVSPropertyOp31
 70
     1
102
RTVSPropertyOp32
 70
     1
102
RTVSPropertyOp33
 70
     1
102
RTVSPropertyOp34
 70
     1
102
RTVSPropertyOp35
 70
     1
102
RTVSPropertyOp36
 70
     1
102
RTVSPropertyOp37
 70
     1
102
RTVSPropertyOp38
 70
     1
102
RTVSPropertyOp39
 70
     1
102
RTVSPropertyOp40
 70
     1
102
RTVSPropertyOp41
 70
     1
102
RTVSPropertyOp42
 70
     1
102
RTVSPropertyOp43
 70
     1
102
RTVSPropertyOp44
 70
     1
102
RTVSPropertyOp45
 70
     1
102
RTVSPropertyOp46
 70
     1
102
RTVSPropertyOp47
 70
     1
102
RTVSPropertyOp48
 70
     1
102
RTVSPropertyOp49
 70
     1
102
RTVSPropertyOp50
 70
     1
102
RTVSPropertyOp51
 70
     0
102
RTVSPropertyOp52
 70
     0
102
RTVSPropertyOp53
 70
     1
102
RTVSPropertyOp54
 70
     1
102
RTVSPropertyOp55
 70
     1
102
RTVSPropertyOp56
 70
     1
102
RTVSPropertyOp57
 70
     1
102
RTVSPropertyOp58
 70
     1
102
RTVSPropertyOp59
 70
     1
102
RTVSPropertyOp60
 70
     1
102
RTVSPropertyOp61
 70
     1
102
RTVSPropertyOp62
 70
     1
  0
XRECORD
  5
194E
102
{ACAD_REACTORS
330
194D
102
}
330
194D
100
AcDbXrecord
280
     1
102
RTVSPost2010Prop28
280
     0
102
RTVSPost2010PropOp28
 70
     1
102
RTVSPost2010Prop29
280
     1
102
RTVSPost2010PropOp29
 70
     1
102
RTVSPost2010Prop30
280
     1
102
RTVSPost2010PropOp30
 70
     1
102
RTVSPost2010Prop31
280
     0
102
RTVSPost2010PropOp31
 70
     1
102
RTVSPost2010Prop32
280
     0
102
RTVSPost2010PropOp32
 70
     1
102
RTVSPost2010Prop33
280
     0
102
RTVSPost2010PropOp33
 70
     1
102
RTVSPost2010Prop34
280
     0
102
RTVSPost2010PropOp34
 70
     1
102
RTVSPost2010Prop35
280
     0
102
RTVSPost2010PropOp35
 70
     1
102
RTVSPost2010Prop36
280
     0
102
RTVSPost2010PropOp36
 70
     1
102
RTVSPost2010Prop37
 90
       50
102
RTVSPost2010PropOp37
 70
     1
102
RTVSPost2010Prop38
140
0.0
102
RTVSPost2010PropOp38
 70
     1
102
RTVSPost2010Prop39
140
1.0
102
RTVSPost2010PropOp39
 70
     1
102
RTVSPost2010Prop40
 90
        0
102
RTVSPost2010PropOp40
 70
     1
102
RTVSPost2010Prop41ColorIndex
 90
       18
102
RTVSPost2010Prop41ColorRGB
 90
        0
102
RTVSPost2010PropOp41
 70
     1
102
RTVSPost2010Prop42
 90
       50
102
RTVSPost2010PropOp42
 70
     1
102
RTVSPost2010Prop43
 90
        3
102
RTVSPost2010PropOp43
 70
     1
102
RTVSPost2010Prop44ColorIndex
 90
        5
102
RTVSPost2010Prop44ColorRGB
 90
      255
102
RTVSPost2010PropOp44
 70
     1
102
RTVSPost2010Prop45
280
     0
102
RTVSPost2010PropOp45
 70
     1
102
RTVSPost2010Prop46
 90
       50
102
RTVSPost2010PropOp46
 70
     1
102
RTVSPost2010Prop47
 90
       50
102
RTVSPost2010PropOp47
 70
     1
102
RTVSPost2010Prop48
 90
       50
102
RTVSPost2010PropOp48
 70
     1
102
RTVSPost2010Prop49
280
     0
102
RTVSPost2010PropOp49
 70
     1
102
RTVSPost2010Prop50
 90
       50
102
RTVSPost2010PropOp50
 70
     1
102
RTVSPost2010Prop51ColorIndex
 90
      256
102
RTVSPost2010Prop51ColorRGB
 90
-16777216
102
RTVSPost2010PropOp51
 70
     0
102
RTVSPost2010Prop52
140
1.0
102
RTVSPost2010PropOp52
 70
     0
102
RTVSPost2010Prop53
 90
        2
102
RTVSPost2010PropOp53
 70
     1
102
RTVSPost2010Prop54
  1
strokes_ogs.tif
102
RTVSPost2010PropOp54
 70
     1
102
RTVSPost2010Prop55
280
     0
102
RTVSPost2010PropOp55
 70
     1
102
RTVSPost2010Prop56
140
1.0
102
RTVSPost2010PropOp56
 70
     1
102
RTVSPost2010Prop57
140
1.0
102
RTVSPost2010PropOp57
 70
     1
102
RTVSPropertyOp0
 70
     1
102
RTVSPropertyOp1
 70
     1
102
RTVSPropertyOp2
 70
     1
102
RTVSPropertyOp3
 70
     1
102
RTVSPropertyOp4
 70
     1
102
RTVSPropertyOp5
 70
     1
102
RTVSPropertyOp6
 70
     1
102
RTVSPropertyOp7
 70
     1
102
RTVSPropertyOp8
 70
     1
102
RTVSPropertyOp9
 70
     1
102
RTVSPropertyOp10
 70
     1
102
RTVSPropertyOp11
 70
     1
102
RTVSPropertyOp12
 70
     1
102
RTVSPropertyOp13
 70
     1
102
RTVSPropertyOp14
 70
     1
102
RTVSPropertyOp15
 70
     1
102
RTVSPropertyOp16
 70
     1
102
RTVSPropertyOp17
 70
     1
102
RTVSPropertyOp18
 70
     1
102
RTVSPropertyOp19
 70
     1
102
RTVSPropertyOp20
 70
     1
102
RTVSPropertyOp21
 70
     1
102
RTVSPropertyOp22
 70
     1
102
RTVSPropertyOp23
 70
     1
102
RTVSPropertyOp24
 70
     1
102
RTVSPropertyOp25
 70
     1
102
RTVSPropertyOp26
 70
     1
102
RTVSPropertyOp27
 70
     1
102
RTVSPropertyOp28
 70
     1
102
RTVSPropertyOp29
 70
     1
102
RTVSPropertyOp30
 70
     1
102
RTVSPropertyOp31
 70
     1
102
RTVSPropertyOp32
 70
     1
102
RTVSPropertyOp33
 70
     1
102
RTVSPropertyOp34
 70
     1
102
RTVSPropertyOp35
 70
     1
102
RTVSPropertyOp36
 70
     1
102
RTVSPropertyOp37
 70
     1
102
RTVSPropertyOp38
 70
     1
102
RTVSPropertyOp39
 70
     1
102
RTVSPropertyOp40
 70
     1
102
RTVSPropertyOp41
 70
     1
102
RTVSPropertyOp42
 70
     1
102
RTVSPropertyOp43
 70
     1
102
RTVSPropertyOp44
 70
     1
102
RTVSPropertyOp45
 70
     1
102
RTVSPropertyOp46
 70
     1
102
RTVSPropertyOp47
 70
     1
102
RTVSPropertyOp48
 70
     1
102
RTVSPropertyOp49
 70
     1
102
RTVSPropertyOp50
 70
     1
102
RTVSPropertyOp51
 70
     0
102
RTVSPropertyOp52
 70
     0
102
RTVSPropertyOp53
 70
     1
102
RTVSPropertyOp54
 70
     1
102
RTVSPropertyOp55
 70
     1
102
RTVSPropertyOp56
 70
     1
102
RTVSPropertyOp57
 70
     1
102
RTVSPropertyOp58
 70
     1
102
RTVSPropertyOp59
 70
     1
102
RTVSPropertyOp60
 70
     1
102
RTVSPropertyOp61
 70
     1
102
RTVSPropertyOp62
 70
     1
  0
XRECORD
  5
196D
102
{ACAD_REACTORS
330
196C
102
}
330
196C
100
AcDbXrecord
280
     1
102
RTVSPost2010Prop28
280
     0
102
RTVSPost2010PropOp28
 70
     0
102
RTVSPost2010Prop29
280
     1
102
RTVSPost2010PropOp29
 70
     0
102
RTVSPost2010Prop30
280
     1
102
RTVSPost2010PropOp30
 70
     0
102
RTVSPost2010Prop31
280
     0
102
RTVSPost2010PropOp31
 70
     0
102
RTVSPost2010Prop32
280
     0
102
RTVSPost2010PropOp32
 70
     0
102
RTVSPost2010Prop33
280
     0
102
RTVSPost2010PropOp33
 70
     0
102
RTVSPost2010Prop34
280
     0
102
RTVSPost2010PropOp34
 70
     0
102
RTVSPost2010Prop35
280
     0
102
RTVSPost2010PropOp35
 70
     0
102
RTVSPost2010Prop36
280
     0
102
RTVSPost2010PropOp36
 70
     0
102
RTVSPost2010Prop37
 90
       50
102
RTVSPost2010PropOp37
 70
     0
102
RTVSPost2010Prop38
140
0.0
102
RTVSPost2010PropOp38
 70
     0
102
RTVSPost2010Prop39
140
1.0
102
RTVSPost2010PropOp39
 70
     0
102
RTVSPost2010Prop40
 90
        0
102
RTVSPost2010PropOp40
 70
     0
102
RTVSPost2010Prop41ColorIndex
 90
       18
102
RTVSPost2010Prop41ColorRGB
 90
        0
102
RTVSPost2010PropOp41
 70
     0
102
RTVSPost2010Prop42
 90
       50
102
RTVSPost2010PropOp42
 70
     0
102
RTVSPost2010Prop43
 90
        3
102
RTVSPost2010PropOp43
 70
     0
102
RTVSPost2010Prop44ColorIndex
 90
        5
102
RTVSPost2010Prop44ColorRGB
 90
      255
102
RTVSPost2010PropOp44
 70
     0
102
RTVSPost2010Prop45
280
     0
102
RTVSPost2010PropOp45
 70
     0
102
RTVSPost2010Prop46
 90
       50
102
RTVSPost2010PropOp46
 70
     0
102
RTVSPost2010Prop47
 90
       50
102
RTVSPost2010PropOp47
 70
     0
102
RTVSPost2010Prop48
 90
       50
102
RTVSPost2010PropOp48
 70
     0
102
RTVSPost2010Prop49
280
     0
102
RTVSPost2010PropOp49
 70
     0
102
RTVSPost2010Prop50
 90
       50
102
RTVSPost2010PropOp50
 70
     0
102
RTVSPost2010Prop51ColorIndex
 90
      256
102
RTVSPost2010Prop51ColorRGB
 90
-16777216
102
RTVSPost2010PropOp51
 70
     0
102
RTVSPost2010Prop52
140
1.0
102
RTVSPost2010PropOp52
 70
     0
102
RTVSPost2010Prop53
 90
        2
102
RTVSPost2010PropOp53
 70
     0
102
RTVSPost2010Prop54
  1
strokes_ogs.tif
102
RTVSPost2010PropOp54
 70
     0
102
RTVSPost2010Prop55
280
     0
102
RTVSPost2010PropOp55
 70
     0
102
RTVSPost2010Prop56
140
1.0
102
RTVSPost2010PropOp56
 70
     0
102
RTVSPost2010Prop57
140
1.0
102
RTVSPost2010PropOp57
 70
     0
102
RTVSPropertyOp0
 70
     0
102
RTVSPropertyOp1
 70
     0
102
RTVSPropertyOp2
 70
     0
102
RTVSPropertyOp3
 70
     0
102
RTVSPropertyOp4
 70
     0
102
RTVSPropertyOp5
 70
     0
102
RTVSPropertyOp6
 70
     0
102
RTVSPropertyOp7
 70
     0
102
RTVSPropertyOp8
 70
     0
102
RTVSPropertyOp9
 70
     0
102
RTVSPropertyOp10
 70
     0
102
RTVSPropertyOp11
 70
     0
102
RTVSPropertyOp12
 70
     0
102
RTVSPropertyOp13
 70
     0
102
RTVSPropertyOp14
 70
     2
102
RTVSPropertyOp15
 70
     0
102
RTVSPropertyOp16
 70
     0
102
RTVSPropertyOp17
 70
     0
102
RTVSPropertyOp18
 70
     0
102
RTVSPropertyOp19
 70
     0
102
RTVSPropertyOp20
 70
     0
102
RTVSPropertyOp21
 70
     0
102
RTVSPropertyOp22
 70
     0
102
RTVSPropertyOp23
 70
     0
102
RTVSPropertyOp24
 70
     0
102
RTVSPropertyOp25
 70
     0
102
RTVSPropertyOp26
 70
     0
102
RTVSPropertyOp27
 70
     0
102
RTVSPropertyOp28
 70
     0
102
RTVSPropertyOp29
 70
     0
102
RTVSPropertyOp30
 70
     0
102
RTVSPropertyOp31
 70
     0
102
RTVSPropertyOp32
 70
     0
102
RTVSPropertyOp33
 70
     0
102
RTVSPropertyOp34
 70
     0
102
RTVSPropertyOp35
 70
     0
102
RTVSPropertyOp36
 70
     0
102
RTVSPropertyOp37
 70
     0
102
RTVSPropertyOp38
 70
     0
102
RTVSPropertyOp39
 70
     0
102
RTVSPropertyOp40
 70
     0
102
RTVSPropertyOp41
 70
     0
102
RTVSPropertyOp42
 70
     0
102
RTVSPropertyOp43
 70
     0
102
RTVSPropertyOp44
 70
     0
102
RTVSPropertyOp45
 70
     0
102
RTVSPropertyOp46
 70
     0
102
RTVSPropertyOp47
 70
     0
102
RTVSPropertyOp48
 70
     0
102
RTVSPropertyOp49
 70
     0
102
RTVSPropertyOp50
 70
     0
102
RTVSPropertyOp51
 70
     0
102
RTVSPropertyOp52
 70
     0
102
RTVSPropertyOp53
 70
     0
102
RTVSPropertyOp54
 70
     0
102
RTVSPropertyOp55
 70
     0
102
RTVSPropertyOp56
 70
     0
102
RTVSPropertyOp57
 70
     0
102
RTVSPropertyOp58
 70
     0
102
RTVSPropertyOp59
 70
     0
102
RTVSPropertyOp60
 70
     0
102
RTVSPropertyOp61
 70
     0
102
RTVSPropertyOp62
 70
     0
  0
XRECORD
  5
1956
102
{ACAD_REACTORS
330
1955
102
}
330
1955
100
AcDbXrecord
280
     1
102
RTVSPost2010Prop28
280
     0
102
RTVSPost2010PropOp28
 70
     1
102
RTVSPost2010Prop29
280
     1
102
RTVSPost2010PropOp29
 70
     1
102
RTVSPost2010Prop30
280
     1
102
RTVSPost2010PropOp30
 70
     1
102
RTVSPost2010Prop31
280
     0
102
RTVSPost2010PropOp31
 70
     1
102
RTVSPost2010Prop32
280
     0
102
RTVSPost2010PropOp32
 70
     1
102
RTVSPost2010Prop33
280
     0
102
RTVSPost2010PropOp33
 70
     1
102
RTVSPost2010Prop34
280
     0
102
RTVSPost2010PropOp34
 70
     1
102
RTVSPost2010Prop35
280
     0
102
RTVSPost2010PropOp35
 70
     1
102
RTVSPost2010Prop36
280
     0
102
RTVSPost2010PropOp36
 70
     1
102
RTVSPost2010Prop37
 90
       50
102
RTVSPost2010PropOp37
 70
     1
102
RTVSPost2010Prop38
140
0.0
102
RTVSPost2010PropOp38
 70
     1
102
RTVSPost2010Prop39
140
1.0
102
RTVSPost2010PropOp39
 70
     1
102
RTVSPost2010Prop40
 90
        0
102
RTVSPost2010PropOp40
 70
     1
102
RTVSPost2010Prop41ColorIndex
 90
       18
102
RTVSPost2010Prop41ColorRGB
 90
        0
102
RTVSPost2010PropOp41
 70
     1
102
RTVSPost2010Prop42
 90
       50
102
RTVSPost2010PropOp42
 70
     1
102
RTVSPost2010Prop43
 90
        3
102
RTVSPost2010PropOp43
 70
     1
102
RTVSPost2010Prop44ColorIndex
 90
        5
102
RTVSPost2010Prop44ColorRGB
 90
      255
102
RTVSPost2010PropOp44
 70
     1
102
RTVSPost2010Prop45
280
     0
102
RTVSPost2010PropOp45
 70
     1
102
RTVSPost2010Prop46
 90
       50
102
RTVSPost2010PropOp46
 70
     1
102
RTVSPost2010Prop47
 90
       50
102
RTVSPost2010PropOp47
 70
     1
102
RTVSPost2010Prop48
 90
       50
102
RTVSPost2010PropOp48
 70
     1
102
RTVSPost2010Prop49
280
     0
102
RTVSPost2010PropOp49
 70
     1
102
RTVSPost2010Prop50
 90
       50
102
RTVSPost2010PropOp50
 70
     1
102
RTVSPost2010Prop51ColorIndex
 90
      256
102
RTVSPost2010Prop51ColorRGB
 90
-16777216
102
RTVSPost2010PropOp51
 70
     0
102
RTVSPost2010Prop52
140
1.0
102
RTVSPost2010PropOp52
 70
     0
102
RTVSPost2010Prop53
 90
        2
102
RTVSPost2010PropOp53
 70
     1
102
RTVSPost2010Prop54
  1
strokes_ogs.tif
102
RTVSPost2010PropOp54
 70
     1
102
RTVSPost2010Prop55
280
     0
102
RTVSPost2010PropOp55
 70
     1
102
RTVSPost2010Prop56
140
1.0
102
RTVSPost2010PropOp56
 70
     1
102
RTVSPost2010Prop57
140
1.0
102
RTVSPost2010PropOp57
 70
     1
102
RTVSPropertyOp0
 70
     1
102
RTVSPropertyOp1
 70
     1
102
RTVSPropertyOp2
 70
     1
102
RTVSPropertyOp3
 70
     1
102
RTVSPropertyOp4
 70
     1
102
RTVSPropertyOp5
 70
     1
102
RTVSPropertyOp6
 70
     1
102
RTVSPropertyOp7
 70
     1
102
RTVSPropertyOp8
 70
     1
102
RTVSPropertyOp9
 70
     1
102
RTVSPropertyOp10
 70
     1
102
RTVSPropertyOp11
 70
     1
102
RTVSPropertyOp12
 70
     1
102
RTVSPropertyOp13
 70
     1
102
RTVSPropertyOp14
 70
     1
102
RTVSPropertyOp15
 70
     1
102
RTVSPropertyOp16
 70
     1
102
RTVSPropertyOp17
 70
     1
102
RTVSPropertyOp18
 70
     1
102
RTVSPropertyOp19
 70
     1
102
RTVSPropertyOp20
 70
     1
102
RTVSPropertyOp21
 70
     1
102
RTVSPropertyOp22
 70
     1
102
RTVSPropertyOp23
 70
     1
102
RTVSPropertyOp24
 70
     1
102
RTVSPropertyOp25
 70
     1
102
RTVSPropertyOp26
 70
     1
102
RTVSPropertyOp27
 70
     1
102
RTVSPropertyOp28
 70
     1
102
RTVSPropertyOp29
 70
     1
102
RTVSPropertyOp30
 70
     1
102
RTVSPropertyOp31
 70
     1
102
RTVSPropertyOp32
 70
     1
102
RTVSPropertyOp33
 70
     1
102
RTVSPropertyOp34
 70
     1
102
RTVSPropertyOp35
 70
     1
102
RTVSPropertyOp36
 70
     1
102
RTVSPropertyOp37
 70
     1
102
RTVSPropertyOp38
 70
     1
102
RTVSPropertyOp39
 70
     1
102
RTVSPropertyOp40
 70
     1
102
RTVSPropertyOp41
 70
     1
102
RTVSPropertyOp42
 70
     1
102
RTVSPropertyOp43
 70
     1
102
RTVSPropertyOp44
 70
     1
102
RTVSPropertyOp45
 70
     1
102
RTVSPropertyOp46
 70
     1
102
RTVSPropertyOp47
 70
     1
102
RTVSPropertyOp48
 70
     1
102
RTVSPropertyOp49
 70
     1
102
RTVSPropertyOp50
 70
     1
102
RTVSPropertyOp51
 70
     0
102
RTVSPropertyOp52
 70
     0
102
RTVSPropertyOp53
 70
     1
102
RTVSPropertyOp54
 70
     1
102
RTVSPropertyOp55
 70
     1
102
RTVSPropertyOp56
 70
     1
102
RTVSPropertyOp57
 70
     1
102
RTVSPropertyOp58
 70
     1
102
RTVSPropertyOp59
 70
     1
102
RTVSPropertyOp60
 70
     1
102
RTVSPropertyOp61
 70
     1
102
RTVSPropertyOp62
 70
     1
  0
XRECORD
  5
193A
102
{ACAD_REACTORS
330
1939
102
}
330
1939
100
AcDbXrecord
280
     1
102
RTVSPost2010Prop28
280
     0
102
RTVSPost2010PropOp28
 70
     1
102
RTVSPost2010Prop29
280
     1
102
RTVSPost2010PropOp29
 70
     1
102
RTVSPost2010Prop30
280
     1
102
RTVSPost2010PropOp30
 70
     1
102
RTVSPost2010Prop31
280
     0
102
RTVSPost2010PropOp31
 70
     1
102
RTVSPost2010Prop32
280
     0
102
RTVSPost2010PropOp32
 70
     1
102
RTVSPost2010Prop33
280
     0
102
RTVSPost2010PropOp33
 70
     1
102
RTVSPost2010Prop34
280
     0
102
RTVSPost2010PropOp34
 70
     1
102
RTVSPost2010Prop35
280
     0
102
RTVSPost2010PropOp35
 70
     1
102
RTVSPost2010Prop36
280
     0
102
RTVSPost2010PropOp36
 70
     1
102
RTVSPost2010Prop37
 90
       50
102
RTVSPost2010PropOp37
 70
     1
102
RTVSPost2010Prop38
140
0.0
102
RTVSPost2010PropOp38
 70
     1
102
RTVSPost2010Prop39
140
1.0
102
RTVSPost2010PropOp39
 70
     1
102
RTVSPost2010Prop40
 90
        0
102
RTVSPost2010PropOp40
 70
     1
102
RTVSPost2010Prop41ColorIndex
 90
       18
102
RTVSPost2010Prop41ColorRGB
 90
        0
102
RTVSPost2010PropOp41
 70
     1
102
RTVSPost2010Prop42
 90
       50
102
RTVSPost2010PropOp42
 70
     1
102
RTVSPost2010Prop43
 90
        3
102
RTVSPost2010PropOp43
 70
     1
102
RTVSPost2010Prop44ColorIndex
 90
        5
102
RTVSPost2010Prop44ColorRGB
 90
      255
102
RTVSPost2010PropOp44
 70
     1
102
RTVSPost2010Prop45
280
     0
102
RTVSPost2010PropOp45
 70
     1
102
RTVSPost2010Prop46
 90
       50
102
RTVSPost2010PropOp46
 70
     1
102
RTVSPost2010Prop47
 90
       50
102
RTVSPost2010PropOp47
 70
     1
102
RTVSPost2010Prop48
 90
       50
102
RTVSPost2010PropOp48
 70
     1
102
RTVSPost2010Prop49
280
     0
102
RTVSPost2010PropOp49
 70
     1
102
RTVSPost2010Prop50
 90
       50
102
RTVSPost2010PropOp50
 70
     1
102
RTVSPost2010Prop51ColorIndex
 90
      256
102
RTVSPost2010Prop51ColorRGB
 90
-16777216
102
RTVSPost2010PropOp51
 70
     0
102
RTVSPost2010Prop52
140
1.0
102
RTVSPost2010PropOp52
 70
     0
102
RTVSPost2010Prop53
 90
        2
102
RTVSPost2010PropOp53
 70
     1
102
RTVSPost2010Prop54
  1
strokes_ogs.tif
102
RTVSPost2010PropOp54
 70
     1
102
RTVSPost2010Prop55
280
     0
102
RTVSPost2010PropOp55
 70
     1
102
RTVSPost2010Prop56
140
1.0
102
RTVSPost2010PropOp56
 70
     1
102
RTVSPost2010Prop57
140
1.0
102
RTVSPost2010PropOp57
 70
     1
102
RTVSPropertyOp0
 70
     1
102
RTVSPropertyOp1
 70
     1
102
RTVSPropertyOp2
 70
     1
102
RTVSPropertyOp3
 70
     1
102
RTVSPropertyOp4
 70
     1
102
RTVSPropertyOp5
 70
     1
102
RTVSPropertyOp6
 70
     1
102
RTVSPropertyOp7
 70
     1
102
RTVSPropertyOp8
 70
     1
102
RTVSPropertyOp9
 70
     1
102
RTVSPropertyOp10
 70
     1
102
RTVSPropertyOp11
 70
     1
102
RTVSPropertyOp12
 70
     1
102
RTVSPropertyOp13
 70
     1
102
RTVSPropertyOp14
 70
     1
102
RTVSPropertyOp15
 70
     1
102
RTVSPropertyOp16
 70
     1
102
RTVSPropertyOp17
 70
     1
102
RTVSPropertyOp18
 70
     1
102
RTVSPropertyOp19
 70
     1
102
RTVSPropertyOp20
 70
     1
102
RTVSPropertyOp21
 70
     1
102
RTVSPropertyOp22
 70
     1
102
RTVSPropertyOp23
 70
     1
102
RTVSPropertyOp24
 70
     1
102
RTVSPropertyOp25
 70
     1
102
RTVSPropertyOp26
 70
     1
102
RTVSPropertyOp27
 70
     1
102
RTVSPropertyOp28
 70
     1
102
RTVSPropertyOp29
 70
     1
102
RTVSPropertyOp30
 70
     1
102
RTVSPropertyOp31
 70
     1
102
RTVSPropertyOp32
 70
     1
102
RTVSPropertyOp33
 70
     1
102
RTVSPropertyOp34
 70
     1
102
RTVSPropertyOp35
 70
     1
102
RTVSPropertyOp36
 70
     1
102
RTVSPropertyOp37
 70
     1
102
RTVSPropertyOp38
 70
     1
102
RTVSPropertyOp39
 70
     1
102
RTVSPropertyOp40
 70
     1
102
RTVSPropertyOp41
 70
     1
102
RTVSPropertyOp42
 70
     1
102
RTVSPropertyOp43
 70
     1
102
RTVSPropertyOp44
 70
     1
102
RTVSPropertyOp45
 70
     1
102
RTVSPropertyOp46
 70
     1
102
RTVSPropertyOp47
 70
     1
102
RTVSPropertyOp48
 70
     1
102
RTVSPropertyOp49
 70
     1
102
RTVSPropertyOp50
 70
     1
102
RTVSPropertyOp51
 70
     0
102
RTVSPropertyOp52
 70
     0
102
RTVSPropertyOp53
 70
     1
102
RTVSPropertyOp54
 70
     1
102
RTVSPropertyOp55
 70
     1
102
RTVSPropertyOp56
 70
     1
102
RTVSPropertyOp57
 70
     1
102
RTVSPropertyOp58
 70
     1
102
RTVSPropertyOp59
 70
     1
102
RTVSPropertyOp60
 70
     1
102
RTVSPropertyOp61
 70
     1
102
RTVSPropertyOp62
 70
     1
  0
XRECORD
  5
193C
102
{ACAD_REACTORS
330
193B
102
}
330
193B
100
AcDbXrecord
280
     1
102
RTVSPost2010Prop28
280
     0
102
RTVSPost2010PropOp28
 70
     1
102
RTVSPost2010Prop29
280
     1
102
RTVSPost2010PropOp29
 70
     1
102
RTVSPost2010Prop30
280
     1
102
RTVSPost2010PropOp30
 70
     1
102
RTVSPost2010Prop31
280
     0
102
RTVSPost2010PropOp31
 70
     1
102
RTVSPost2010Prop32
280
     0
102
RTVSPost2010PropOp32
 70
     1
102
RTVSPost2010Prop33
280
     0
102
RTVSPost2010PropOp33
 70
     1
102
RTVSPost2010Prop34
280
     0
102
RTVSPost2010PropOp34
 70
     1
102
RTVSPost2010Prop35
280
     0
102
RTVSPost2010PropOp35
 70
     1
102
RTVSPost2010Prop36
280
     0
102
RTVSPost2010PropOp36
 70
     1
102
RTVSPost2010Prop37
 90
       50
102
RTVSPost2010PropOp37
 70
     1
102
RTVSPost2010Prop38
140
0.0
102
RTVSPost2010PropOp38
 70
     1
102
RTVSPost2010Prop39
140
1.0
102
RTVSPost2010PropOp39
 70
     1
102
RTVSPost2010Prop40
 90
        0
102
RTVSPost2010PropOp40
 70
     1
102
RTVSPost2010Prop41ColorIndex
 90
       18
102
RTVSPost2010Prop41ColorRGB
 90
        0
102
RTVSPost2010PropOp41
 70
     1
102
RTVSPost2010Prop42
 90
       50
102
RTVSPost2010PropOp42
 70
     1
102
RTVSPost2010Prop43
 90
        3
102
RTVSPost2010PropOp43
 70
     1
102
RTVSPost2010Prop44ColorIndex
 90
        5
102
RTVSPost2010Prop44ColorRGB
 90
      255
102
RTVSPost2010PropOp44
 70
     1
102
RTVSPost2010Prop45
280
     0
102
RTVSPost2010PropOp45
 70
     1
102
RTVSPost2010Prop46
 90
       50
102
RTVSPost2010PropOp46
 70
     1
102
RTVSPost2010Prop47
 90
       50
102
RTVSPost2010PropOp47
 70
     1
102
RTVSPost2010Prop48
 90
       50
102
RTVSPost2010PropOp48
 70
     1
102
RTVSPost2010Prop49
280
     0
102
RTVSPost2010PropOp49
 70
     1
102
RTVSPost2010Prop50
 90
       50
102
RTVSPost2010PropOp50
 70
     1
102
RTVSPost2010Prop51ColorIndex
 90
      256
102
RTVSPost2010Prop51ColorRGB
 90
-16777216
102
RTVSPost2010PropOp51
 70
     0
102
RTVSPost2010Prop52
140
1.0
102
RTVSPost2010PropOp52
 70
     0
102
RTVSPost2010Prop53
 90
        2
102
RTVSPost2010PropOp53
 70
     1
102
RTVSPost2010Prop54
  1
strokes_ogs.tif
102
RTVSPost2010PropOp54
 70
     1
102
RTVSPost2010Prop55
280
     0
102
RTVSPost2010PropOp55
 70
     1
102
RTVSPost2010Prop56
140
1.0
102
RTVSPost2010PropOp56
 70
     1
102
RTVSPost2010Prop57
140
1.0
102
RTVSPost2010PropOp57
 70
     1
102
RTVSPropertyOp0
 70
     1
102
RTVSPropertyOp1
 70
     1
102
RTVSPropertyOp2
 70
     1
102
RTVSPropertyOp3
 70
     1
102
RTVSPropertyOp4
 70
     1
102
RTVSPropertyOp5
 70
     1
102
RTVSPropertyOp6
 70
     1
102
RTVSPropertyOp7
 70
     1
102
RTVSPropertyOp8
 70
     1
102
RTVSPropertyOp9
 70
     1
102
RTVSPropertyOp10
 70
     1
102
RTVSPropertyOp11
 70
     1
102
RTVSPropertyOp12
 70
     1
102
RTVSPropertyOp13
 70
     1
102
RTVSPropertyOp14
 70
     1
102
RTVSPropertyOp15
 70
     1
102
RTVSPropertyOp16
 70
     1
102
RTVSPropertyOp17
 70
     1
102
RTVSPropertyOp18
 70
     1
102
RTVSPropertyOp19
 70
     1
102
RTVSPropertyOp20
 70
     1
102
RTVSPropertyOp21
 70
     1
102
RTVSPropertyOp22
 70
     1
102
RTVSPropertyOp23
 70
     1
102
RTVSPropertyOp24
 70
     1
102
RTVSPropertyOp25
 70
     1
102
RTVSPropertyOp26
 70
     1
102
RTVSPropertyOp27
 70
     1
102
RTVSPropertyOp28
 70
     1
102
RTVSPropertyOp29
 70
     1
102
RTVSPropertyOp30
 70
     1
102
RTVSPropertyOp31
 70
     1
102
RTVSPropertyOp32
 70
     1
102
RTVSPropertyOp33
 70
     1
102
RTVSPropertyOp34
 70
     1
102
RTVSPropertyOp35
 70
     1
102
RTVSPropertyOp36
 70
     1
102
RTVSPropertyOp37
 70
     1
102
RTVSPropertyOp38
 70
     1
102
RTVSPropertyOp39
 70
     1
102
RTVSPropertyOp40
 70
     1
102
RTVSPropertyOp41
 70
     1
102
RTVSPropertyOp42
 70
     1
102
RTVSPropertyOp43
 70
     1
102
RTVSPropertyOp44
 70
     1
102
RTVSPropertyOp45
 70
     1
102
RTVSPropertyOp46
 70
     1
102
RTVSPropertyOp47
 70
     1
102
RTVSPropertyOp48
 70
     1
102
RTVSPropertyOp49
 70
     1
102
RTVSPropertyOp50
 70
     1
102
RTVSPropertyOp51
 70
     0
102
RTVSPropertyOp52
 70
     0
102
RTVSPropertyOp53
 70
     1
102
RTVSPropertyOp54
 70
     1
102
RTVSPropertyOp55
 70
     1
102
RTVSPropertyOp56
 70
     1
102
RTVSPropertyOp57
 70
     1
102
RTVSPropertyOp58
 70
     1
102
RTVSPropertyOp59
 70
     1
102
RTVSPropertyOp60
 70
     1
102
RTVSPropertyOp61
 70
     1
102
RTVSPropertyOp62
 70
     1
  0
XRECORD
  5
193E
102
{ACAD_REACTORS
330
193D
102
}
330
193D
100
AcDbXrecord
280
     1
102
RTVSPost2010Prop28
280
     0
102
RTVSPost2010PropOp28
 70
     1
102
RTVSPost2010Prop29
280
     1
102
RTVSPost2010PropOp29
 70
     1
102
RTVSPost2010Prop30
280
     1
102
RTVSPost2010PropOp30
 70
     1
102
RTVSPost2010Prop31
280
     0
102
RTVSPost2010PropOp31
 70
     1
102
RTVSPost2010Prop32
280
     0
102
RTVSPost2010PropOp32
 70
     1
102
RTVSPost2010Prop33
280
     0
102
RTVSPost2010PropOp33
 70
     1
102
RTVSPost2010Prop34
280
     0
102
RTVSPost2010PropOp34
 70
     1
102
RTVSPost2010Prop35
280
     0
102
RTVSPost2010PropOp35
 70
     1
102
RTVSPost2010Prop36
280
     0
102
RTVSPost2010PropOp36
 70
     1
102
RTVSPost2010Prop37
 90
       50
102
RTVSPost2010PropOp37
 70
     1
102
RTVSPost2010Prop38
140
0.0
102
RTVSPost2010PropOp38
 70
     1
102
RTVSPost2010Prop39
140
1.0
102
RTVSPost2010PropOp39
 70
     1
102
RTVSPost2010Prop40
 90
        0
102
RTVSPost2010PropOp40
 70
     1
102
RTVSPost2010Prop41ColorIndex
 90
       18
102
RTVSPost2010Prop41ColorRGB
 90
        0
102
RTVSPost2010PropOp41
 70
     1
102
RTVSPost2010Prop42
 90
       50
102
RTVSPost2010PropOp42
 70
     1
102
RTVSPost2010Prop43
 90
        3
102
RTVSPost2010PropOp43
 70
     1
102
RTVSPost2010Prop44ColorIndex
 90
        5
102
RTVSPost2010Prop44ColorRGB
 90
      255
102
RTVSPost2010PropOp44
 70
     1
102
RTVSPost2010Prop45
280
     0
102
RTVSPost2010PropOp45
 70
     1
102
RTVSPost2010Prop46
 90
       50
102
RTVSPost2010PropOp46
 70
     1
102
RTVSPost2010Prop47
 90
       50
102
RTVSPost2010PropOp47
 70
     1
102
RTVSPost2010Prop48
 90
       50
102
RTVSPost2010PropOp48
 70
     1
102
RTVSPost2010Prop49
280
     0
102
RTVSPost2010PropOp49
 70
     1
102
RTVSPost2010Prop50
 90
       50
102
RTVSPost2010PropOp50
 70
     1
102
RTVSPost2010Prop51ColorIndex
 90
      256
102
RTVSPost2010Prop51ColorRGB
 90
-16777216
102
RTVSPost2010PropOp51
 70
     0
102
RTVSPost2010Prop52
140
1.0
102
RTVSPost2010PropOp52
 70
     0
102
RTVSPost2010Prop53
 90
        2
102
RTVSPost2010PropOp53
 70
     1
102
RTVSPost2010Prop54
  1
strokes_ogs.tif
102
RTVSPost2010PropOp54
 70
     1
102
RTVSPost2010Prop55
280
     0
102
RTVSPost2010PropOp55
 70
     1
102
RTVSPost2010Prop56
140
1.0
102
RTVSPost2010PropOp56
 70
     1
102
RTVSPost2010Prop57
140
1.0
102
RTVSPost2010PropOp57
 70
     1
102
RTVSPropertyOp0
 70
     1
102
RTVSPropertyOp1
 70
     1
102
RTVSPropertyOp2
 70
     1
102
RTVSPropertyOp3
 70
     1
102
RTVSPropertyOp4
 70
     1
102
RTVSPropertyOp5
 70
     1
102
RTVSPropertyOp6
 70
     1
102
RTVSPropertyOp7
 70
     1
102
RTVSPropertyOp8
 70
     1
102
RTVSPropertyOp9
 70
     1
102
RTVSPropertyOp10
 70
     1
102
RTVSPropertyOp11
 70
     1
102
RTVSPropertyOp12
 70
     1
102
RTVSPropertyOp13
 70
     1
102
RTVSPropertyOp14
 70
     1
102
RTVSPropertyOp15
 70
     1
102
RTVSPropertyOp16
 70
     1
102
RTVSPropertyOp17
 70
     1
102
RTVSPropertyOp18
 70
     1
102
RTVSPropertyOp19
 70
     1
102
RTVSPropertyOp20
 70
     1
102
RTVSPropertyOp21
 70
     1
102
RTVSPropertyOp22
 70
     1
102
RTVSPropertyOp23
 70
     1
102
RTVSPropertyOp24
 70
     1
102
RTVSPropertyOp25
 70
     1
102
RTVSPropertyOp26
 70
     1
102
RTVSPropertyOp27
 70
     1
102
RTVSPropertyOp28
 70
     1
102
RTVSPropertyOp29
 70
     1
102
RTVSPropertyOp30
 70
     1
102
RTVSPropertyOp31
 70
     1
102
RTVSPropertyOp32
 70
     1
102
RTVSPropertyOp33
 70
     1
102
RTVSPropertyOp34
 70
     1
102
RTVSPropertyOp35
 70
     1
102
RTVSPropertyOp36
 70
     1
102
RTVSPropertyOp37
 70
     1
102
RTVSPropertyOp38
 70
     1
102
RTVSPropertyOp39
 70
     1
102
RTVSPropertyOp40
 70
     1
102
RTVSPropertyOp41
 70
     1
102
RTVSPropertyOp42
 70
     1
102
RTVSPropertyOp43
 70
     1
102
RTVSPropertyOp44
 70
     1
102
RTVSPropertyOp45
 70
     1
102
RTVSPropertyOp46
 70
     1
102
RTVSPropertyOp47
 70
     1
102
RTVSPropertyOp48
 70
     1
102
RTVSPropertyOp49
 70
     1
102
RTVSPropertyOp50
 70
     1
102
RTVSPropertyOp51
 70
     0
102
RTVSPropertyOp52
 70
     0
102
RTVSPropertyOp53
 70
     1
102
RTVSPropertyOp54
 70
     1
102
RTVSPropertyOp55
 70
     1
102
RTVSPropertyOp56
 70
     1
102
RTVSPropertyOp57
 70
     1
102
RTVSPropertyOp58
 70
     1
102
RTVSPropertyOp59
 70
     1
102
RTVSPropertyOp60
 70
     1
102
RTVSPropertyOp61
 70
     1
102
RTVSPropertyOp62
 70
     1
  0
XRECORD
  5
1940
102
{ACAD_REACTORS
330
193F
102
}
330
193F
100
AcDbXrecord
280
     1
102
RTVSPost2010Prop28
280
     0
102
RTVSPost2010PropOp28
 70
     1
102
RTVSPost2010Prop29
280
     1
102
RTVSPost2010PropOp29
 70
     1
102
RTVSPost2010Prop30
280
     1
102
RTVSPost2010PropOp30
 70
     1
102
RTVSPost2010Prop31
280
     0
102
RTVSPost2010PropOp31
 70
     1
102
RTVSPost2010Prop32
280
     0
102
RTVSPost2010PropOp32
 70
     1
102
RTVSPost2010Prop33
280
     0
102
RTVSPost2010PropOp33
 70
     1
102
RTVSPost2010Prop34
280
     0
102
RTVSPost2010PropOp34
 70
     1
102
RTVSPost2010Prop35
280
     0
102
RTVSPost2010PropOp35
 70
     1
102
RTVSPost2010Prop36
280
     0
102
RTVSPost2010PropOp36
 70
     1
102
RTVSPost2010Prop37
 90
       50
102
RTVSPost2010PropOp37
 70
     1
102
RTVSPost2010Prop38
140
0.0
102
RTVSPost2010PropOp38
 70
     1
102
RTVSPost2010Prop39
140
1.0
102
RTVSPost2010PropOp39
 70
     1
102
RTVSPost2010Prop40
 90
        0
102
RTVSPost2010PropOp40
 70
     1
102
RTVSPost2010Prop41ColorIndex
 90
       18
102
RTVSPost2010Prop41ColorRGB
 90
        0
102
RTVSPost2010PropOp41
 70
     1
102
RTVSPost2010Prop42
 90
       50
102
RTVSPost2010PropOp42
 70
     1
102
RTVSPost2010Prop43
 90
        3
102
RTVSPost2010PropOp43
 70
     1
102
RTVSPost2010Prop44ColorIndex
 90
        5
102
RTVSPost2010Prop44ColorRGB
 90
      255
102
RTVSPost2010PropOp44
 70
     1
102
RTVSPost2010Prop45
280
     0
102
RTVSPost2010PropOp45
 70
     1
102
RTVSPost2010Prop46
 90
       50
102
RTVSPost2010PropOp46
 70
     1
102
RTVSPost2010Prop47
 90
       50
102
RTVSPost2010PropOp47
 70
     1
102
RTVSPost2010Prop48
 90
       50
102
RTVSPost2010PropOp48
 70
     1
102
RTVSPost2010Prop49
280
     0
102
RTVSPost2010PropOp49
 70
     1
102
RTVSPost2010Prop50
 90
       50
102
RTVSPost2010PropOp50
 70
     1
102
RTVSPost2010Prop51ColorIndex
 90
      256
102
RTVSPost2010Prop51ColorRGB
 90
-16777216
102
RTVSPost2010PropOp51
 70
     0
102
RTVSPost2010Prop52
140
1.0
102
RTVSPost2010PropOp52
 70
     0
102
RTVSPost2010Prop53
 90
        2
102
RTVSPost2010PropOp53
 70
     1
102
RTVSPost2010Prop54
  1
strokes_ogs.tif
102
RTVSPost2010PropOp54
 70
     1
102
RTVSPost2010Prop55
280
     0
102
RTVSPost2010PropOp55
 70
     1
102
RTVSPost2010Prop56
140
1.0
102
RTVSPost2010PropOp56
 70
     1
102
RTVSPost2010Prop57
140
1.0
102
RTVSPost2010PropOp57
 70
     1
102
RTVSPropertyOp0
 70
     1
102
RTVSPropertyOp1
 70
     1
102
RTVSPropertyOp2
 70
     1
102
RTVSPropertyOp3
 70
     1
102
RTVSPropertyOp4
 70
     1
102
RTVSPropertyOp5
 70
     1
102
RTVSPropertyOp6
 70
     1
102
RTVSPropertyOp7
 70
     1
102
RTVSPropertyOp8
 70
     1
102
RTVSPropertyOp9
 70
     1
102
RTVSPropertyOp10
 70
     1
102
RTVSPropertyOp11
 70
     1
102
RTVSPropertyOp12
 70
     1
102
RTVSPropertyOp13
 70
     1
102
RTVSPropertyOp14
 70
     1
102
RTVSPropertyOp15
 70
     1
102
RTVSPropertyOp16
 70
     1
102
RTVSPropertyOp17
 70
     1
102
RTVSPropertyOp18
 70
     1
102
RTVSPropertyOp19
 70
     1
102
RTVSPropertyOp20
 70
     1
102
RTVSPropertyOp21
 70
     1
102
RTVSPropertyOp22
 70
     1
102
RTVSPropertyOp23
 70
     1
102
RTVSPropertyOp24
 70
     1
102
RTVSPropertyOp25
 70
     1
102
RTVSPropertyOp26
 70
     1
102
RTVSPropertyOp27
 70
     1
102
RTVSPropertyOp28
 70
     1
102
RTVSPropertyOp29
 70
     1
102
RTVSPropertyOp30
 70
     1
102
RTVSPropertyOp31
 70
     1
102
RTVSPropertyOp32
 70
     1
102
RTVSPropertyOp33
 70
     1
102
RTVSPropertyOp34
 70
     1
102
RTVSPropertyOp35
 70
     1
102
RTVSPropertyOp36
 70
     1
102
RTVSPropertyOp37
 70
     1
102
RTVSPropertyOp38
 70
     1
102
RTVSPropertyOp39
 70
     1
102
RTVSPropertyOp40
 70
     1
102
RTVSPropertyOp41
 70
     1
102
RTVSPropertyOp42
 70
     1
102
RTVSPropertyOp43
 70
     1
102
RTVSPropertyOp44
 70
     1
102
RTVSPropertyOp45
 70
     1
102
RTVSPropertyOp46
 70
     1
102
RTVSPropertyOp47
 70
     1
102
RTVSPropertyOp48
 70
     1
102
RTVSPropertyOp49
 70
     1
102
RTVSPropertyOp50
 70
     1
102
RTVSPropertyOp51
 70
     0
102
RTVSPropertyOp52
 70
     0
102
RTVSPropertyOp53
 70
     1
102
RTVSPropertyOp54
 70
     1
102
RTVSPropertyOp55
 70
     1
102
RTVSPropertyOp56
 70
     1
102
RTVSPropertyOp57
 70
     1
102
RTVSPropertyOp58
 70
     1
102
RTVSPropertyOp59
 70
     1
102
RTVSPropertyOp60
 70
     1
102
RTVSPropertyOp61
 70
     1
102
RTVSPropertyOp62
 70
     1
  0
XRECORD
  5
195D
102
{ACAD_REACTORS
330
195C
102
}
330
195C
100
AcDbXrecord
280
     1
102
RTVSPost2010Prop28
280
     0
102
RTVSPost2010PropOp28
 70
     1
102
RTVSPost2010Prop29
280
     1
102
RTVSPost2010PropOp29
 70
     1
102
RTVSPost2010Prop30
280
     1
102
RTVSPost2010PropOp30
 70
     1
102
RTVSPost2010Prop31
280
     0
102
RTVSPost2010PropOp31
 70
     1
102
RTVSPost2010Prop32
280
     0
102
RTVSPost2010PropOp32
 70
     1
102
RTVSPost2010Prop33
280
     0
102
RTVSPost2010PropOp33
 70
     1
102
RTVSPost2010Prop34
280
     0
102
RTVSPost2010PropOp34
 70
     1
102
RTVSPost2010Prop35
280
     0
102
RTVSPost2010PropOp35
 70
     1
102
RTVSPost2010Prop36
280
     0
102
RTVSPost2010PropOp36
 70
     1
102
RTVSPost2010Prop37
 90
       50
102
RTVSPost2010PropOp37
 70
     1
102
RTVSPost2010Prop38
140
0.0
102
RTVSPost2010PropOp38
 70
     1
102
RTVSPost2010Prop39
140
1.0
102
RTVSPost2010PropOp39
 70
     1
102
RTVSPost2010Prop40
 90
        0
102
RTVSPost2010PropOp40
 70
     1
102
RTVSPost2010Prop41ColorIndex
 90
       18
102
RTVSPost2010Prop41ColorRGB
 90
        0
102
RTVSPost2010PropOp41
 70
     1
102
RTVSPost2010Prop42
 90
       50
102
RTVSPost2010PropOp42
 70
     1
102
RTVSPost2010Prop43
 90
        3
102
RTVSPost2010PropOp43
 70
     1
102
RTVSPost2010Prop44ColorIndex
 90
        5
102
RTVSPost2010Prop44ColorRGB
 90
      255
102
RTVSPost2010PropOp44
 70
     1
102
RTVSPost2010Prop45
280
     0
102
RTVSPost2010PropOp45
 70
     1
102
RTVSPost2010Prop46
 90
       50
102
RTVSPost2010PropOp46
 70
     1
102
RTVSPost2010Prop47
 90
       50
102
RTVSPost2010PropOp47
 70
     1
102
RTVSPost2010Prop48
 90
       50
102
RTVSPost2010PropOp48
 70
     1
102
RTVSPost2010Prop49
280
     0
102
RTVSPost2010PropOp49
 70
     1
102
RTVSPost2010Prop50
 90
       50
102
RTVSPost2010PropOp50
 70
     1
102
RTVSPost2010Prop51ColorIndex
 90
      256
102
RTVSPost2010Prop51ColorRGB
 90
-16777216
102
RTVSPost2010PropOp51
 70
     0
102
RTVSPost2010Prop52
140
1.0
102
RTVSPost2010PropOp52
 70
     0
102
RTVSPost2010Prop53
 90
        2
102
RTVSPost2010PropOp53
 70
     1
102
RTVSPost2010Prop54
  1
strokes_ogs.tif
102
RTVSPost2010PropOp54
 70
     1
102
RTVSPost2010Prop55
280
     0
102
RTVSPost2010PropOp55
 70
     1
102
RTVSPost2010Prop56
140
1.0
102
RTVSPost2010PropOp56
 70
     1
102
RTVSPost2010Prop57
140
1.0
102
RTVSPost2010PropOp57
 70
     1
102
RTVSPropertyOp0
 70
     1
102
RTVSPropertyOp1
 70
     1
102
RTVSPropertyOp2
 70
     1
102
RTVSPropertyOp3
 70
     1
102
RTVSPropertyOp4
 70
     1
102
RTVSPropertyOp5
 70
     1
102
RTVSPropertyOp6
 70
     1
102
RTVSPropertyOp7
 70
     1
102
RTVSPropertyOp8
 70
     1
102
RTVSPropertyOp9
 70
     1
102
RTVSPropertyOp10
 70
     1
102
RTVSPropertyOp11
 70
     1
102
RTVSPropertyOp12
 70
     1
102
RTVSPropertyOp13
 70
     1
102
RTVSPropertyOp14
 70
     1
102
RTVSPropertyOp15
 70
     1
102
RTVSPropertyOp16
 70
     1
102
RTVSPropertyOp17
 70
     1
102
RTVSPropertyOp18
 70
     1
102
RTVSPropertyOp19
 70
     1
102
RTVSPropertyOp20
 70
     1
102
RTVSPropertyOp21
 70
     1
102
RTVSPropertyOp22
 70
     1
102
RTVSPropertyOp23
 70
     1
102
RTVSPropertyOp24
 70
     1
102
RTVSPropertyOp25
 70
     1
102
RTVSPropertyOp26
 70
     1
102
RTVSPropertyOp27
 70
     1
102
RTVSPropertyOp28
 70
     1
102
RTVSPropertyOp29
 70
     1
102
RTVSPropertyOp30
 70
     1
102
RTVSPropertyOp31
 70
     1
102
RTVSPropertyOp32
 70
     1
102
RTVSPropertyOp33
 70
     1
102
RTVSPropertyOp34
 70
     1
102
RTVSPropertyOp35
 70
     1
102
RTVSPropertyOp36
 70
     1
102
RTVSPropertyOp37
 70
     1
102
RTVSPropertyOp38
 70
     1
102
RTVSPropertyOp39
 70
     1
102
RTVSPropertyOp40
 70
     1
102
RTVSPropertyOp41
 70
     1
102
RTVSPropertyOp42
 70
     1
102
RTVSPropertyOp43
 70
     1
102
RTVSPropertyOp44
 70
     1
102
RTVSPropertyOp45
 70
     1
102
RTVSPropertyOp46
 70
     1
102
RTVSPropertyOp47
 70
     1
102
RTVSPropertyOp48
 70
     1
102
RTVSPropertyOp49
 70
     1
102
RTVSPropertyOp50
 70
     1
102
RTVSPropertyOp51
 70
     0
102
RTVSPropertyOp52
 70
     0
102
RTVSPropertyOp53
 70
     1
102
RTVSPropertyOp54
 70
     1
102
RTVSPropertyOp55
 70
     1
102
RTVSPropertyOp56
 70
     1
102
RTVSPropertyOp57
 70
     1
102
RTVSPropertyOp58
 70
     1
102
RTVSPropertyOp59
 70
     1
102
RTVSPropertyOp60
 70
     1
102
RTVSPropertyOp61
 70
     1
102
RTVSPropertyOp62
 70
     1
  0
XRECORD
  5
1969
102
{ACAD_REACTORS
330
1968
102
}
330
1968
100
AcDbXrecord
280
     1
102
RTVSPost2010Prop28
280
     0
102
RTVSPost2010PropOp28
 70
     0
102
RTVSPost2010Prop29
280
     1
102
RTVSPost2010PropOp29
 70
     0
102
RTVSPost2010Prop30
280
     1
102
RTVSPost2010PropOp30
 70
     0
102
RTVSPost2010Prop31
280
     0
102
RTVSPost2010PropOp31
 70
     0
102
RTVSPost2010Prop32
280
     0
102
RTVSPost2010PropOp32
 70
     0
102
RTVSPost2010Prop33
280
     0
102
RTVSPost2010PropOp33
 70
     0
102
RTVSPost2010Prop34
280
     0
102
RTVSPost2010PropOp34
 70
     0
102
RTVSPost2010Prop35
280
     0
102
RTVSPost2010PropOp35
 70
     0
102
RTVSPost2010Prop36
280
     0
102
RTVSPost2010PropOp36
 70
     0
102
RTVSPost2010Prop37
 90
       50
102
RTVSPost2010PropOp37
 70
     0
102
RTVSPost2010Prop38
140
0.0
102
RTVSPost2010PropOp38
 70
     0
102
RTVSPost2010Prop39
140
1.0
102
RTVSPost2010PropOp39
 70
     0
102
RTVSPost2010Prop40
 90
        0
102
RTVSPost2010PropOp40
 70
     0
102
RTVSPost2010Prop41ColorIndex
 90
       18
102
RTVSPost2010Prop41ColorRGB
 90
        0
102
RTVSPost2010PropOp41
 70
     0
102
RTVSPost2010Prop42
 90
       50
102
RTVSPost2010PropOp42
 70
     0
102
RTVSPost2010Prop43
 90
        3
102
RTVSPost2010PropOp43
 70
     0
102
RTVSPost2010Prop44ColorIndex
 90
        5
102
RTVSPost2010Prop44ColorRGB
 90
      255
102
RTVSPost2010PropOp44
 70
     0
102
RTVSPost2010Prop45
280
     0
102
RTVSPost2010PropOp45
 70
     0
102
RTVSPost2010Prop46
 90
       50
102
RTVSPost2010PropOp46
 70
     0
102
RTVSPost2010Prop47
 90
       50
102
RTVSPost2010PropOp47
 70
     0
102
RTVSPost2010Prop48
 90
       50
102
RTVSPost2010PropOp48
 70
     0
102
RTVSPost2010Prop49
280
     0
102
RTVSPost2010PropOp49
 70
     0
102
RTVSPost2010Prop50
 90
       50
102
RTVSPost2010PropOp50
 70
     0
102
RTVSPost2010Prop51ColorIndex
 90
      256
102
RTVSPost2010Prop51ColorRGB
 90
-16777216
102
RTVSPost2010PropOp51
 70
     0
102
RTVSPost2010Prop52
140
1.0
102
RTVSPost2010PropOp52
 70
     0
102
RTVSPost2010Prop53
 90
        2
102
RTVSPost2010PropOp53
 70
     0
102
RTVSPost2010Prop54
  1
strokes_ogs.tif
102
RTVSPost2010PropOp54
 70
     0
102
RTVSPost2010Prop55
280
     0
102
RTVSPost2010PropOp55
 70
     0
102
RTVSPost2010Prop56
140
1.0
102
RTVSPost2010PropOp56
 70
     0
102
RTVSPost2010Prop57
140
1.0
102
RTVSPost2010PropOp57
 70
     0
102
RTVSPropertyOp0
 70
     0
102
RTVSPropertyOp1
 70
     0
102
RTVSPropertyOp2
 70
     0
102
RTVSPropertyOp3
 70
     0
102
RTVSPropertyOp4
 70
     0
102
RTVSPropertyOp5
 70
     0
102
RTVSPropertyOp6
 70
     0
102
RTVSPropertyOp7
 70
     0
102
RTVSPropertyOp8
 70
     0
102
RTVSPropertyOp9
 70
     0
102
RTVSPropertyOp10
 70
     0
102
RTVSPropertyOp11
 70
     0
102
RTVSPropertyOp12
 70
     0
102
RTVSPropertyOp13
 70
     0
102
RTVSPropertyOp14
 70
     2
102
RTVSPropertyOp15
 70
     0
102
RTVSPropertyOp16
 70
     0
102
RTVSPropertyOp17
 70
     0
102
RTVSPropertyOp18
 70
     0
102
RTVSPropertyOp19
 70
     0
102
RTVSPropertyOp20
 70
     0
102
RTVSPropertyOp21
 70
     0
102
RTVSPropertyOp22
 70
     0
102
RTVSPropertyOp23
 70
     0
102
RTVSPropertyOp24
 70
     0
102
RTVSPropertyOp25
 70
     0
102
RTVSPropertyOp26
 70
     0
102
RTVSPropertyOp27
 70
     0
102
RTVSPropertyOp28
 70
     0
102
RTVSPropertyOp29
 70
     0
102
RTVSPropertyOp30
 70
     0
102
RTVSPropertyOp31
 70
     0
102
RTVSPropertyOp32
 70
     0
102
RTVSPropertyOp33
 70
     0
102
RTVSPropertyOp34
 70
     0
102
RTVSPropertyOp35
 70
     0
102
RTVSPropertyOp36
 70
     0
102
RTVSPropertyOp37
 70
     0
102
RTVSPropertyOp38
 70
     0
102
RTVSPropertyOp39
 70
     0
102
RTVSPropertyOp40
 70
     0
102
RTVSPropertyOp41
 70
     0
102
RTVSPropertyOp42
 70
     0
102
RTVSPropertyOp43
 70
     0
102
RTVSPropertyOp44
 70
     0
102
RTVSPropertyOp45
 70
     0
102
RTVSPropertyOp46
 70
     0
102
RTVSPropertyOp47
 70
     0
102
RTVSPropertyOp48
 70
     0
102
RTVSPropertyOp49
 70
     0
102
RTVSPropertyOp50
 70
     0
102
RTVSPropertyOp51
 70
     0
102
RTVSPropertyOp52
 70
     0
102
RTVSPropertyOp53
 70
     0
102
RTVSPropertyOp54
 70
     0
102
RTVSPropertyOp55
 70
     0
102
RTVSPropertyOp56
 70
     0
102
RTVSPropertyOp57
 70
     0
102
RTVSPropertyOp58
 70
     0
102
RTVSPropertyOp59
 70
     0
102
RTVSPropertyOp60
 70
     0
102
RTVSPropertyOp61
 70
     0
102
RTVSPropertyOp62
 70
     0
  0
XRECORD
  5
1954
102
{ACAD_REACTORS
330
1953
102
}
330
1953
100
AcDbXrecord
280
     1
102
RTVSPost2010Prop28
280
     0
102
RTVSPost2010PropOp28
 70
     1
102
RTVSPost2010Prop29
280
     1
102
RTVSPost2010PropOp29
 70
     1
102
RTVSPost2010Prop30
280
     1
102
RTVSPost2010PropOp30
 70
     1
102
RTVSPost2010Prop31
280
     0
102
RTVSPost2010PropOp31
 70
     1
102
RTVSPost2010Prop32
280
     0
102
RTVSPost2010PropOp32
 70
     1
102
RTVSPost2010Prop33
280
     0
102
RTVSPost2010PropOp33
 70
     1
102
RTVSPost2010Prop34
280
     0
102
RTVSPost2010PropOp34
 70
     1
102
RTVSPost2010Prop35
280
     0
102
RTVSPost2010PropOp35
 70
     1
102
RTVSPost2010Prop36
280
     0
102
RTVSPost2010PropOp36
 70
     1
102
RTVSPost2010Prop37
 90
       50
102
RTVSPost2010PropOp37
 70
     1
102
RTVSPost2010Prop38
140
0.0
102
RTVSPost2010PropOp38
 70
     1
102
RTVSPost2010Prop39
140
1.0
102
RTVSPost2010PropOp39
 70
     1
102
RTVSPost2010Prop40
 90
        0
102
RTVSPost2010PropOp40
 70
     1
102
RTVSPost2010Prop41ColorIndex
 90
       18
102
RTVSPost2010Prop41ColorRGB
 90
        0
102
RTVSPost2010PropOp41
 70
     1
102
RTVSPost2010Prop42
 90
       50
102
RTVSPost2010PropOp42
 70
     1
102
RTVSPost2010Prop43
 90
        3
102
RTVSPost2010PropOp43
 70
     1
102
RTVSPost2010Prop44ColorIndex
 90
        5
102
RTVSPost2010Prop44ColorRGB
 90
      255
102
RTVSPost2010PropOp44
 70
     1
102
RTVSPost2010Prop45
280
     0
102
RTVSPost2010PropOp45
 70
     1
102
RTVSPost2010Prop46
 90
       50
102
RTVSPost2010PropOp46
 70
     1
102
RTVSPost2010Prop47
 90
       50
102
RTVSPost2010PropOp47
 70
     1
102
RTVSPost2010Prop48
 90
       50
102
RTVSPost2010PropOp48
 70
     1
102
RTVSPost2010Prop49
280
     0
102
RTVSPost2010PropOp49
 70
     1
102
RTVSPost2010Prop50
 90
       50
102
RTVSPost2010PropOp50
 70
     1
102
RTVSPost2010Prop51ColorIndex
 90
      256
102
RTVSPost2010Prop51ColorRGB
 90
-16777216
102
RTVSPost2010PropOp51
 70
     0
102
RTVSPost2010Prop52
140
1.0
102
RTVSPost2010PropOp52
 70
     0
102
RTVSPost2010Prop53
 90
        2
102
RTVSPost2010PropOp53
 70
     1
102
RTVSPost2010Prop54
  1
strokes_ogs.tif
102
RTVSPost2010PropOp54
 70
     1
102
RTVSPost2010Prop55
280
     0
102
RTVSPost2010PropOp55
 70
     1
102
RTVSPost2010Prop56
140
1.0
102
RTVSPost2010PropOp56
 70
     1
102
RTVSPost2010Prop57
140
1.0
102
RTVSPost2010PropOp57
 70
     1
102
RTVSPropertyOp0
 70
     1
102
RTVSPropertyOp1
 70
     1
102
RTVSPropertyOp2
 70
     1
102
RTVSPropertyOp3
 70
     1
102
RTVSPropertyOp4
 70
     1
102
RTVSPropertyOp5
 70
     1
102
RTVSPropertyOp6
 70
     1
102
RTVSPropertyOp7
 70
     1
102
RTVSPropertyOp8
 70
     1
102
RTVSPropertyOp9
 70
     1
102
RTVSPropertyOp10
 70
     1
102
RTVSPropertyOp11
 70
     1
102
RTVSPropertyOp12
 70
     1
102
RTVSPropertyOp13
 70
     1
102
RTVSPropertyOp14
 70
     1
102
RTVSPropertyOp15
 70
     1
102
RTVSPropertyOp16
 70
     1
102
RTVSPropertyOp17
 70
     1
102
RTVSPropertyOp18
 70
     1
102
RTVSPropertyOp19
 70
     1
102
RTVSPropertyOp20
 70
     1
102
RTVSPropertyOp21
 70
     1
102
RTVSPropertyOp22
 70
     1
102
RTVSPropertyOp23
 70
     1
102
RTVSPropertyOp24
 70
     1
102
RTVSPropertyOp25
 70
     1
102
RTVSPropertyOp26
 70
     1
102
RTVSPropertyOp27
 70
     1
102
RTVSPropertyOp28
 70
     1
102
RTVSPropertyOp29
 70
     1
102
RTVSPropertyOp30
 70
     1
102
RTVSPropertyOp31
 70
     1
102
RTVSPropertyOp32
 70
     1
102
RTVSPropertyOp33
 70
     1
102
RTVSPropertyOp34
 70
     1
102
RTVSPropertyOp35
 70
     1
102
RTVSPropertyOp36
 70
     1
102
RTVSPropertyOp37
 70
     1
102
RTVSPropertyOp38
 70
     1
102
RTVSPropertyOp39
 70
     1
102
RTVSPropertyOp40
 70
     1
102
RTVSPropertyOp41
 70
     1
102
RTVSPropertyOp42
 70
     1
102
RTVSPropertyOp43
 70
     1
102
RTVSPropertyOp44
 70
     1
102
RTVSPropertyOp45
 70
     1
102
RTVSPropertyOp46
 70
     1
102
RTVSPropertyOp47
 70
     1
102
RTVSPropertyOp48
 70
     1
102
RTVSPropertyOp49
 70
     1
102
RTVSPropertyOp50
 70
     1
102
RTVSPropertyOp51
 70
     0
102
RTVSPropertyOp52
 70
     0
102
RTVSPropertyOp53
 70
     1
102
RTVSPropertyOp54
 70
     1
102
RTVSPropertyOp55
 70
     1
102
RTVSPropertyOp56
 70
     1
102
RTVSPropertyOp57
 70
     1
102
RTVSPropertyOp58
 70
     1
102
RTVSPropertyOp59
 70
     1
102
RTVSPropertyOp60
 70
     1
102
RTVSPropertyOp61
 70
     1
102
RTVSPropertyOp62
 70
     1
  0
XRECORD
  5
196B
102
{ACAD_REACTORS
330
196A
102
}
330
196A
100
AcDbXrecord
280
     1
102
RTVSPost2010Prop28
280
     0
102
RTVSPost2010PropOp28
 70
     0
102
RTVSPost2010Prop29
280
     1
102
RTVSPost2010PropOp29
 70
     0
102
RTVSPost2010Prop30
280
     1
102
RTVSPost2010PropOp30
 70
     0
102
RTVSPost2010Prop31
280
     0
102
RTVSPost2010PropOp31
 70
     0
102
RTVSPost2010Prop32
280
     0
102
RTVSPost2010PropOp32
 70
     0
102
RTVSPost2010Prop33
280
     0
102
RTVSPost2010PropOp33
 70
     0
102
RTVSPost2010Prop34
280
     0
102
RTVSPost2010PropOp34
 70
     0
102
RTVSPost2010Prop35
280
     0
102
RTVSPost2010PropOp35
 70
     0
102
RTVSPost2010Prop36
280
     0
102
RTVSPost2010PropOp36
 70
     0
102
RTVSPost2010Prop37
 90
       50
102
RTVSPost2010PropOp37
 70
     0
102
RTVSPost2010Prop38
140
0.0
102
RTVSPost2010PropOp38
 70
     0
102
RTVSPost2010Prop39
140
1.0
102
RTVSPost2010PropOp39
 70
     0
102
RTVSPost2010Prop40
 90
        0
102
RTVSPost2010PropOp40
 70
     0
102
RTVSPost2010Prop41ColorIndex
 90
       18
102
RTVSPost2010Prop41ColorRGB
 90
        0
102
RTVSPost2010PropOp41
 70
     0
102
RTVSPost2010Prop42
 90
       50
102
RTVSPost2010PropOp42
 70
     0
102
RTVSPost2010Prop43
 90
        3
102
RTVSPost2010PropOp43
 70
     0
102
RTVSPost2010Prop44ColorIndex
 90
        5
102
RTVSPost2010Prop44ColorRGB
 90
      255
102
RTVSPost2010PropOp44
 70
     0
102
RTVSPost2010Prop45
280
     0
102
RTVSPost2010PropOp45
 70
     0
102
RTVSPost2010Prop46
 90
       50
102
RTVSPost2010PropOp46
 70
     0
102
RTVSPost2010Prop47
 90
       50
102
RTVSPost2010PropOp47
 70
     0
102
RTVSPost2010Prop48
 90
       50
102
RTVSPost2010PropOp48
 70
     0
102
RTVSPost2010Prop49
280
     0
102
RTVSPost2010PropOp49
 70
     0
102
RTVSPost2010Prop50
 90
       50
102
RTVSPost2010PropOp50
 70
     0
102
RTVSPost2010Prop51ColorIndex
 90
      256
102
RTVSPost2010Prop51ColorRGB
 90
-16777216
102
RTVSPost2010PropOp51
 70
     0
102
RTVSPost2010Prop52
140
1.0
102
RTVSPost2010PropOp52
 70
     0
102
RTVSPost2010Prop53
 90
        2
102
RTVSPost2010PropOp53
 70
     0
102
RTVSPost2010Prop54
  1
strokes_ogs.tif
102
RTVSPost2010PropOp54
 70
     0
102
RTVSPost2010Prop55
280
     0
102
RTVSPost2010PropOp55
 70
     0
102
RTVSPost2010Prop56
140
1.0
102
RTVSPost2010PropOp56
 70
     0
102
RTVSPost2010Prop57
140
1.0
102
RTVSPost2010PropOp57
 70
     0
102
RTVSPropertyOp0
 70
     0
102
RTVSPropertyOp1
 70
     0
102
RTVSPropertyOp2
 70
     0
102
RTVSPropertyOp3
 70
     0
102
RTVSPropertyOp4
 70
     0
102
RTVSPropertyOp5
 70
     0
102
RTVSPropertyOp6
 70
     0
102
RTVSPropertyOp7
 70
     0
102
RTVSPropertyOp8
 70
     0
102
RTVSPropertyOp9
 70
     0
102
RTVSPropertyOp10
 70
     0
102
RTVSPropertyOp11
 70
     0
102
RTVSPropertyOp12
 70
     0
102
RTVSPropertyOp13
 70
     0
102
RTVSPropertyOp14
 70
     2
102
RTVSPropertyOp15
 70
     0
102
RTVSPropertyOp16
 70
     0
102
RTVSPropertyOp17
 70
     0
102
RTVSPropertyOp18
 70
     0
102
RTVSPropertyOp19
 70
     0
102
RTVSPropertyOp20
 70
     0
102
RTVSPropertyOp21
 70
     0
102
RTVSPropertyOp22
 70
     0
102
RTVSPropertyOp23
 70
     0
102
RTVSPropertyOp24
 70
     0
102
RTVSPropertyOp25
 70
     0
102
RTVSPropertyOp26
 70
     0
102
RTVSPropertyOp27
 70
     0
102
RTVSPropertyOp28
 70
     0
102
RTVSPropertyOp29
 70
     0
102
RTVSPropertyOp30
 70
     0
102
RTVSPropertyOp31
 70
     0
102
RTVSPropertyOp32
 70
     0
102
RTVSPropertyOp33
 70
     0
102
RTVSPropertyOp34
 70
     0
102
RTVSPropertyOp35
 70
     0
102
RTVSPropertyOp36
 70
     0
102
RTVSPropertyOp37
 70
     0
102
RTVSPropertyOp38
 70
     0
102
RTVSPropertyOp39
 70
     0
102
RTVSPropertyOp40
 70
     0
102
RTVSPropertyOp41
 70
     0
102
RTVSPropertyOp42
 70
     0
102
RTVSPropertyOp43
 70
     0
102
RTVSPropertyOp44
 70
     0
102
RTVSPropertyOp45
 70
     0
102
RTVSPropertyOp46
 70
     0
102
RTVSPropertyOp47
 70
     0
102
RTVSPropertyOp48
 70
     0
102
RTVSPropertyOp49
 70
     0
102
RTVSPropertyOp50
 70
     0
102
RTVSPropertyOp51
 70
     0
102
RTVSPropertyOp52
 70
     0
102
RTVSPropertyOp53
 70
     0
102
RTVSPropertyOp54
 70
     0
102
RTVSPropertyOp55
 70
     0
102
RTVSPropertyOp56
 70
     0
102
RTVSPropertyOp57
 70
     0
102
RTVSPropertyOp58
 70
     0
102
RTVSPropertyOp59
 70
     0
102
RTVSPropertyOp60
 70
     0
102
RTVSPropertyOp61
 70
     0
102
RTVSPropertyOp62
 70
     0
  0
XRECORD
  5
194C
102
{ACAD_REACTORS
330
194B
102
}
330
194B
100
AcDbXrecord
280
     1
102
RTVSPost2010Prop28
280
     0
102
RTVSPost2010PropOp28
 70
     1
102
RTVSPost2010Prop29
280
     1
102
RTVSPost2010PropOp29
 70
     1
102
RTVSPost2010Prop30
280
     1
102
RTVSPost2010PropOp30
 70
     1
102
RTVSPost2010Prop31
280
     0
102
RTVSPost2010PropOp31
 70
     1
102
RTVSPost2010Prop32
280
     0
102
RTVSPost2010PropOp32
 70
     1
102
RTVSPost2010Prop33
280
     0
102
RTVSPost2010PropOp33
 70
     1
102
RTVSPost2010Prop34
280
     0
102
RTVSPost2010PropOp34
 70
     1
102
RTVSPost2010Prop35
280
     0
102
RTVSPost2010PropOp35
 70
     1
102
RTVSPost2010Prop36
280
     0
102
RTVSPost2010PropOp36
 70
     1
102
RTVSPost2010Prop37
 90
       50
102
RTVSPost2010PropOp37
 70
     1
102
RTVSPost2010Prop38
140
0.0
102
RTVSPost2010PropOp38
 70
     1
102
RTVSPost2010Prop39
140
1.0
102
RTVSPost2010PropOp39
 70
     1
102
RTVSPost2010Prop40
 90
        0
102
RTVSPost2010PropOp40
 70
     1
102
RTVSPost2010Prop41ColorIndex
 90
       18
102
RTVSPost2010Prop41ColorRGB
 90
        0
102
RTVSPost2010PropOp41
 70
     1
102
RTVSPost2010Prop42
 90
       50
102
RTVSPost2010PropOp42
 70
     1
102
RTVSPost2010Prop43
 90
        3
102
RTVSPost2010PropOp43
 70
     1
102
RTVSPost2010Prop44ColorIndex
 90
        5
102
RTVSPost2010Prop44ColorRGB
 90
      255
102
RTVSPost2010PropOp44
 70
     1
102
RTVSPost2010Prop45
280
     0
102
RTVSPost2010PropOp45
 70
     1
102
RTVSPost2010Prop46
 90
       50
102
RTVSPost2010PropOp46
 70
     1
102
RTVSPost2010Prop47
 90
       50
102
RTVSPost2010PropOp47
 70
     1
102
RTVSPost2010Prop48
 90
       50
102
RTVSPost2010PropOp48
 70
     1
102
RTVSPost2010Prop49
280
     0
102
RTVSPost2010PropOp49
 70
     1
102
RTVSPost2010Prop50
 90
       50
102
RTVSPost2010PropOp50
 70
     1
102
RTVSPost2010Prop51ColorIndex
 90
      256
102
RTVSPost2010Prop51ColorRGB
 90
-16777216
102
RTVSPost2010PropOp51
 70
     0
102
RTVSPost2010Prop52
140
1.0
102
RTVSPost2010PropOp52
 70
     0
102
RTVSPost2010Prop53
 90
        2
102
RTVSPost2010PropOp53
 70
     1
102
RTVSPost2010Prop54
  1
strokes_ogs.tif
102
RTVSPost2010PropOp54
 70
     1
102
RTVSPost2010Prop55
280
     0
102
RTVSPost2010PropOp55
 70
     1
102
RTVSPost2010Prop56
140
1.0
102
RTVSPost2010PropOp56
 70
     1
102
RTVSPost2010Prop57
140
1.0
102
RTVSPost2010PropOp57
 70
     1
102
RTVSPropertyOp0
 70
     1
102
RTVSPropertyOp1
 70
     1
102
RTVSPropertyOp2
 70
     1
102
RTVSPropertyOp3
 70
     1
102
RTVSPropertyOp4
 70
     1
102
RTVSPropertyOp5
 70
     1
102
RTVSPropertyOp6
 70
     1
102
RTVSPropertyOp7
 70
     1
102
RTVSPropertyOp8
 70
     1
102
RTVSPropertyOp9
 70
     1
102
RTVSPropertyOp10
 70
     1
102
RTVSPropertyOp11
 70
     1
102
RTVSPropertyOp12
 70
     1
102
RTVSPropertyOp13
 70
     1
102
RTVSPropertyOp14
 70
     1
102
RTVSPropertyOp15
 70
     1
102
RTVSPropertyOp16
 70
     1
102
RTVSPropertyOp17
 70
     1
102
RTVSPropertyOp18
 70
     1
102
RTVSPropertyOp19
 70
     1
102
RTVSPropertyOp20
 70
     1
102
RTVSPropertyOp21
 70
     1
102
RTVSPropertyOp22
 70
     1
102
RTVSPropertyOp23
 70
     1
102
RTVSPropertyOp24
 70
     1
102
RTVSPropertyOp25
 70
     1
102
RTVSPropertyOp26
 70
     1
102
RTVSPropertyOp27
 70
     1
102
RTVSPropertyOp28
 70
     1
102
RTVSPropertyOp29
 70
     1
102
RTVSPropertyOp30
 70
     1
102
RTVSPropertyOp31
 70
     1
102
RTVSPropertyOp32
 70
     1
102
RTVSPropertyOp33
 70
     1
102
RTVSPropertyOp34
 70
     1
102
RTVSPropertyOp35
 70
     1
102
RTVSPropertyOp36
 70
     1
102
RTVSPropertyOp37
 70
     1
102
RTVSPropertyOp38
 70
     1
102
RTVSPropertyOp39
 70
     1
102
RTVSPropertyOp40
 70
     1
102
RTVSPropertyOp41
 70
     1
102
RTVSPropertyOp42
 70
     1
102
RTVSPropertyOp43
 70
     1
102
RTVSPropertyOp44
 70
     1
102
RTVSPropertyOp45
 70
     1
102
RTVSPropertyOp46
 70
     1
102
RTVSPropertyOp47
 70
     1
102
RTVSPropertyOp48
 70
     1
102
RTVSPropertyOp49
 70
     1
102
RTVSPropertyOp50
 70
     1
102
RTVSPropertyOp51
 70
     0
102
RTVSPropertyOp52
 70
     0
102
RTVSPropertyOp53
 70
     1
102
RTVSPropertyOp54
 70
     1
102
RTVSPropertyOp55
 70
     1
102
RTVSPropertyOp56
 70
     1
102
RTVSPropertyOp57
 70
     1
102
RTVSPropertyOp58
 70
     1
102
RTVSPropertyOp59
 70
     1
102
RTVSPropertyOp60
 70
     1
102
RTVSPropertyOp61
 70
     1
102
RTVSPropertyOp62
 70
     1
  0
XRECORD
  5
1967
102
{ACAD_REACTORS
330
1966
102
}
330
1966
100
AcDbXrecord
280
     1
102
RTVSPost2010Prop28
280
     0
102
RTVSPost2010PropOp28
 70
     1
102
RTVSPost2010Prop29
280
     1
102
RTVSPost2010PropOp29
 70
     1
102
RTVSPost2010Prop30
280
     1
102
RTVSPost2010PropOp30
 70
     1
102
RTVSPost2010Prop31
280
     0
102
RTVSPost2010PropOp31
 70
     1
102
RTVSPost2010Prop32
280
     0
102
RTVSPost2010PropOp32
 70
     1
102
RTVSPost2010Prop33
280
     0
102
RTVSPost2010PropOp33
 70
     1
102
RTVSPost2010Prop34
280
     0
102
RTVSPost2010PropOp34
 70
     1
102
RTVSPost2010Prop35
280
     0
102
RTVSPost2010PropOp35
 70
     1
102
RTVSPost2010Prop36
280
     0
102
RTVSPost2010PropOp36
 70
     1
102
RTVSPost2010Prop37
 90
       50
102
RTVSPost2010PropOp37
 70
     1
102
RTVSPost2010Prop38
140
0.0
102
RTVSPost2010PropOp38
 70
     1
102
RTVSPost2010Prop39
140
1.0
102
RTVSPost2010PropOp39
 70
     1
102
RTVSPost2010Prop40
 90
        0
102
RTVSPost2010PropOp40
 70
     1
102
RTVSPost2010Prop41ColorIndex
 90
       18
102
RTVSPost2010Prop41ColorRGB
 90
        0
102
RTVSPost2010PropOp41
 70
     1
102
RTVSPost2010Prop42
 90
       50
102
RTVSPost2010PropOp42
 70
     1
102
RTVSPost2010Prop43
 90
        3
102
RTVSPost2010PropOp43
 70
     1
102
RTVSPost2010Prop44ColorIndex
 90
        5
102
RTVSPost2010Prop44ColorRGB
 90
      255
102
RTVSPost2010PropOp44
 70
     1
102
RTVSPost2010Prop45
280
     0
102
RTVSPost2010PropOp45
 70
     1
102
RTVSPost2010Prop46
 90
       50
102
RTVSPost2010PropOp46
 70
     1
102
RTVSPost2010Prop47
 90
       50
102
RTVSPost2010PropOp47
 70
     1
102
RTVSPost2010Prop48
 90
       50
102
RTVSPost2010PropOp48
 70
     1
102
RTVSPost2010Prop49
280
     0
102
RTVSPost2010PropOp49
 70
     1
102
RTVSPost2010Prop50
 90
       50
102
RTVSPost2010PropOp50
 70
     1
102
RTVSPost2010Prop51ColorIndex
 90
      256
102
RTVSPost2010Prop51ColorRGB
 90
-16777216
102
RTVSPost2010PropOp51
 70
     0
102
RTVSPost2010Prop52
140
1.0
102
RTVSPost2010PropOp52
 70
     0
102
RTVSPost2010Prop53
 90
        2
102
RTVSPost2010PropOp53
 70
     1
102
RTVSPost2010Prop54
  1
strokes_ogs.tif
102
RTVSPost2010PropOp54
 70
     1
102
RTVSPost2010Prop55
280
     0
102
RTVSPost2010PropOp55
 70
     1
102
RTVSPost2010Prop56
140
1.0
102
RTVSPost2010PropOp56
 70
     1
102
RTVSPost2010Prop57
140
1.0
102
RTVSPost2010PropOp57
 70
     1
102
RTVSPropertyOp0
 70
     1
102
RTVSPropertyOp1
 70
     1
102
RTVSPropertyOp2
 70
     1
102
RTVSPropertyOp3
 70
     1
102
RTVSPropertyOp4
 70
     1
102
RTVSPropertyOp5
 70
     1
102
RTVSPropertyOp6
 70
     1
102
RTVSPropertyOp7
 70
     1
102
RTVSPropertyOp8
 70
     1
102
RTVSPropertyOp9
 70
     1
102
RTVSPropertyOp10
 70
     1
102
RTVSPropertyOp11
 70
     1
102
RTVSPropertyOp12
 70
     1
102
RTVSPropertyOp13
 70
     1
102
RTVSPropertyOp14
 70
     1
102
RTVSPropertyOp15
 70
     1
102
RTVSPropertyOp16
 70
     1
102
RTVSPropertyOp17
 70
     1
102
RTVSPropertyOp18
 70
     1
102
RTVSPropertyOp19
 70
     1
102
RTVSPropertyOp20
 70
     1
102
RTVSPropertyOp21
 70
     1
102
RTVSPropertyOp22
 70
     1
102
RTVSPropertyOp23
 70
     1
102
RTVSPropertyOp24
 70
     1
102
RTVSPropertyOp25
 70
     1
102
RTVSPropertyOp26
 70
     1
102
RTVSPropertyOp27
 70
     1
102
RTVSPropertyOp28
 70
     1
102
RTVSPropertyOp29
 70
     1
102
RTVSPropertyOp30
 70
     1
102
RTVSPropertyOp31
 70
     1
102
RTVSPropertyOp32
 70
     1
102
RTVSPropertyOp33
 70
     1
102
RTVSPropertyOp34
 70
     1
102
RTVSPropertyOp35
 70
     1
102
RTVSPropertyOp36
 70
     1
102
RTVSPropertyOp37
 70
     1
102
RTVSPropertyOp38
 70
     1
102
RTVSPropertyOp39
 70
     1
102
RTVSPropertyOp40
 70
     1
102
RTVSPropertyOp41
 70
     1
102
RTVSPropertyOp42
 70
     1
102
RTVSPropertyOp43
 70
     1
102
RTVSPropertyOp44
 70
     1
102
RTVSPropertyOp45
 70
     1
102
RTVSPropertyOp46
 70
     1
102
RTVSPropertyOp47
 70
     1
102
RTVSPropertyOp48
 70
     1
102
RTVSPropertyOp49
 70
     1
102
RTVSPropertyOp50
 70
     1
102
RTVSPropertyOp51
 70
     0
102
RTVSPropertyOp52
 70
     0
102
RTVSPropertyOp53
 70
     1
102
RTVSPropertyOp54
 70
     1
102
RTVSPropertyOp55
 70
     1
102
RTVSPropertyOp56
 70
     1
102
RTVSPropertyOp57
 70
     1
102
RTVSPropertyOp58
 70
     1
102
RTVSPropertyOp59
 70
     1
102
RTVSPropertyOp60
 70
     1
102
RTVSPropertyOp61
 70
     1
102
RTVSPropertyOp62
 70
     1
  0
XRECORD
  5
1965
102
{ACAD_REACTORS
330
1964
102
}
330
1964
100
AcDbXrecord
280
     1
102
RTVSPost2010Prop28
280
     0
102
RTVSPost2010PropOp28
 70
     1
102
RTVSPost2010Prop29
280
     1
102
RTVSPost2010PropOp29
 70
     1
102
RTVSPost2010Prop30
280
     1
102
RTVSPost2010PropOp30
 70
     1
102
RTVSPost2010Prop31
280
     0
102
RTVSPost2010PropOp31
 70
     1
102
RTVSPost2010Prop32
280
     0
102
RTVSPost2010PropOp32
 70
     1
102
RTVSPost2010Prop33
280
     0
102
RTVSPost2010PropOp33
 70
     1
102
RTVSPost2010Prop34
280
     0
102
RTVSPost2010PropOp34
 70
     1
102
RTVSPost2010Prop35
280
     0
102
RTVSPost2010PropOp35
 70
     1
102
RTVSPost2010Prop36
280
     0
102
RTVSPost2010PropOp36
 70
     1
102
RTVSPost2010Prop37
 90
       50
102
RTVSPost2010PropOp37
 70
     1
102
RTVSPost2010Prop38
140
0.0
102
RTVSPost2010PropOp38
 70
     1
102
RTVSPost2010Prop39
140
1.0
102
RTVSPost2010PropOp39
 70
     1
102
RTVSPost2010Prop40
 90
        0
102
RTVSPost2010PropOp40
 70
     1
102
RTVSPost2010Prop41ColorIndex
 90
       18
102
RTVSPost2010Prop41ColorRGB
 90
        0
102
RTVSPost2010PropOp41
 70
     1
102
RTVSPost2010Prop42
 90
       50
102
RTVSPost2010PropOp42
 70
     1
102
RTVSPost2010Prop43
 90
        3
102
RTVSPost2010PropOp43
 70
     1
102
RTVSPost2010Prop44ColorIndex
 90
        5
102
RTVSPost2010Prop44ColorRGB
 90
      255
102
RTVSPost2010PropOp44
 70
     1
102
RTVSPost2010Prop45
280
     0
102
RTVSPost2010PropOp45
 70
     1
102
RTVSPost2010Prop46
 90
       50
102
RTVSPost2010PropOp46
 70
     1
102
RTVSPost2010Prop47
 90
       50
102
RTVSPost2010PropOp47
 70
     1
102
RTVSPost2010Prop48
 90
       50
102
RTVSPost2010PropOp48
 70
     1
102
RTVSPost2010Prop49
280
     0
102
RTVSPost2010PropOp49
 70
     1
102
RTVSPost2010Prop50
 90
       50
102
RTVSPost2010PropOp50
 70
     1
102
RTVSPost2010Prop51ColorIndex
 90
      256
102
RTVSPost2010Prop51ColorRGB
 90
-16777216
102
RTVSPost2010PropOp51
 70
     0
102
RTVSPost2010Prop52
140
1.0
102
RTVSPost2010PropOp52
 70
     0
102
RTVSPost2010Prop53
 90
        2
102
RTVSPost2010PropOp53
 70
     1
102
RTVSPost2010Prop54
  1
strokes_ogs.tif
102
RTVSPost2010PropOp54
 70
     1
102
RTVSPost2010Prop55
280
     0
102
RTVSPost2010PropOp55
 70
     1
102
RTVSPost2010Prop56
140
1.0
102
RTVSPost2010PropOp56
 70
     1
102
RTVSPost2010Prop57
140
1.0
102
RTVSPost2010PropOp57
 70
     1
102
RTVSPropertyOp0
 70
     1
102
RTVSPropertyOp1
 70
     1
102
RTVSPropertyOp2
 70
     1
102
RTVSPropertyOp3
 70
     1
102
RTVSPropertyOp4
 70
     1
102
RTVSPropertyOp5
 70
     1
102
RTVSPropertyOp6
 70
     1
102
RTVSPropertyOp7
 70
     1
102
RTVSPropertyOp8
 70
     1
102
RTVSPropertyOp9
 70
     1
102
RTVSPropertyOp10
 70
     1
102
RTVSPropertyOp11
 70
     1
102
RTVSPropertyOp12
 70
     1
102
RTVSPropertyOp13
 70
     1
102
RTVSPropertyOp14
 70
     1
102
RTVSPropertyOp15
 70
     1
102
RTVSPropertyOp16
 70
     1
102
RTVSPropertyOp17
 70
     1
102
RTVSPropertyOp18
 70
     1
102
RTVSPropertyOp19
 70
     1
102
RTVSPropertyOp20
 70
     1
102
RTVSPropertyOp21
 70
     1
102
RTVSPropertyOp22
 70
     1
102
RTVSPropertyOp23
 70
     1
102
RTVSPropertyOp24
 70
     1
102
RTVSPropertyOp25
 70
     1
102
RTVSPropertyOp26
 70
     1
102
RTVSPropertyOp27
 70
     1
102
RTVSPropertyOp28
 70
     1
102
RTVSPropertyOp29
 70
     1
102
RTVSPropertyOp30
 70
     1
102
RTVSPropertyOp31
 70
     1
102
RTVSPropertyOp32
 70
     1
102
RTVSPropertyOp33
 70
     1
102
RTVSPropertyOp34
 70
     1
102
RTVSPropertyOp35
 70
     1
102
RTVSPropertyOp36
 70
     1
102
RTVSPropertyOp37
 70
     1
102
RTVSPropertyOp38
 70
     1
102
RTVSPropertyOp39
 70
     1
102
RTVSPropertyOp40
 70
     1
102
RTVSPropertyOp41
 70
     1
102
RTVSPropertyOp42
 70
     1
102
RTVSPropertyOp43
 70
     1
102
RTVSPropertyOp44
 70
     1
102
RTVSPropertyOp45
 70
     1
102
RTVSPropertyOp46
 70
     1
102
RTVSPropertyOp47
 70
     1
102
RTVSPropertyOp48
 70
     1
102
RTVSPropertyOp49
 70
     1
102
RTVSPropertyOp50
 70
     1
102
RTVSPropertyOp51
 70
     0
102
RTVSPropertyOp52
 70
     0
102
RTVSPropertyOp53
 70
     1
102
RTVSPropertyOp54
 70
     1
102
RTVSPropertyOp55
 70
     1
102
RTVSPropertyOp56
 70
     1
102
RTVSPropertyOp57
 70
     1
102
RTVSPropertyOp58
 70
     1
102
RTVSPropertyOp59
 70
     1
102
RTVSPropertyOp60
 70
     1
102
RTVSPropertyOp61
 70
     1
102
RTVSPropertyOp62
 70
     1
  0
XRECORD
  5
195F
102
{ACAD_REACTORS
330
195E
102
}
330
195E
100
AcDbXrecord
280
     1
102
RTVSPost2010Prop28
280
     0
102
RTVSPost2010PropOp28
 70
     1
102
RTVSPost2010Prop29
280
     1
102
RTVSPost2010PropOp29
 70
     1
102
RTVSPost2010Prop30
280
     1
102
RTVSPost2010PropOp30
 70
     1
102
RTVSPost2010Prop31
280
     0
102
RTVSPost2010PropOp31
 70
     1
102
RTVSPost2010Prop32
280
     0
102
RTVSPost2010PropOp32
 70
     1
102
RTVSPost2010Prop33
280
     0
102
RTVSPost2010PropOp33
 70
     1
102
RTVSPost2010Prop34
280
     0
102
RTVSPost2010PropOp34
 70
     1
102
RTVSPost2010Prop35
280
     0
102
RTVSPost2010PropOp35
 70
     1
102
RTVSPost2010Prop36
280
     0
102
RTVSPost2010PropOp36
 70
     1
102
RTVSPost2010Prop37
 90
       50
102
RTVSPost2010PropOp37
 70
     1
102
RTVSPost2010Prop38
140
0.0
102
RTVSPost2010PropOp38
 70
     1
102
RTVSPost2010Prop39
140
1.0
102
RTVSPost2010PropOp39
 70
     1
102
RTVSPost2010Prop40
 90
        0
102
RTVSPost2010PropOp40
 70
     1
102
RTVSPost2010Prop41ColorIndex
 90
       18
102
RTVSPost2010Prop41ColorRGB
 90
        0
102
RTVSPost2010PropOp41
 70
     1
102
RTVSPost2010Prop42
 90
       50
102
RTVSPost2010PropOp42
 70
     1
102
RTVSPost2010Prop43
 90
        3
102
RTVSPost2010PropOp43
 70
     1
102
RTVSPost2010Prop44ColorIndex
 90
        5
102
RTVSPost2010Prop44ColorRGB
 90
      255
102
RTVSPost2010PropOp44
 70
     1
102
RTVSPost2010Prop45
280
     0
102
RTVSPost2010PropOp45
 70
     1
102
RTVSPost2010Prop46
 90
       50
102
RTVSPost2010PropOp46
 70
     1
102
RTVSPost2010Prop47
 90
       50
102
RTVSPost2010PropOp47
 70
     1
102
RTVSPost2010Prop48
 90
       50
102
RTVSPost2010PropOp48
 70
     1
102
RTVSPost2010Prop49
280
     0
102
RTVSPost2010PropOp49
 70
     1
102
RTVSPost2010Prop50
 90
       50
102
RTVSPost2010PropOp50
 70
     1
102
RTVSPost2010Prop51ColorIndex
 90
      256
102
RTVSPost2010Prop51ColorRGB
 90
-16777216
102
RTVSPost2010PropOp51
 70
     0
102
RTVSPost2010Prop52
140
1.0
102
RTVSPost2010PropOp52
 70
     0
102
RTVSPost2010Prop53
 90
        2
102
RTVSPost2010PropOp53
 70
     1
102
RTVSPost2010Prop54
  1
strokes_ogs.tif
102
RTVSPost2010PropOp54
 70
     1
102
RTVSPost2010Prop55
280
     0
102
RTVSPost2010PropOp55
 70
     1
102
RTVSPost2010Prop56
140
1.0
102
RTVSPost2010PropOp56
 70
     1
102
RTVSPost2010Prop57
140
1.0
102
RTVSPost2010PropOp57
 70
     1
102
RTVSPropertyOp0
 70
     1
102
RTVSPropertyOp1
 70
     1
102
RTVSPropertyOp2
 70
     1
102
RTVSPropertyOp3
 70
     1
102
RTVSPropertyOp4
 70
     1
102
RTVSPropertyOp5
 70
     1
102
RTVSPropertyOp6
 70
     1
102
RTVSPropertyOp7
 70
     1
102
RTVSPropertyOp8
 70
     1
102
RTVSPropertyOp9
 70
     1
102
RTVSPropertyOp10
 70
     1
102
RTVSPropertyOp11
 70
     1
102
RTVSPropertyOp12
 70
     1
102
RTVSPropertyOp13
 70
     1
102
RTVSPropertyOp14
 70
     1
102
RTVSPropertyOp15
 70
     1
102
RTVSPropertyOp16
 70
     1
102
RTVSPropertyOp17
 70
     1
102
RTVSPropertyOp18
 70
     1
102
RTVSPropertyOp19
 70
     1
102
RTVSPropertyOp20
 70
     1
102
RTVSPropertyOp21
 70
     1
102
RTVSPropertyOp22
 70
     1
102
RTVSPropertyOp23
 70
     1
102
RTVSPropertyOp24
 70
     1
102
RTVSPropertyOp25
 70
     1
102
RTVSPropertyOp26
 70
     1
102
RTVSPropertyOp27
 70
     1
102
RTVSPropertyOp28
 70
     1
102
RTVSPropertyOp29
 70
     1
102
RTVSPropertyOp30
 70
     1
102
RTVSPropertyOp31
 70
     1
102
RTVSPropertyOp32
 70
     1
102
RTVSPropertyOp33
 70
     1
102
RTVSPropertyOp34
 70
     1
102
RTVSPropertyOp35
 70
     1
102
RTVSPropertyOp36
 70
     1
102
RTVSPropertyOp37
 70
     1
102
RTVSPropertyOp38
 70
     1
102
RTVSPropertyOp39
 70
     1
102
RTVSPropertyOp40
 70
     1
102
RTVSPropertyOp41
 70
     1
102
RTVSPropertyOp42
 70
     1
102
RTVSPropertyOp43
 70
     1
102
RTVSPropertyOp44
 70
     1
102
RTVSPropertyOp45
 70
     1
102
RTVSPropertyOp46
 70
     1
102
RTVSPropertyOp47
 70
     1
102
RTVSPropertyOp48
 70
     1
102
RTVSPropertyOp49
 70
     1
102
RTVSPropertyOp50
 70
     1
102
RTVSPropertyOp51
 70
     0
102
RTVSPropertyOp52
 70
     0
102
RTVSPropertyOp53
 70
     1
102
RTVSPropertyOp54
 70
     1
102
RTVSPropertyOp55
 70
     1
102
RTVSPropertyOp56
 70
     1
102
RTVSPropertyOp57
 70
     1
102
RTVSPropertyOp58
 70
     1
102
RTVSPropertyOp59
 70
     1
102
RTVSPropertyOp60
 70
     1
102
RTVSPropertyOp61
 70
     1
102
RTVSPropertyOp62
 70
     1
  0
XRECORD
  5
1961
102
{ACAD_REACTORS
330
1960
102
}
330
1960
100
AcDbXrecord
280
     1
102
RTVSPost2010Prop28
280
     0
102
RTVSPost2010PropOp28
 70
     1
102
RTVSPost2010Prop29
280
     1
102
RTVSPost2010PropOp29
 70
     1
102
RTVSPost2010Prop30
280
     1
102
RTVSPost2010PropOp30
 70
     1
102
RTVSPost2010Prop31
280
     0
102
RTVSPost2010PropOp31
 70
     1
102
RTVSPost2010Prop32
280
     0
102
RTVSPost2010PropOp32
 70
     1
102
RTVSPost2010Prop33
280
     0
102
RTVSPost2010PropOp33
 70
     1
102
RTVSPost2010Prop34
280
     0
102
RTVSPost2010PropOp34
 70
     1
102
RTVSPost2010Prop35
280
     0
102
RTVSPost2010PropOp35
 70
     1
102
RTVSPost2010Prop36
280
     0
102
RTVSPost2010PropOp36
 70
     1
102
RTVSPost2010Prop37
 90
       50
102
RTVSPost2010PropOp37
 70
     1
102
RTVSPost2010Prop38
140
0.0
102
RTVSPost2010PropOp38
 70
     1
102
RTVSPost2010Prop39
140
1.0
102
RTVSPost2010PropOp39
 70
     1
102
RTVSPost2010Prop40
 90
        0
102
RTVSPost2010PropOp40
 70
     1
102
RTVSPost2010Prop41ColorIndex
 90
       18
102
RTVSPost2010Prop41ColorRGB
 90
        0
102
RTVSPost2010PropOp41
 70
     1
102
RTVSPost2010Prop42
 90
       50
102
RTVSPost2010PropOp42
 70
     1
102
RTVSPost2010Prop43
 90
        3
102
RTVSPost2010PropOp43
 70
     1
102
RTVSPost2010Prop44ColorIndex
 90
        5
102
RTVSPost2010Prop44ColorRGB
 90
      255
102
RTVSPost2010PropOp44
 70
     1
102
RTVSPost2010Prop45
280
     0
102
RTVSPost2010PropOp45
 70
     1
102
RTVSPost2010Prop46
 90
       50
102
RTVSPost2010PropOp46
 70
     1
102
RTVSPost2010Prop47
 90
       50
102
RTVSPost2010PropOp47
 70
     1
102
RTVSPost2010Prop48
 90
       50
102
RTVSPost2010PropOp48
 70
     1
102
RTVSPost2010Prop49
280
     0
102
RTVSPost2010PropOp49
 70
     1
102
RTVSPost2010Prop50
 90
       50
102
RTVSPost2010PropOp50
 70
     1
102
RTVSPost2010Prop51ColorIndex
 90
      256
102
RTVSPost2010Prop51ColorRGB
 90
-16777216
102
RTVSPost2010PropOp51
 70
     0
102
RTVSPost2010Prop52
140
1.0
102
RTVSPost2010PropOp52
 70
     0
102
RTVSPost2010Prop53
 90
        2
102
RTVSPost2010PropOp53
 70
     1
102
RTVSPost2010Prop54
  1
strokes_ogs.tif
102
RTVSPost2010PropOp54
 70
     1
102
RTVSPost2010Prop55
280
     0
102
RTVSPost2010PropOp55
 70
     1
102
RTVSPost2010Prop56
140
1.0
102
RTVSPost2010PropOp56
 70
     1
102
RTVSPost2010Prop57
140
1.0
102
RTVSPost2010PropOp57
 70
     1
102
RTVSPropertyOp0
 70
     1
102
RTVSPropertyOp1
 70
     1
102
RTVSPropertyOp2
 70
     1
102
RTVSPropertyOp3
 70
     1
102
RTVSPropertyOp4
 70
     1
102
RTVSPropertyOp5
 70
     1
102
RTVSPropertyOp6
 70
     1
102
RTVSPropertyOp7
 70
     1
102
RTVSPropertyOp8
 70
     1
102
RTVSPropertyOp9
 70
     1
102
RTVSPropertyOp10
 70
     1
102
RTVSPropertyOp11
 70
     1
102
RTVSPropertyOp12
 70
     1
102
RTVSPropertyOp13
 70
     1
102
RTVSPropertyOp14
 70
     1
102
RTVSPropertyOp15
 70
     1
102
RTVSPropertyOp16
 70
     1
102
RTVSPropertyOp17
 70
     1
102
RTVSPropertyOp18
 70
     1
102
RTVSPropertyOp19
 70
     1
102
RTVSPropertyOp20
 70
     1
102
RTVSPropertyOp21
 70
     1
102
RTVSPropertyOp22
 70
     1
102
RTVSPropertyOp23
 70
     1
102
RTVSPropertyOp24
 70
     1
102
RTVSPropertyOp25
 70
     1
102
RTVSPropertyOp26
 70
     1
102
RTVSPropertyOp27
 70
     1
102
RTVSPropertyOp28
 70
     1
102
RTVSPropertyOp29
 70
     1
102
RTVSPropertyOp30
 70
     1
102
RTVSPropertyOp31
 70
     1
102
RTVSPropertyOp32
 70
     1
102
RTVSPropertyOp33
 70
     1
102
RTVSPropertyOp34
 70
     1
102
RTVSPropertyOp35
 70
     1
102
RTVSPropertyOp36
 70
     1
102
RTVSPropertyOp37
 70
     1
102
RTVSPropertyOp38
 70
     1
102
RTVSPropertyOp39
 70
     1
102
RTVSPropertyOp40
 70
     1
102
RTVSPropertyOp41
 70
     1
102
RTVSPropertyOp42
 70
     1
102
RTVSPropertyOp43
 70
     1
102
RTVSPropertyOp44
 70
     1
102
RTVSPropertyOp45
 70
     1
102
RTVSPropertyOp46
 70
     1
102
RTVSPropertyOp47
 70
     1
102
RTVSPropertyOp48
 70
     1
102
RTVSPropertyOp49
 70
     1
102
RTVSPropertyOp50
 70
     1
102
RTVSPropertyOp51
 70
     0
102
RTVSPropertyOp52
 70
     0
102
RTVSPropertyOp53
 70
     1
102
RTVSPropertyOp54
 70
     1
102
RTVSPropertyOp55
 70
     1
102
RTVSPropertyOp56
 70
     1
102
RTVSPropertyOp57
 70
     1
102
RTVSPropertyOp58
 70
     1
102
RTVSPropertyOp59
 70
     1
102
RTVSPropertyOp60
 70
     1
102
RTVSPropertyOp61
 70
     1
102
RTVSPropertyOp62
 70
     1
  0
XRECORD
  5
1952
102
{ACAD_REACTORS
330
1951
102
}
330
1951
100
AcDbXrecord
280
     1
102
RTVSPost2010Prop28
280
     0
102
RTVSPost2010PropOp28
 70
     1
102
RTVSPost2010Prop29
280
     1
102
RTVSPost2010PropOp29
 70
     1
102
RTVSPost2010Prop30
280
     1
102
RTVSPost2010PropOp30
 70
     1
102
RTVSPost2010Prop31
280
     0
102
RTVSPost2010PropOp31
 70
     1
102
RTVSPost2010Prop32
280
     0
102
RTVSPost2010PropOp32
 70
     1
102
RTVSPost2010Prop33
280
     0
102
RTVSPost2010PropOp33
 70
     1
102
RTVSPost2010Prop34
280
     0
102
RTVSPost2010PropOp34
 70
     1
102
RTVSPost2010Prop35
280
     0
102
RTVSPost2010PropOp35
 70
     1
102
RTVSPost2010Prop36
280
     0
102
RTVSPost2010PropOp36
 70
     1
102
RTVSPost2010Prop37
 90
       50
102
RTVSPost2010PropOp37
 70
     1
102
RTVSPost2010Prop38
140
0.0
102
RTVSPost2010PropOp38
 70
     1
102
RTVSPost2010Prop39
140
1.0
102
RTVSPost2010PropOp39
 70
     1
102
RTVSPost2010Prop40
 90
        0
102
RTVSPost2010PropOp40
 70
     1
102
RTVSPost2010Prop41ColorIndex
 90
       18
102
RTVSPost2010Prop41ColorRGB
 90
        0
102
RTVSPost2010PropOp41
 70
     1
102
RTVSPost2010Prop42
 90
       50
102
RTVSPost2010PropOp42
 70
     1
102
RTVSPost2010Prop43
 90
        3
102
RTVSPost2010PropOp43
 70
     1
102
RTVSPost2010Prop44ColorIndex
 90
        5
102
RTVSPost2010Prop44ColorRGB
 90
      255
102
RTVSPost2010PropOp44
 70
     1
102
RTVSPost2010Prop45
280
     0
102
RTVSPost2010PropOp45
 70
     1
102
RTVSPost2010Prop46
 90
       50
102
RTVSPost2010PropOp46
 70
     1
102
RTVSPost2010Prop47
 90
       50
102
RTVSPost2010PropOp47
 70
     1
102
RTVSPost2010Prop48
 90
       50
102
RTVSPost2010PropOp48
 70
     1
102
RTVSPost2010Prop49
280
     0
102
RTVSPost2010PropOp49
 70
     1
102
RTVSPost2010Prop50
 90
       50
102
RTVSPost2010PropOp50
 70
     1
102
RTVSPost2010Prop51ColorIndex
 90
      256
102
RTVSPost2010Prop51ColorRGB
 90
-16777216
102
RTVSPost2010PropOp51
 70
     0
102
RTVSPost2010Prop52
140
1.0
102
RTVSPost2010PropOp52
 70
     0
102
RTVSPost2010Prop53
 90
        2
102
RTVSPost2010PropOp53
 70
     1
102
RTVSPost2010Prop54
  1
strokes_ogs.tif
102
RTVSPost2010PropOp54
 70
     1
102
RTVSPost2010Prop55
280
     0
102
RTVSPost2010PropOp55
 70
     1
102
RTVSPost2010Prop56
140
1.0
102
RTVSPost2010PropOp56
 70
     1
102
RTVSPost2010Prop57
140
1.0
102
RTVSPost2010PropOp57
 70
     1
102
RTVSPropertyOp0
 70
     1
102
RTVSPropertyOp1
 70
     1
102
RTVSPropertyOp2
 70
     1
102
RTVSPropertyOp3
 70
     1
102
RTVSPropertyOp4
 70
     1
102
RTVSPropertyOp5
 70
     1
102
RTVSPropertyOp6
 70
     1
102
RTVSPropertyOp7
 70
     1
102
RTVSPropertyOp8
 70
     1
102
RTVSPropertyOp9
 70
     1
102
RTVSPropertyOp10
 70
     1
102
RTVSPropertyOp11
 70
     1
102
RTVSPropertyOp12
 70
     1
102
RTVSPropertyOp13
 70
     1
102
RTVSPropertyOp14
 70
     1
102
RTVSPropertyOp15
 70
     1
102
RTVSPropertyOp16
 70
     1
102
RTVSPropertyOp17
 70
     1
102
RTVSPropertyOp18
 70
     1
102
RTVSPropertyOp19
 70
     1
102
RTVSPropertyOp20
 70
     1
102
RTVSPropertyOp21
 70
     1
102
RTVSPropertyOp22
 70
     1
102
RTVSPropertyOp23
 70
     1
102
RTVSPropertyOp24
 70
     1
102
RTVSPropertyOp25
 70
     1
102
RTVSPropertyOp26
 70
     1
102
RTVSPropertyOp27
 70
     1
102
RTVSPropertyOp28
 70
     1
102
RTVSPropertyOp29
 70
     1
102
RTVSPropertyOp30
 70
     1
102
RTVSPropertyOp31
 70
     1
102
RTVSPropertyOp32
 70
     1
102
RTVSPropertyOp33
 70
     1
102
RTVSPropertyOp34
 70
     1
102
RTVSPropertyOp35
 70
     1
102
RTVSPropertyOp36
 70
     1
102
RTVSPropertyOp37
 70
     1
102
RTVSPropertyOp38
 70
     1
102
RTVSPropertyOp39
 70
     1
102
RTVSPropertyOp40
 70
     1
102
RTVSPropertyOp41
 70
     1
102
RTVSPropertyOp42
 70
     1
102
RTVSPropertyOp43
 70
     1
102
RTVSPropertyOp44
 70
     1
102
RTVSPropertyOp45
 70
     1
102
RTVSPropertyOp46
 70
     1
102
RTVSPropertyOp47
 70
     1
102
RTVSPropertyOp48
 70
     1
102
RTVSPropertyOp49
 70
     1
102
RTVSPropertyOp50
 70
     1
102
RTVSPropertyOp51
 70
     0
102
RTVSPropertyOp52
 70
     0
102
RTVSPropertyOp53
 70
     1
102
RTVSPropertyOp54
 70
     1
102
RTVSPropertyOp55
 70
     1
102
RTVSPropertyOp56
 70
     1
102
RTVSPropertyOp57
 70
     1
102
RTVSPropertyOp58
 70
     1
102
RTVSPropertyOp59
 70
     1
102
RTVSPropertyOp60
 70
     1
102
RTVSPropertyOp61
 70
     1
102
RTVSPropertyOp62
 70
     1
  0
XRECORD
  5
195B
102
{ACAD_REACTORS
330
195A
102
}
330
195A
100
AcDbXrecord
280
     1
102
RTVSPost2010Prop28
280
     0
102
RTVSPost2010PropOp28
 70
     1
102
RTVSPost2010Prop29
280
     1
102
RTVSPost2010PropOp29
 70
     1
102
RTVSPost2010Prop30
280
     1
102
RTVSPost2010PropOp30
 70
     1
102
RTVSPost2010Prop31
280
     0
102
RTVSPost2010PropOp31
 70
     1
102
RTVSPost2010Prop32
280
     0
102
RTVSPost2010PropOp32
 70
     1
102
RTVSPost2010Prop33
280
     0
102
RTVSPost2010PropOp33
 70
     1
102
RTVSPost2010Prop34
280
     0
102
RTVSPost2010PropOp34
 70
     1
102
RTVSPost2010Prop35
280
     0
102
RTVSPost2010PropOp35
 70
     1
102
RTVSPost2010Prop36
280
     0
102
RTVSPost2010PropOp36
 70
     1
102
RTVSPost2010Prop37
 90
       50
102
RTVSPost2010PropOp37
 70
     1
102
RTVSPost2010Prop38
140
0.0
102
RTVSPost2010PropOp38
 70
     1
102
RTVSPost2010Prop39
140
1.0
102
RTVSPost2010PropOp39
 70
     1
102
RTVSPost2010Prop40
 90
        0
102
RTVSPost2010PropOp40
 70
     1
102
RTVSPost2010Prop41ColorIndex
 90
       18
102
RTVSPost2010Prop41ColorRGB
 90
        0
102
RTVSPost2010PropOp41
 70
     1
102
RTVSPost2010Prop42
 90
       50
102
RTVSPost2010PropOp42
 70
     1
102
RTVSPost2010Prop43
 90
        3
102
RTVSPost2010PropOp43
 70
     1
102
RTVSPost2010Prop44ColorIndex
 90
        5
102
RTVSPost2010Prop44ColorRGB
 90
      255
102
RTVSPost2010PropOp44
 70
     1
102
RTVSPost2010Prop45
280
     0
102
RTVSPost2010PropOp45
 70
     1
102
RTVSPost2010Prop46
 90
       50
102
RTVSPost2010PropOp46
 70
     1
102
RTVSPost2010Prop47
 90
       50
102
RTVSPost2010PropOp47
 70
     1
102
RTVSPost2010Prop48
 90
       50
102
RTVSPost2010PropOp48
 70
     1
102
RTVSPost2010Prop49
280
     0
102
RTVSPost2010PropOp49
 70
     1
102
RTVSPost2010Prop50
 90
       50
102
RTVSPost2010PropOp50
 70
     1
102
RTVSPost2010Prop51ColorIndex
 90
      256
102
RTVSPost2010Prop51ColorRGB
 90
-16777216
102
RTVSPost2010PropOp51
 70
     0
102
RTVSPost2010Prop52
140
1.0
102
RTVSPost2010PropOp52
 70
     0
102
RTVSPost2010Prop53
 90
        2
102
RTVSPost2010PropOp53
 70
     1
102
RTVSPost2010Prop54
  1
strokes_ogs.tif
102
RTVSPost2010PropOp54
 70
     1
102
RTVSPost2010Prop55
280
     0
102
RTVSPost2010PropOp55
 70
     1
102
RTVSPost2010Prop56
140
1.0
102
RTVSPost2010PropOp56
 70
     1
102
RTVSPost2010Prop57
140
1.0
102
RTVSPost2010PropOp57
 70
     1
102
RTVSPropertyOp0
 70
     1
102
RTVSPropertyOp1
 70
     1
102
RTVSPropertyOp2
 70
     1
102
RTVSPropertyOp3
 70
     1
102
RTVSPropertyOp4
 70
     1
102
RTVSPropertyOp5
 70
     1
102
RTVSPropertyOp6
 70
     1
102
RTVSPropertyOp7
 70
     1
102
RTVSPropertyOp8
 70
     1
102
RTVSPropertyOp9
 70
     1
102
RTVSPropertyOp10
 70
     1
102
RTVSPropertyOp11
 70
     1
102
RTVSPropertyOp12
 70
     1
102
RTVSPropertyOp13
 70
     1
102
RTVSPropertyOp14
 70
     1
102
RTVSPropertyOp15
 70
     1
102
RTVSPropertyOp16
 70
     1
102
RTVSPropertyOp17
 70
     1
102
RTVSPropertyOp18
 70
     1
102
RTVSPropertyOp19
 70
     1
102
RTVSPropertyOp20
 70
     1
102
RTVSPropertyOp21
 70
     1
102
RTVSPropertyOp22
 70
     1
102
RTVSPropertyOp23
 70
     1
102
RTVSPropertyOp24
 70
     1
102
RTVSPropertyOp25
 70
     1
102
RTVSPropertyOp26
 70
     1
102
RTVSPropertyOp27
 70
     1
102
RTVSPropertyOp28
 70
     1
102
RTVSPropertyOp29
 70
     1
102
RTVSPropertyOp30
 70
     1
102
RTVSPropertyOp31
 70
     1
102
RTVSPropertyOp32
 70
     1
102
RTVSPropertyOp33
 70
     1
102
RTVSPropertyOp34
 70
     1
102
RTVSPropertyOp35
 70
     1
102
RTVSPropertyOp36
 70
     1
102
RTVSPropertyOp37
 70
     1
102
RTVSPropertyOp38
 70
     1
102
RTVSPropertyOp39
 70
     1
102
RTVSPropertyOp40
 70
     1
102
RTVSPropertyOp41
 70
     1
102
RTVSPropertyOp42
 70
     1
102
RTVSPropertyOp43
 70
     1
102
RTVSPropertyOp44
 70
     1
102
RTVSPropertyOp45
 70
     1
102
RTVSPropertyOp46
 70
     1
102
RTVSPropertyOp47
 70
     1
102
RTVSPropertyOp48
 70
     1
102
RTVSPropertyOp49
 70
     1
102
RTVSPropertyOp50
 70
     1
102
RTVSPropertyOp51
 70
     0
102
RTVSPropertyOp52
 70
     0
102
RTVSPropertyOp53
 70
     1
102
RTVSPropertyOp54
 70
     1
102
RTVSPropertyOp55
 70
     1
102
RTVSPropertyOp56
 70
     1
102
RTVSPropertyOp57
 70
     1
102
RTVSPropertyOp58
 70
     1
102
RTVSPropertyOp59
 70
     1
102
RTVSPropertyOp60
 70
     1
102
RTVSPropertyOp61
 70
     1
102
RTVSPropertyOp62
 70
     1
  0
XRECORD
  5
1963
102
{ACAD_REACTORS
330
1962
102
}
330
1962
100
AcDbXrecord
280
     1
102
RTVSPost2010Prop28
280
     0
102
RTVSPost2010PropOp28
 70
     1
102
RTVSPost2010Prop29
280
     1
102
RTVSPost2010PropOp29
 70
     1
102
RTVSPost2010Prop30
280
     1
102
RTVSPost2010PropOp30
 70
     1
102
RTVSPost2010Prop31
280
     0
102
RTVSPost2010PropOp31
 70
     1
102
RTVSPost2010Prop32
280
     0
102
RTVSPost2010PropOp32
 70
     1
102
RTVSPost2010Prop33
280
     0
102
RTVSPost2010PropOp33
 70
     1
102
RTVSPost2010Prop34
280
     0
102
RTVSPost2010PropOp34
 70
     1
102
RTVSPost2010Prop35
280
     0
102
RTVSPost2010PropOp35
 70
     1
102
RTVSPost2010Prop36
280
     0
102
RTVSPost2010PropOp36
 70
     1
102
RTVSPost2010Prop37
 90
       50
102
RTVSPost2010PropOp37
 70
     1
102
RTVSPost2010Prop38
140
0.0
102
RTVSPost2010PropOp38
 70
     1
102
RTVSPost2010Prop39
140
1.0
102
RTVSPost2010PropOp39
 70
     1
102
RTVSPost2010Prop40
 90
        0
102
RTVSPost2010PropOp40
 70
     1
102
RTVSPost2010Prop41ColorIndex
 90
       18
102
RTVSPost2010Prop41ColorRGB
 90
        0
102
RTVSPost2010PropOp41
 70
     1
102
RTVSPost2010Prop42
 90
       50
102
RTVSPost2010PropOp42
 70
     1
102
RTVSPost2010Prop43
 90
        3
102
RTVSPost2010PropOp43
 70
     1
102
RTVSPost2010Prop44ColorIndex
 90
        5
102
RTVSPost2010Prop44ColorRGB
 90
      255
102
RTVSPost2010PropOp44
 70
     1
102
RTVSPost2010Prop45
280
     0
102
RTVSPost2010PropOp45
 70
     1
102
RTVSPost2010Prop46
 90
       50
102
RTVSPost2010PropOp46
 70
     1
102
RTVSPost2010Prop47
 90
       50
102
RTVSPost2010PropOp47
 70
     1
102
RTVSPost2010Prop48
 90
       50
102
RTVSPost2010PropOp48
 70
     1
102
RTVSPost2010Prop49
280
     0
102
RTVSPost2010PropOp49
 70
     1
102
RTVSPost2010Prop50
 90
       50
102
RTVSPost2010PropOp50
 70
     1
102
RTVSPost2010Prop51ColorIndex
 90
      256
102
RTVSPost2010Prop51ColorRGB
 90
-16777216
102
RTVSPost2010PropOp51
 70
     0
102
RTVSPost2010Prop52
140
1.0
102
RTVSPost2010PropOp52
 70
     0
102
RTVSPost2010Prop53
 90
        2
102
RTVSPost2010PropOp53
 70
     1
102
RTVSPost2010Prop54
  1
strokes_ogs.tif
102
RTVSPost2010PropOp54
 70
     1
102
RTVSPost2010Prop55
280
     0
102
RTVSPost2010PropOp55
 70
     1
102
RTVSPost2010Prop56
140
1.0
102
RTVSPost2010PropOp56
 70
     1
102
RTVSPost2010Prop57
140
1.0
102
RTVSPost2010PropOp57
 70
     1
102
RTVSPropertyOp0
 70
     1
102
RTVSPropertyOp1
 70
     1
102
RTVSPropertyOp2
 70
     1
102
RTVSPropertyOp3
 70
     1
102
RTVSPropertyOp4
 70
     1
102
RTVSPropertyOp5
 70
     1
102
RTVSPropertyOp6
 70
     1
102
RTVSPropertyOp7
 70
     1
102
RTVSPropertyOp8
 70
     1
102
RTVSPropertyOp9
 70
     1
102
RTVSPropertyOp10
 70
     1
102
RTVSPropertyOp11
 70
     1
102
RTVSPropertyOp12
 70
     1
102
RTVSPropertyOp13
 70
     1
102
RTVSPropertyOp14
 70
     1
102
RTVSPropertyOp15
 70
     1
102
RTVSPropertyOp16
 70
     1
102
RTVSPropertyOp17
 70
     1
102
RTVSPropertyOp18
 70
     1
102
RTVSPropertyOp19
 70
     1
102
RTVSPropertyOp20
 70
     1
102
RTVSPropertyOp21
 70
     1
102
RTVSPropertyOp22
 70
     1
102
RTVSPropertyOp23
 70
     1
102
RTVSPropertyOp24
 70
     1
102
RTVSPropertyOp25
 70
     1
102
RTVSPropertyOp26
 70
     1
102
RTVSPropertyOp27
 70
     1
102
RTVSPropertyOp28
 70
     1
102
RTVSPropertyOp29
 70
     1
102
RTVSPropertyOp30
 70
     1
102
RTVSPropertyOp31
 70
     1
102
RTVSPropertyOp32
 70
     1
102
RTVSPropertyOp33
 70
     1
102
RTVSPropertyOp34
 70
     1
102
RTVSPropertyOp35
 70
     1
102
RTVSPropertyOp36
 70
     1
102
RTVSPropertyOp37
 70
     1
102
RTVSPropertyOp38
 70
     1
102
RTVSPropertyOp39
 70
     1
102
RTVSPropertyOp40
 70
     1
102
RTVSPropertyOp41
 70
     1
102
RTVSPropertyOp42
 70
     1
102
RTVSPropertyOp43
 70
     1
102
RTVSPropertyOp44
 70
     1
102
RTVSPropertyOp45
 70
     1
102
RTVSPropertyOp46
 70
     1
102
RTVSPropertyOp47
 70
     1
102
RTVSPropertyOp48
 70
     1
102
RTVSPropertyOp49
 70
     1
102
RTVSPropertyOp50
 70
     1
102
RTVSPropertyOp51
 70
     0
102
RTVSPropertyOp52
 70
     0
102
RTVSPropertyOp53
 70
     1
102
RTVSPropertyOp54
 70
     1
102
RTVSPropertyOp55
 70
     1
102
RTVSPropertyOp56
 70
     1
102
RTVSPropertyOp57
 70
     1
102
RTVSPropertyOp58
 70
     1
102
RTVSPropertyOp59
 70
     1
102
RTVSPropertyOp60
 70
     1
102
RTVSPropertyOp61
 70
     1
102
RTVSPropertyOp62
 70
     1
  0
ENDSEC
  0
EOF
