  0
SECTION
  2
HEADER
  9
$CLAYER
  8
1
  9
$LTSCALE
 40
3.0
  0
ENDSEC
  0
SECTION
  2
TABLES
  0
TABLE
  2
LTYPE
 70
     4
  0
LTYPE
  2
CONTINUOUS
  3
solid line
 70
    64
 72
    65
 73
     0
 40
0.0
  0
LTYPE
  2
DASHED
  3
__ __ __ __ __ __ __ __ __ __ __ __ __ __ __
 70
    64
 72
    65
 73
     2
 40
0.75
 49
0.5
 49
-0.25
  0
LTYPE
  2
CENTER
  3
____ _ ____ _ ____ _ ____ _ ____ _ ____ _ ____
 70
    64
 72
    65
 73
     4
 40
2.0
 49
1.25
 49
-0.25
 49
0.25
 49
-0.25
  0
LTYPE
  2
PHANTOM
  3
_____ _ _ _____ _ _ _____ _ _ _____ _ _ ____
 70
    64
 72
    65
 73
     6
 40
2.5
 49
1.25
 49
-0.25
 49
0.25
 49
-0.25
 49
0.25
 49
-0.25
  0
ENDTAB
  0
TABLE
  2
LAYER
 70
     1
  0
LAYER
  2
0
 70
    64
 62
     7
  6
CONTINUOUS
  0
ENDTAB
  0
TABLE
  2
STYLE
 70
     1
  0
STYLE
  2
STANDARD
 70
     0
 40
0.000000
 41
1.000000
 50
0.000000
 71
     0
 42
3.000000
  3
txt
  4
BIGFONT
  0
ENDTAB
  0
ENDSEC
  0
SECTION
  2
BLOCKS
  0
ENDSEC
  0
SECTION
  2
ENTITIES
  0
LINE
  8
0
  6
CENTER
 10
277.869781
 20
166.955017
 11
277.869781
 21
-0.782500
  0
LINE
  8
0
  6
CENTER
 10
326.781586
 20
101.873756
 11
212.800980
 21
101.873756
  0
LINE
  8
0
  6
CONTINUOUS
 10
327.869781
 20
105.373756
 11
327.869781
 21
61.513073
  0
LINE
  8
0
  6
CONTINUOUS
 10
227.869781
 20
106.234444
 11
227.869781
 21
61.513096
  0
ARC
  8
0
  6
CONTINUOUS
 10
277.869781
 20
83.873772
 40
60.000000
 50
48.189610
 51
131.810394
  0
ARC
  8
0
  6
CONTINUOUS
 10
277.869781
 20
83.873772
 40
60.000000
 50
-131.810303
 51
-48.189701
  0
ARC
  8
0
  6
CONTINUOUS
 10
257.869781
 20
106.234444
 40
30.000000
 50
131.810394
 51
180.000000
  0
CIRCLE
  8
0
  6
CONTINUOUS
 10
277.869781
 20
101.873756
 40
27.500000
  0
ARC
  8
0
  6
CONTINUOUS
 10
277.869781
 20
101.873756
 40
31.750000
 50
7.552597
 51
172.447296
  0
ARC
  8
0
  6
CONTINUOUS
 10
294.619781
 20
60.373764
 40
20.600000
 50
-90.000000
 51
7.552597
  0
ARC
  8
0
  6
CONTINUOUS
 10
261.119781
 20
60.373764
 40
20.600000
 50
172.447296
 51
270.000000
  0
LINE
  8
0
  6
CONTINUOUS
 10
246.395172
 20
106.046921
 11
240.698380
 21
63.081390
  0
LINE
  8
0
  6
CONTINUOUS
 10
315.040985
 20
63.081352
 11
309.344177
 21
106.046860
  0
LINE
  8
0
  6
CONTINUOUS
 10
294.619781
 20
39.773762
 11
261.119781
 21
39.773762
  0
ARC
  8
0
  6
CONTINUOUS
 10
294.619781
 20
60.373764
 40
19.000000
 50
-90.000000
 51
7.552399
  0
ARC
  8
0
  6
CONTINUOUS
 10
261.119781
 20
60.373764
 40
19.000000
 50
172.447296
 51
270.000000
  0
ARC
  8
0
  6
CONTINUOUS
 10
277.869781
 20
101.873756
 40
30.150000
 50
-187.552704
 51
7.552612
  0
LINE
  8
0
  6
CONTINUOUS
 10
313.454773
 20
62.871056
 11
307.758179
 21
105.836578
  0
LINE
  8
0
  6
CONTINUOUS
 10
247.981171
 20
105.836617
 11
242.284576
 21
62.871090
  0
LINE
  8
0
  6
CONTINUOUS
 10
294.619781
 20
41.373760
 11
261.119781
 21
41.373760
  0
ARC
  8
0
  6
CONTINUOUS
 10
297.869781
 20
106.234459
 40
30.000000
 50
-1.671204
 51
48.189610
  0
ARC
  8
0
  6
CONTINUOUS
 10
297.869781
 20
61.513073
 40
30.000000
 50
-48.189701
 51
0.000000
  0
LINE
  8
0
  6
CONTINUOUS
 10
342.619781
 20
128.623764
 11
325.070587
 21
128.623764
  0
LINE
  8
0
  6
CONTINUOUS
 10
337.055176
 20
14.123760
 11
342.619781
 21
14.123760
  0
LINE
  8
0
  6
CONTINUOUS
 10
332.369781
 20
118.873756
 11
342.619781
 21
118.873756
  0
LINE
  8
0
  6
CONTINUOUS
 10
337.630585
 20
23.846319
 11
342.619781
 21
23.873760
  0
LINE
  8
0
  6
CONTINUOUS
 10
336.072784
 20
103.333763
 11
342.619781
 21
103.333763
  0
LINE
  8
0
  6
CONTINUOUS
 10
336.072784
 20
39.413761
 11
342.619781
 21
39.413761
  0
LINE
  8
0
  6
CENTER
 10
331.516571
 20
143.873764
 11
314.219788
 21
143.873764
  0
LINE
  8
0
  6
CENTER
 10
241.432175
 20
143.873764
 11
216.850967
 21
143.873764
  0
LINE
  8
0
  6
CENTER
 10
332.662567
 20
23.873760
 11
314.050964
 21
23.873760
  0
LINE
  8
0
  6
CENTER
 10
241.994781
 20
23.873760
 11
217.188370
 21
23.873760
  0
LINE
  8
0
  6
CENTER
 10
232.869781
 20
153.033142
 11
232.869781
 21
134.892502
  0
LINE
  8
0
  6
CENTER
 10
322.869781
 20
152.780014
 11
322.869781
 21
135.314377
  0
LINE
  8
0
  6
CENTER
 10
322.869781
 20
33.051880
 11
322.869781
 21
6.642520
  0
LINE
  8
0
  6
CENTER
 10
232.869781
 20
33.220638
 11
232.869781
 21
7.317500
  0
CIRCLE
  8
0
  6
CONTINUOUS
 10
232.869781
 20
143.873764
 40
5.500000
  0
CIRCLE
  8
0
  6
CONTINUOUS
 10
322.869781
 20
143.873764
 40
5.500000
  0
CIRCLE
  8
0
  6
CONTINUOUS
 10
322.869781
 20
23.873760
 40
5.500000
  0
CIRCLE
  8
0
  6
CONTINUOUS
 10
232.869781
 20
23.873760
 40
5.500000
  0
ARC
  8
0
  6
CONTINUOUS
 10
232.869781
 20
143.873764
 40
12.000000
 50
90.000000
 51
180.000000
  0
ARC
  8
0
  6
CONTINUOUS
 10
322.869781
 20
143.873764
 40
12.000000
 50
0.000000
 51
90.000000
  0
ARC
  8
0
  6
CONTINUOUS
 10
322.869781
 20
23.873760
 40
12.000000
 50
270.000000
 51
358.060608
  0
ARC
  8
0
  6
CONTINUOUS
 10
232.869781
 20
23.873760
 40
12.000000
 50
180.000000
 51
270.000000
  0
LINE
  8
0
  6
CONTINUOUS
 10
232.869781
 20
155.873764
 11
322.869781
 21
155.873764
  0
LINE
  8
0
  6
CONTINUOUS
 10
322.869568
 20
11.873760
 11
232.869781
 21
11.873760
  0
LINE
  8
0
  6
CONTINUOUS
 10
220.869781
 20
143.873764
 11
220.869781
 21
23.873760
  0
LINE
  8
0
  6
CONTINUOUS
 10
335.527771
 20
23.002159
 11
336.057373
 21
15.057240
  0
ARC
  8
0
  6
CONTINUOUS
 10
337.055176
 20
15.123760
 40
1.000000
 50
-176.185806
 51
-90.000000
  0
LINE
  8
0
  6
CONTINUOUS
 10
267.573364
 20
48.873779
 11
263.412964
 21
48.873779
  0
LINE
  8
0
  6
CONTINUOUS
 10
269.869781
 20
55.842522
 11
269.869781
 21
48.873779
  0
LINE
  8
0
  6
CONTINUOUS
 10
273.869781
 20
58.373772
 11
273.869781
 21
60.873772
  0
LINE
  8
0
  6
CONTINUOUS
 10
281.869781
 20
58.373772
 11
281.869781
 21
60.873772
  0
LINE
  8
0
  6
CONTINUOUS
 10
277.088379
 20
59.405022
 11
277.088379
 21
50.186279
  0
LINE
  8
0
  6
CONTINUOUS
 10
278.588379
 20
59.405022
 11
278.588379
 21
50.186279
  0
LINE
  8
0
  6
CONTINUOUS
 10
286.463379
 20
59.405022
 11
286.463379
 21
50.123779
  0
LINE
  8
0
  6
CONTINUOUS
 10
287.838379
 20
54.483147
 11
287.838379
 21
50.123779
  0
LINE
  8
0
  6
CONTINUOUS
 10
267.971588
 20
59.280022
 11
264.116577
 21
59.280022
  0
LINE
  8
0
  6
CONTINUOUS
 10
264.116577
 20
59.280022
 11
263.213379
 21
58.160027
  0
LINE
  8
0
  6
CONTINUOUS
 10
263.321960
 20
60.873772
 11
261.869781
 21
59.014023
  0
LINE
  8
0
  6
CONTINUOUS
 10
263.213379
 20
51.246681
 11
264.131165
 21
50.280022
  0
LINE
  8
0
  6
CONTINUOUS
 10
261.869781
 20
50.430939
 11
263.412964
 21
48.873779
  0
LINE
  8
0
  6
CONTINUOUS
 10
261.869781
 20
59.014023
 11
261.869781
 21
50.430939
  0
LINE
  8
0
  6
CONTINUOUS
 10
263.213379
 20
58.160027
 11
263.213379
 21
51.246681
  0
LINE
  8
0
  6
CONTINUOUS
 10
268.713379
 20
58.562920
 11
267.956360
 21
59.280022
  0
LINE
  8
0
  6
CONTINUOUS
 10
268.701385
 20
60.873772
 11
269.869781
 21
59.577278
  0
LINE
  8
0
  6
CONTINUOUS
 10
268.713379
 20
58.373772
 11
269.869781
 21
58.373772
  0
LINE
  8
0
  6
CONTINUOUS
 10
263.321960
 20
60.873772
 11
268.701385
 21
60.873772
  0
LINE
  8
0
  6
CONTINUOUS
 10
266.619781
 20
55.842522
 11
269.869781
 21
55.842522
  0
LINE
  8
0
  6
CONTINUOUS
 10
268.713379
 20
54.530022
 11
266.619781
 21
54.530022
  0
LINE
  8
0
  6
CONTINUOUS
 10
266.213379
 20
50.280022
 11
264.131165
 21
50.280022
  0
LINE
  8
0
  6
CONTINUOUS
 10
268.713379
 20
53.280022
 11
268.713379
 21
54.280022
  0
ARC
  8
0
  6
CONTINUOUS
 10
266.213379
 20
52.780022
 40
2.500000
 50
-89.999786
 51
0.000109
  0
LINE
  8
0
  6
CONTINUOUS
 10
268.713379
 20
49.830318
 11
268.713379
 21
48.873779
  0
LINE
  8
0
  6
CONTINUOUS
 10
269.869781
 20
59.577278
 11
269.869781
 21
58.373772
  0
LINE
  8
0
  6
CONTINUOUS
 10
268.713379
 20
54.530022
 11
268.713379
 21
52.780022
  0
LINE
  8
0
  6
CONTINUOUS
 10
266.619781
 20
55.842522
 11
266.619781
 21
54.530022
  0
LINE
  8
0
  6
CONTINUOUS
 10
268.713379
 20
48.873779
 11
269.869781
 21
48.873779
  0
LINE
  8
0
  6
CONTINUOUS
 10
268.713379
 20
49.830318
 11
267.573364
 21
48.873779
  0
LINE
  8
0
  6
CONTINUOUS
 10
278.588379
 20
50.186279
 11
279.088379
 21
50.186279
  0
LINE
  8
0
  6
CONTINUOUS
 10
276.494781
 20
50.186279
 11
276.494781
 21
48.873779
  0
LINE
  8
0
  6
CONTINUOUS
 10
279.088379
 20
50.186279
 11
279.088379
 21
48.873779
  0
LINE
  8
0
  6
CONTINUOUS
 10
281.035187
 20
58.373772
 11
281.869781
 21
58.373772
  0
LINE
  8
0
  6
CONTINUOUS
 10
273.869781
 20
58.373772
 11
274.757782
 21
58.373772
  0
LINE
  8
0
  6
CONTINUOUS
 10
273.869781
 20
60.873772
 11
281.869781
 21
60.873772
  0
LINE
  8
0
  6
CONTINUOUS
 10
276.494781
 20
48.873779
 11
279.088379
 21
48.873779
  0
LINE
  8
0
  6
CONTINUOUS
 10
276.494781
 20
50.186279
 11
277.088379
 21
50.186279
  0
ARC
  8
0
  6
CONTINUOUS
 10
290.666565
 20
57.670647
 40
3.203126
 50
-73.981873
 51
90.003510
  0
ARC
  8
0
  6
CONTINUOUS
 10
290.666565
 20
57.670647
 40
1.954124
 50
-82.585274
 51
62.411850
  0
LINE
  8
0
  6
CONTINUOUS
 10
285.869781
 20
60.873772
 11
290.666565
 21
60.873772
  0
LINE
  8
0
  6
CONTINUOUS
 10
290.918762
 20
55.732864
 11
287.838379
 21
55.732864
  0
LINE
  8
0
  6
CONTINUOUS
 10
285.869781
 20
60.873772
 11
285.869781
 21
59.405022
  0
LINE
  8
0
  6
CONTINUOUS
 10
287.838379
 20
59.405022
 11
287.838379
 21
55.732864
  0
LINE
  8
0
  6
CONTINUOUS
 10
291.550385
 20
54.591881
 11
293.532990
 21
50.123779
  0
LINE
  8
0
  6
CONTINUOUS
 10
290.398987
 20
54.483147
 11
292.275177
 21
50.123779
  0
LINE
  8
0
  6
CONTINUOUS
 10
285.869781
 20
50.123779
 11
286.463379
 21
50.123779
  0
LINE
  8
0
  6
CONTINUOUS
 10
287.838379
 20
50.123779
 11
288.385376
 21
50.123779
  0
LINE
  8
0
  6
CONTINUOUS
 10
288.385376
 20
48.873779
 11
285.869781
 21
48.873779
  0
LINE
  8
0
  6
CONTINUOUS
 10
292.025970
 20
50.123779
 11
292.275177
 21
50.123779
  0
LINE
  8
0
  6
CONTINUOUS
 10
292.025970
 20
48.873779
 11
293.869781
 21
48.873779
  0
LINE
  8
0
  6
CONTINUOUS
 10
292.025970
 20
50.123779
 11
292.025970
 21
48.873779
  0
LINE
  8
0
  6
CONTINUOUS
 10
288.385376
 20
50.123779
 11
288.385376
 21
48.873779
  0
LINE
  8
0
  6
CONTINUOUS
 10
285.869781
 20
50.123779
 11
285.869781
 21
48.873779
  0
LINE
  8
0
  6
CONTINUOUS
 10
275.187378
 20
59.405022
 11
274.757782
 21
58.373772
  0
LINE
  8
0
  6
CONTINUOUS
 10
280.672974
 20
59.405022
 11
281.035187
 21
58.373772
  0
LINE
  8
0
  6
CONTINUOUS
 10
278.588379
 20
59.405022
 11
280.672974
 21
59.405022
  0
LINE
  8
0
  6
CONTINUOUS
 10
277.088379
 20
59.405022
 11
275.187378
 21
59.405022
  0
LINE
  8
0
  6
CONTINUOUS
 10
287.838379
 20
54.483147
 11
290.398987
 21
54.483147
  0
LINE
  8
0
  6
CONTINUOUS
 10
285.869781
 20
59.405022
 11
286.463379
 21
59.405022
  0
LINE
  8
0
  6
CONTINUOUS
 10
287.838379
 20
59.405022
 11
291.571564
 21
59.402596
  0
LINE
  8
0
  6
CONTINUOUS
 10
268.713379
 20
58.562920
 11
268.713379
 21
58.373772
  0
LINE
  8
0
  6
CONTINUOUS
 10
296.307770
 20
146.373764
 11
259.431580
 21
146.373764
  0
LINE
  8
0
  6
CONTINUOUS
 10
296.307770
 20
21.373760
 11
259.431580
 21
21.373760
  0
LINE
  8
0
  6
CONTINUOUS
 10
225.369781
 20
46.493519
 11
225.369781
 21
121.253998
  0
LINE
  8
0
  6
CONTINUOUS
 10
330.369781
 20
120.873756
 11
330.369781
 21
121.253998
  0
LINE
  8
0
  6
CONTINUOUS
 10
322.542786
 20
37.373760
 11
330.619781
 21
37.373760
  0
LINE
  8
0
  6
CONTINUOUS
 10
334.869781
 20
143.873718
 11
334.869781
 21
128.623764
  0
LINE
  8
0
  6
CONTINUOUS
 10
257.869781
 20
155.128723
 11
257.869781
 21
146.932037
  0
LINE
  8
0
  6
CONTINUOUS
 10
297.869781
 20
155.128723
 11
297.869781
 21
146.932037
  0
LINE
  8
0
  6
CONTINUOUS
 10
257.869781
 20
20.033319
 11
257.869781
 21
13.212740
  0
LINE
  8
0
  6
CONTINUOUS
 10
297.869781
 20
20.033319
 11
297.869781
 21
13.212740
  0
LINE
  8
0
  6
CONTINUOUS
 10
227.523575
 20
125.364960
 11
256.585571
 21
145.484726
  0
LINE
  8
0
  6
CONTINUOUS
 10
328.215790
 20
125.364960
 11
299.153778
 21
145.484726
  0
LINE
  8
0
  6
CONTINUOUS
 10
256.585571
 20
22.262800
 11
227.523575
 21
42.382561
  0
LINE
  8
0
  6
CONTINUOUS
 10
319.696564
 20
36.484718
 11
299.153778
 21
22.262800
  0
ARC
  8
0
  6
CONTINUOUS
 10
259.431580
 20
141.373764
 40
5.000000
 50
90.000000
 51
124.695396
  0
ARC
  8
0
  6
CONTINUOUS
 10
296.307770
 20
141.373764
 40
5.000000
 50
55.305019
 51
90.000000
  0
ARC
  8
0
  6
CONTINUOUS
 10
230.369781
 20
121.254021
 40
5.000000
 50
124.695503
 51
180.000000
  0
ARC
  8
0
  6
CONTINUOUS
 10
230.369568
 20
46.493561
 40
5.000000
 50
180.000000
 51
235.305206
  0
ARC
  8
0
  6
CONTINUOUS
 10
259.431580
 20
26.373760
 40
5.000000
 50
235.304794
 51
270.000000
  0
ARC
  8
0
  6
CONTINUOUS
 10
296.307770
 20
26.373760
 40
5.000000
 50
270.000000
 51
304.695190
  0
ARC
  8
0
  6
CONTINUOUS
 10
322.542786
 20
32.373760
 40
5.000000
 50
90.000000
 51
124.695396
  0
ARC
  8
0
  6
CONTINUOUS
 10
325.369781
 20
121.253983
 40
5.000000
 50
0.000000
 51
55.304981
  0
ARC
  8
0
  6
CONTINUOUS
 10
325.070374
 20
133.623764
 40
5.000000
 50
235.304794
 51
270.000000
  0
ARC
  8
0
  6
CONTINUOUS
 10
332.369781
 20
120.873756
 40
2.000000
 50
180.000000
 51
270.000000
  0
LINE
  8
0
  6
CONTINUOUS
 10
335.619781
 20
21.623659
 11
335.619781
 21
116.873756
  0
ARC
  8
0
  6
CONTINUOUS
 10
337.619781
 20
116.873779
 40
2.000000
 50
90.000000
 51
180.000000
  0
ARC
  8
0
  6
CONTINUOUS
 10
337.619781
 20
25.846300
 40
2.000000
 50
180.000000
 51
270.315186
  0
LINE
  8
0
  6
CONTINUOUS
 10
335.028961
 20
23.468901
 11
334.826172
 21
23.468901
  0
ARC
  8
0
  6
CONTINUOUS
 10
335.028961
 20
22.968901
 40
0.500000
 50
3.814180
 51
90.000000
  0
ARC
  8
0
  6
CONTINUOUS
 10
330.619781
 20
32.373741
 40
5.000000
 50
0.000000
 51
90.000000
  0
ARC
  8
0
  6
CONTINUOUS
 10
257.869781
 20
61.513088
 40
30.000000
 50
180.000000
 51
228.189606
  0
LINE
  8
0
  6
CONTINUOUS
 10
270.369781
 20
104.873756
 11
270.369781
 21
98.873756
  0
LINE
  8
0
  6
CONTINUOUS
 10
264.369781
 20
104.873756
 11
264.369781
 21
98.873756
  0
LINE
  8
0
  6
CONTINUOUS
 10
264.369781
 20
104.873756
 11
270.369781
 21
104.873756
  0
LINE
  8
0
  6
CONTINUOUS
 10
264.369781
 20
98.873756
 11
270.369781
 21
98.873756
  0
ARC
  8
0
  6
CONTINUOUS
 10
277.869781
 20
101.873756
 40
11.000000
 50
-164.173401
 51
164.173401
  0
LINE
  8
0
  6
CONTINUOUS
 10
342.619781
 20
128.873871
 11
342.619781
 21
13.873873
  0
LINE
  8
0
  6
CONTINUOUS
 10
293.532990
 20
50.123779
 11
293.869781
 21
50.123779
  0
LINE
  8
0
  6
CONTINUOUS
 10
293.869781
 20
50.123779
 11
293.869781
 21
48.873779
  0
LINE
  8
0
  6
CENTER
 10
216.134171
 20
313.048767
 11
544.788635
 21
313.048767
  0
LINE
  8
0
  6
CONTINUOUS
 10
340.119781
 20
370.298767
 11
342.619781
 21
370.298767
  0
LINE
  8
0
  6
CONTINUOUS
 10
338.102386
 20
255.798767
 11
342.619781
 21
255.798767
  0
LINE
  8
0
  6
CONTINUOUS
 10
335.369781
 20
370.298767
 11
342.619781
 21
370.298767
  0
LINE
  8
0
  6
CONTINUOUS
 10
333.915558
 20
345.048767
 11
342.619781
 21
345.048767
  0
LINE
  8
0
  6
CONTINUOUS
 10
335.353180
 20
360.548767
 11
342.619781
 21
360.548767
  0
LINE
  8
0
  6
CONTINUOUS
 10
337.259369
 20
265.548767
 11
342.619781
 21
265.548767
  0
LINE
  8
0
  6
CONTINUOUS
 10
342.619781
 20
281.048767
 11
225.830978
 21
281.048767
  0
LINE
  8
0
  6
CONTINUOUS
 10
337.102570
 20
256.781250
 11
336.764709
 21
276.136047
  0
ARC
  8
0
  6
CONTINUOUS
 10
338.102478
 20
256.798767
 40
1.000000
 50
181.000702
 51
270.000000
  0
ARC
  8
0
  6
CONTINUOUS
 10
331.765381
 20
276.048767
 40
5.000000
 50
1.000200
 51
90.000000
  0
LINE
  8
0
  6
CONTINUOUS
 10
342.619781
 20
255.548767
 11
342.619781
 21
370.548767
  0
LINE
  8
0
  6
CONTINUOUS
 10
220.869781
 20
371.048767
 11
334.869781
 21
371.048767
  0
LINE
  8
0
  6
CONTINUOUS
 10
297.869781
 20
281.048767
 11
297.869781
 21
358.246460
  0
LINE
  8
0
  6
CONTINUOUS
 10
257.869781
 20
281.048767
 11
257.869781
 21
358.246460
  0
LINE
  8
0
  6
CONTINUOUS
 10
224.331482
 20
282.509460
 11
222.347778
 21
358.246460
  0
ARC
  8
0
  6
CONTINUOUS
 10
225.831070
 20
282.548767
 40
1.500000
 50
181.500198
 51
270.000000
  0
LINE
  8
0
  6
CONTINUOUS
 10
333.869781
 20
359.048767
 11
222.158279
 21
359.048767
  0
LINE
  8
0
  6
CONTINUOUS
 10
334.869781
 20
360.048767
 11
334.869781
 21
371.048767
  0
LINE
  8
0
  6
CONTINUOUS
 10
220.869781
 20
371.048767
 11
221.158569
 21
360.022552
  0
ARC
  8
0
  6
CONTINUOUS
 10
222.158279
 20
360.048767
 40
1.000000
 50
181.500107
 51
270.000000
  0
ARC
  8
0
  6
CONTINUOUS
 10
221.348373
 20
358.220245
 40
1.000000
 50
1.500400
 51
66.108803
  0
ARC
  8
0
  6
CONTINUOUS
 10
335.369781
 20
370.798767
 40
0.500000
 50
180.000000
 51
270.000000
  0
LINE
  8
0
  6
CENTER
 10
419.378754
 20
71.373756
 11
310.675995
 21
71.373756
  0
LINE
  8
0
  6
CONTINUOUS
 10
342.619781
 20
128.873764
 11
342.619781
 21
13.873760
  0
LINE
  8
0
  6
CENTER
 10
61.877201
 20
-2.957500
 11
61.877201
 21
165.071716
  0
LINE
  8
0
  6
CENTER
 10
-6.547255
 20
71.373756
 11
128.136993
 21
71.373756
  0
LINE
  8
0
  6
CENTER
 10
-6.547255
 20
101.873756
 11
160.720001
 21
101.873756
  0
LINE
  8
0
  6
CONTINUOUS
 10
3.877400
 20
101.873756
 11
3.877400
 21
11.873740
  0
LINE
  8
0
  6
CONTINUOUS
 10
15.877400
 20
101.873756
 11
15.877400
 21
153.873764
  0
LINE
  8
0
  6
CONTINUOUS
 10
13.959200
 20
155.873764
 11
3.877400
 21
155.873764
  0
LINE
  8
0
  6
CONTINUOUS
 10
13.959200
 20
11.873780
 11
3.877400
 21
11.873780
  0
LINE
  8
0
  6
CONTINUOUS
 10
93.877197
 20
22.356440
 11
93.877197
 21
145.391083
  0
LINE
  8
0
  6
CONTINUOUS
 10
92.894997
 20
146.390945
 11
17.842600
 21
147.700638
  0
LINE
  8
0
  6
CONTINUOUS
 10
92.894997
 20
21.356621
 11
17.842600
 21
20.046301
  0
LINE
  8
0
  6
CONTINUOUS
 10
17.786400
 20
123.873741
 11
92.809998
 21
123.873741
  0
LINE
  8
0
  6
CONTINUOUS
 10
17.786400
 20
43.873760
 11
92.487000
 21
43.873760
  0
LINE
  8
0
  6
CONTINUOUS
 10
16.374001
 20
13.726740
 11
17.483200
 21
17.866579
  0
LINE
  8
0
  6
CONTINUOUS
 10
16.374001
 20
154.020844
 11
17.483400
 21
149.880325
  0
ARC
  8
0
  6
CONTINUOUS
 10
20.381201
 20
150.656845
 40
3.000000
 50
195.000702
 51
269.000488
  0
ARC
  8
0
  6
CONTINUOUS
 10
13.877400
 20
153.873764
 40
2.000000
 50
0.000000
 51
90.000000
  0
ARC
  8
0
  6
CONTINUOUS
 10
17.877399
 20
149.700363
 40
2.000000
 50
180.000000
 51
269.000610
  0
ARC
  8
0
  6
CONTINUOUS
 10
20.381001
 20
17.090139
 40
3.000000
 50
91.000526
 51
165.000305
  0
ARC
  8
0
  6
CONTINUOUS
 10
17.877399
 20
18.046619
 40
2.000000
 50
91.000633
 51
180.000000
  0
ARC
  8
0
  6
CONTINUOUS
 10
13.877400
 20
13.873780
 40
2.000000
 50
-90.000000
 51
0.000000
  0
ARC
  8
0
  6
CONTINUOUS
 10
92.877197
 20
145.391083
 40
1.000000
 50
0.000000
 51
89.000359
  0
ARC
  8
0
  6
CONTINUOUS
 10
92.877197
 20
22.356440
 40
1.000000
 50
-88.999573
 51
0.000000
  0
LINE
  8
0
  6
CENTER
 10
-1.616400
 20
143.873764
 11
21.020201
 21
143.873764
  0
LINE
  8
0
  6
CENTER
 10
-1.616400
 20
23.873739
 11
21.020201
 21
23.873739
  0
LINE
  8
0
  6
DASHED
 10
3.877400
 20
149.373764
 11
15.877400
 21
149.373764
  0
LINE
  8
0
  6
DASHED
 10
3.877400
 20
138.373764
 11
15.877400
 21
138.373764
  0
LINE
  8
0
  6
DASHED
 10
3.877400
 20
29.373739
 11
15.877400
 21
29.373739
  0
LINE
  8
0
  6
DASHED
 10
3.877400
 20
18.373739
 11
15.877400
 21
18.373739
  0
LINE
  8
0
  6
CONTINUOUS
 10
109.877197
 20
76.680908
 11
109.877197
 21
127.066597
  0
LINE
  8
0
  6
CONTINUOUS
 10
99.877197
 20
43.678600
 11
99.877197
 21
103.943741
  0
LINE
  8
0
  6
CONTINUOUS
 10
107.647598
 20
129.966034
 11
96.107399
 21
133.031433
  0
LINE
  8
0
  6
CONTINUOUS
 10
107.647598
 20
73.781464
 11
102.107002
 21
72.309807
  0
LINE
  8
0
  6
CONTINUOUS
 10
97.650398
 20
40.779919
 11
96.104401
 21
40.367619
  0
ARC
  8
0
  6
CONTINUOUS
 10
106.877197
 20
127.066597
 40
3.000000
 50
0.000000
 51
75.124413
  0
ARC
  8
0
  6
CONTINUOUS
 10
106.877197
 20
76.680908
 40
3.000000
 50
-75.124207
 51
0.000000
  0
ARC
  8
0
  6
CONTINUOUS
 10
96.877197
 20
43.678600
 40
3.000000
 50
-75.068420
 51
0.000000
  0
ARC
  8
0
  6
CONTINUOUS
 10
96.877197
 20
135.930923
 40
3.000000
 50
180.000000
 51
255.124603
  0
ARC
  8
0
  6
CONTINUOUS
 10
102.877197
 20
69.410362
 40
3.000000
 50
104.876099
 51
180.000000
  0
ARC
  8
0
  6
CONTINUOUS
 10
96.877197
 20
37.468922
 40
3.000000
 50
104.931801
 51
180.000000
  0
LINE
  8
0
  6
CONTINUOUS
 10
109.377197
 20
28.873739
 11
109.377197
 21
37.925098
  0
LINE
  8
0
  6
CONTINUOUS
 10
104.377197
 20
23.873739
 11
95.326202
 21
23.873739
  0
ARC
  8
0
  6
CONTINUOUS
 10
61.877201
 20
71.373756
 40
57.250000
 50
-32.501888
 51
19.914110
  0
ARC
  8
0
  6
CONTINUOUS
 10
61.877201
 20
71.373756
 40
57.250000
 50
243.004898
 51
298.995514
  0
ARC
  8
0
  6
CONTINUOUS
 10
104.377197
 20
28.873739
 40
5.000000
 50
-90.000000
 51
0.000000
  0
ARC
  8
0
  6
CONTINUOUS
 10
114.377197
 20
37.925098
 40
5.000000
 50
147.498093
 51
180.000000
  0
ARC
  8
0
  6
CONTINUOUS
 10
95.326202
 20
18.873739
 40
5.000000
 50
90.000000
 51
106.842003
  0
LINE
  8
0
  6
CONTINUOUS
 10
3.877400
 20
155.873764
 11
3.877400
 21
101.873756
  0
LINE
  8
0
  6
CONTINUOUS
 10
15.877400
 20
13.873780
 11
15.877400
 21
101.873756
  0
LINE
  8
0
  6
CONTINUOUS
 10
151.877197
 20
90.873764
 11
151.877197
 21
112.873741
  0
LINE
  8
0
  6
CONTINUOUS
 10
111.877197
 20
112.873741
 11
151.877197
 21
112.873741
  0
LINE
  8
0
  6
CONTINUOUS
 10
111.877197
 20
90.873764
 11
151.877197
 21
90.873764
  0
LINE
  8
0
  6
CONTINUOUS
 10
111.877197
 20
114.373741
 11
111.877197
 21
89.373764
  0
LINE
  8
0
  6
CONTINUOUS
 10
109.877197
 20
114.373741
 11
111.877197
 21
114.373741
  0
LINE
  8
0
  6
CONTINUOUS
 10
109.877197
 20
89.373764
 11
111.877197
 21
89.373764
  0
ARC
  8
0
  6
CONTINUOUS
 10
119.877197
 20
101.873756
 40
3.000000
 50
90.000000
 51
270.000000
  0
LINE
  8
0
  6
CONTINUOUS
 10
119.877197
 20
104.873741
 11
151.877197
 21
104.873741
  0
LINE
  8
0
  6
CONTINUOUS
 10
119.877197
 20
98.873756
 11
151.877197
 21
98.873756
  0
ARC
  8
0
  6
CONTINUOUS
 10
13.959200
 20
153.373764
 40
2.500000
 50
15.000760
 51
90.000000
  0
ARC
  8
0
  6
CONTINUOUS
 10
13.959200
 20
14.373780
 40
2.500000
 50
270.000000
 51
345.000214
  0
ARC
  8
0
  6
CONTINUOUS
 10
61.877201
 20
71.373756
 40
57.499821
 50
303.815704
 51
303.996307
  0
ARC
  8
0
  6
CONTINUOUS
 10
61.877201
 20
71.373756
 40
57.500000
 50
242.540298
 51
299.460602
  0
ARC
  8
0
  6
CONTINUOUS
 10
61.877201
 20
71.373756
 40
57.500000
 50
-33.996769
 51
19.823891
  0
ARC
  8
0
  6
CONTINUOUS
 10
61.877201
 20
71.373756
 40
57.500000
 50
303.815613
 51
303.997314
  0
LINE
  8
0
  6
CONTINUOUS
 10
331.408081
 20
282.509491
 11
331.610779
 21
290.248749
  0
ARC
  8
0
  6
CONTINUOUS
 10
329.908600
 20
282.548767
 40
1.500000
 50
270.000000
 51
358.499664
  0
ARC
  8
0
  6
CONTINUOUS
 10
333.869781
 20
360.048767
 40
1.000000
 50
-90.000000
 51
0.000000
  0
ARC
  8
0
  6
CONTINUOUS
 10
334.388733
 20
358.117249
 40
1.000000
 50
105.039177
 51
178.499649
  0
LINE
  8
0
  6
CENTER
 10
277.869781
 20
216.847061
 11
277.869781
 21
384.168762
  0
LINE
  8
0
  6
CONTINUOUS
 10
303.062622
 20
265.048767
 11
252.676926
 21
265.048767
  0
LINE
  8
0
  6
CONTINUOUS
 10
247.713531
 20
275.048767
 11
244.426682
 21
275.048767
  0
ARC
  8
0
  6
CONTINUOUS
 10
252.676926
 20
268.048767
 40
3.000000
 50
-165.124313
 51
-90.000000
  0
LINE
  8
0
  6
CONTINUOUS
 10
241.527222
 20
277.278595
 11
241.118073
 21
278.818939
  0
ARC
  8
0
  6
CONTINUOUS
 10
244.426682
 20
278.048767
 40
3.000000
 50
-165.124313
 51
-90.000000
  0
ARC
  8
0
  6
CONTINUOUS
 10
238.218613
 20
278.048767
 40
3.000000
 50
14.875682
 51
90.000000
  0
LINE
  8
0
  6
CONTINUOUS
 10
247.713531
 20
275.048767
 11
249.777481
 21
267.278595
  0
LINE
  8
0
  6
CONTINUOUS
 10
314.212311
 20
277.278595
 11
314.621460
 21
278.818939
  0
ARC
  8
0
  6
CONTINUOUS
 10
311.312866
 20
278.048767
 40
3.000000
 50
270.000000
 51
345.124329
  0
ARC
  8
0
  6
CONTINUOUS
 10
317.520935
 20
278.048767
 40
3.000000
 50
90.000000
 51
165.124313
  0
LINE
  8
0
  6
CONTINUOUS
 10
308.026031
 20
275.048767
 11
311.312866
 21
275.048767
  0
ARC
  8
0
  6
CONTINUOUS
 10
303.062622
 20
268.048767
 40
3.000000
 50
270.000000
 51
345.124329
  0
LINE
  8
0
  6
CONTINUOUS
 10
308.026031
 20
275.048767
 11
305.962067
 21
267.278595
  0
LINE
  8
0
  6
CONTINUOUS
 10
288.869781
 20
223.048767
 11
264.369781
 21
223.048767
  0
LINE
  8
0
  6
CONTINUOUS
 10
266.869781
 20
263.048767
 11
266.869781
 21
258.048767
  0
LINE
  8
0
  6
CONTINUOUS
 10
288.869781
 20
263.048767
 11
288.869781
 21
223.048767
  0
LINE
  8
0
  6
CONTINUOUS
 10
265.369781
 20
265.048767
 11
265.369781
 21
263.048767
  0
LINE
  8
0
  6
CONTINUOUS
 10
290.369781
 20
265.048767
 11
290.369781
 21
263.048767
  0
LINE
  8
0
  6
CONTINUOUS
 10
290.369781
 20
263.048767
 11
265.369781
 21
263.048767
  0
LINE
  8
0
  6
CONTINUOUS
 10
264.369781
 20
258.048767
 11
264.369781
 21
223.048767
  0
LINE
  8
0
  6
CONTINUOUS
 10
267.286774
 20
223.048767
 11
267.286774
 21
258.048767
  0
LINE
  8
0
  6
CONTINUOUS
 10
267.286774
 20
258.048767
 11
264.369781
 21
258.048767
  0
ARC
  8
0
  6
CONTINUOUS
 10
393.054199
 20
311.455078
 40
65.000000
 50
157.957932
 51
199.041382
  0
LINE
  8
0
  6
CONTINUOUS
 10
332.805145
 20
335.848755
 11
333.389069
 21
358.143433
  0
LINE
  8
0
  6
CONTINUOUS
 10
508.619781
 20
22.373779
 11
508.619781
 21
98.373756
  0
LINE
  8
0
  6
CONTINUOUS
 10
508.619781
 20
98.373741
 11
394.619781
 21
98.373741
  0
LINE
  8
0
  6
CONTINUOUS
 10
508.619781
 20
22.373779
 11
394.619781
 21
22.373779
  0
LINE
  8
0
  6
CONTINUOUS
 10
508.619781
 20
90.622742
 11
402.619781
 21
90.622742
  0
LINE
  8
0
  6
CONTINUOUS
 10
508.619781
 20
30.124781
 11
402.619781
 21
30.124781
  0
LINE
  8
0
  6
CONTINUOUS
 10
402.619781
 20
96.373741
 11
402.619781
 21
24.373760
  0
ARC
  8
0
  6
CONTINUOUS
 10
400.619781
 20
96.373756
 40
2.000000
 50
0.000000
 51
90.000000
  0
ARC
  8
0
  6
CONTINUOUS
 10
400.619781
 20
24.373779
 40
2.000000
 50
-90.000000
 51
0.000000
  0
LINE
  8
0
  6
CONTINUOUS
 10
529.119812
 20
28.373760
 11
529.119812
 21
92.373756
  0
LINE
  8
0
  6
CONTINUOUS
 10
525.155701
 20
98.373756
 11
508.619781
 21
98.373756
  0
LINE
  8
0
  6
CONTINUOUS
 10
525.155701
 20
22.373760
 11
508.619781
 21
22.373760
  0
LINE
  8
0
  6
CONTINUOUS
 10
528.619812
 20
25.373760
 11
528.619812
 21
95.373756
  0
LINE
  8
0
  6
CONTINUOUS
 10
529.119812
 20
92.373756
 11
528.619812
 21
92.873756
  0
LINE
  8
0
  6
CONTINUOUS
 10
529.119812
 20
28.373760
 11
528.619812
 21
27.873760
  0
LINE
  8
0
  6
CONTINUOUS
 10
527.753784
 20
96.873741
 11
528.619812
 21
95.373756
  0
ARC
  8
0
  6
CONTINUOUS
 10
525.155701
 20
95.373779
 40
3.000000
 50
29.999599
 51
90.000000
  0
LINE
  8
0
  6
CONTINUOUS
 10
527.753784
 20
23.873779
 11
528.619812
 21
25.373760
  0
ARC
  8
0
  6
CONTINUOUS
 10
525.155701
 20
25.373760
 40
3.000000
 50
270.000000
 51
330.000397
  0
LINE
  8
0
  6
CONTINUOUS
 10
527.038147
 20
90.622765
 11
508.619781
 21
90.622765
  0
LINE
  8
0
  6
CONTINUOUS
 10
508.619781
 20
30.124760
 11
527.038147
 21
30.124760
  0
LINE
  8
0
  6
CONTINUOUS
 10
353.032532
 20
99.826019
 11
394.619781
 21
98.373756
  0
LINE
  8
0
  6
CONTINUOUS
 10
342.619781
 20
20.557880
 11
394.619781
 21
22.373760
  0
LINE
  8
0
  6
CONTINUOUS
 10
350.619781
 20
127.873756
 11
350.619781
 21
100.873756
  0
LINE
  8
0
  6
CONTINUOUS
 10
349.619781
 20
128.873764
 11
342.619781
 21
128.873764
  0
LINE
  8
0
  6
CONTINUOUS
 10
348.119781
 20
13.873760
 11
342.619781
 21
13.873760
  0
LINE
  8
0
  6
CONTINUOUS
 10
350.619781
 20
101.373756
 11
350.619781
 21
30.461103
  0
LINE
  8
0
  6
CONTINUOUS
 10
394.619781
 20
98.373756
 11
394.619781
 21
22.373760
  0
LINE
  8
0
  6
CONTINUOUS
 10
352.032928
 20
111.691566
 11
377.976349
 21
99.167152
  0
ARC
  8
0
  6
CONTINUOUS
 10
349.619781
 20
127.873756
 40
1.000000
 50
0.000000
 51
90.000000
  0
ARC
  8
0
  6
CONTINUOUS
 10
353.119781
 20
113.942940
 40
2.500000
 50
180.000000
 51
244.230682
  0
ARC
  8
0
  6
CONTINUOUS
 10
353.119781
 20
102.324493
 40
2.500000
 50
180.000000
 51
268.000000
  0
ARC
  8
0
  6
CONTINUOUS
 10
379.063232
 20
101.418533
 40
2.500000
 50
-115.769325
 51
-92.000000
  0
LINE
  8
0
  6
CONTINUOUS
 10
349.494720
 20
28.219761
 11
342.619781
 21
28.219761
  0
LINE
  8
0
  6
CONTINUOUS
 10
350.619781
 20
16.373760
 11
350.619781
 21
18.423023
  0
ARC
  8
0
  6
CONTINUOUS
 10
348.119781
 20
16.373760
 40
2.500000
 50
-90.000000
 51
0.000000
  0
ARC
  8
0
  6
CONTINUOUS
 10
353.119781
 20
18.423023
 40
2.500000
 50
92.000000
 51
180.000000
  0
LINE
  8
0
  6
CENTER
 10
541.194824
 20
60.373760
 11
309.869781
 21
60.373760
  0
LINE
  8
0
  6
CONTINUOUS
 10
348.119781
 20
370.548767
 11
342.619781
 21
370.548767
  0
LINE
  8
0
  6
CONTINUOUS
 10
348.119781
 20
255.548767
 11
342.619781
 21
255.548767
  0
LINE
  8
0
  6
CONTINUOUS
 10
350.619781
 20
368.048767
 11
350.619781
 21
258.048767
  0
LINE
  8
0
  6
CONTINUOUS
 10
394.619781
 20
275.048767
 11
394.619781
 21
351.048767
  0
LINE
  8
0
  6
CONTINUOUS
 10
353.032532
 20
273.596497
 11
394.619781
 21
275.048767
  0
LINE
  8
0
  6
CONTINUOUS
 10
353.032532
 20
352.501007
 11
394.619781
 21
351.048767
  0
ARC
  8
0
  6
CONTINUOUS
 10
348.119781
 20
258.048767
 40
2.500000
 50
-90.000000
 51
0.000000
  0
ARC
  8
0
  6
CONTINUOUS
 10
348.119781
 20
368.048767
 40
2.500000
 50
0.000000
 51
90.000000
  0
LINE
  8
0
  6
CONTINUOUS
 10
394.619781
 20
275.048767
 11
394.619781
 21
351.048767
  0
LINE
  8
0
  6
CONTINUOUS
 10
508.619659
 20
351.048737
 11
508.619659
 21
338.048767
  0
LINE
  8
0
  6
CONTINUOUS
 10
508.619659
 20
275.048767
 11
394.619659
 21
275.048767
  0
LINE
  8
0
  6
CONTINUOUS
 10
508.619659
 20
351.048737
 11
394.619659
 21
351.048737
  0
LINE
  8
0
  6
CONTINUOUS
 10
402.619659
 20
277.048767
 11
402.619659
 21
290.048767
  0
ARC
  8
0
  6
CONTINUOUS
 10
400.619659
 20
277.048767
 40
2.000000
 50
-90.000000
 51
0.000000
  0
ARC
  8
0
  6
CONTINUOUS
 10
400.619659
 20
349.048737
 40
2.000000
 50
0.000000
 51
90.000000
  0
LINE
  8
0
  6
CONTINUOUS
 10
529.119629
 20
345.048767
 11
529.119629
 21
281.048767
  0
LINE
  8
0
  6
CONTINUOUS
 10
525.155579
 20
275.048767
 11
508.619659
 21
275.048767
  0
LINE
  8
0
  6
CONTINUOUS
 10
525.155579
 20
351.048767
 11
508.619659
 21
351.048767
  0
LINE
  8
0
  6
CONTINUOUS
 10
528.619629
 20
348.048767
 11
528.619629
 21
278.048767
  0
LINE
  8
0
  6
CONTINUOUS
 10
529.119629
 20
281.048767
 11
528.619629
 21
280.548767
  0
LINE
  8
0
  6
CONTINUOUS
 10
529.119629
 20
345.048767
 11
528.619629
 21
345.548767
  0
LINE
  8
0
  6
CONTINUOUS
 10
527.753662
 20
276.548767
 11
528.619629
 21
278.048767
  0
ARC
  8
0
  6
CONTINUOUS
 10
525.155579
 20
278.048737
 40
3.000000
 50
270.000000
 51
330.000397
  0
LINE
  8
0
  6
CONTINUOUS
 10
527.753662
 20
349.548737
 11
528.619629
 21
348.048767
  0
ARC
  8
0
  6
CONTINUOUS
 10
525.155579
 20
348.048767
 40
3.000000
 50
29.999599
 51
90.000000
  0
LINE
  8
0
  6
CONTINUOUS
 10
467.619659
 20
290.048767
 11
402.619659
 21
290.048767
  0
LINE
  8
0
  6
CONTINUOUS
 10
517.619629
 20
290.048767
 11
527.038025
 21
290.048767
  0
LINE
  8
0
  6
CONTINUOUS
 10
467.619659
 20
336.048767
 11
402.619659
 21
336.048767
  0
LINE
  8
0
  6
CONTINUOUS
 10
517.619629
 20
336.048767
 11
527.038025
 21
336.048767
  0
LINE
  8
0
  6
CONTINUOUS
 10
402.619659
 20
336.048767
 11
402.619659
 21
349.048767
  0
LINE
  8
0
  6
CONTINUOUS
 10
508.619659
 20
288.048767
 11
508.619659
 21
275.048767
  0
ARC
  8
0
  6
CONTINUOUS
 10
363.450134
 20
313.048767
 40
15.000000
 50
-49.252373
 51
49.252373
  0
LINE
  8
0
  6
CONTINUOUS
 10
351.487946
 20
282.942780
 11
373.241058
 21
301.684875
  0
LINE
  8
0
  6
CONTINUOUS
 10
351.487946
 20
343.154755
 11
373.241058
 21
324.412628
  0
ARC
  8
0
  6
CONTINUOUS
 10
353.119781
 20
281.048798
 40
2.500000
 50
130.747620
 51
180.000000
  0
ARC
  8
0
  6
CONTINUOUS
 10
353.119781
 20
271.098022
 40
2.500000
 50
92.000000
 51
180.000000
  0
ARC
  8
0
  6
CONTINUOUS
 10
353.119781
 20
345.048737
 40
2.500000
 50
180.000000
 51
229.252380
  0
ARC
  8
0
  6
CONTINUOUS
 10
353.119781
 20
354.999481
 40
2.500000
 50
180.000000
 51
268.000000
  0
LINE
  8
0
  6
CONTINUOUS
 10
517.619629
 20
336.048737
 11
517.619629
 21
290.048737
  0
LINE
  8
0
  6
CONTINUOUS
 10
515.619629
 20
288.048737
 11
517.619629
 21
290.048737
  0
LINE
  8
0
  6
CONTINUOUS
 10
515.619629
 20
288.048737
 11
469.619659
 21
288.048737
  0
LINE
  8
0
  6
CONTINUOUS
 10
475.119659
 20
292.548737
 11
475.119659
 21
288.048737
  0
ARC
  8
0
  6
CONTINUOUS
 10
472.119659
 20
292.548737
 40
3.000000
 50
0.000000
 51
90.000000
  0
LINE
  8
0
  6
CONTINUOUS
 10
472.119659
 20
295.548737
 11
467.619659
 21
295.548737
  0
CIRCLE
  8
0
  6
CONTINUOUS
 10
471.119659
 20
291.548737
 40
2.250000
  0
LINE
  8
0
  6
CONTINUOUS
 10
467.619659
 20
336.048737
 11
467.619659
 21
290.048737
  0
LINE
  8
0
  6
CONTINUOUS
 10
469.619659
 20
288.048737
 11
467.619659
 21
290.048737
  0
LINE
  8
0
  6
CONTINUOUS
 10
469.619659
 20
338.048737
 11
467.619659
 21
336.048737
  0
LINE
  8
0
  6
CONTINUOUS
 10
469.619659
 20
338.048737
 11
515.619629
 21
338.048737
  0
LINE
  8
0
  6
CONTINUOUS
 10
517.619629
 20
336.048737
 11
515.619629
 21
338.048737
  0
LINE
  8
0
  6
CONTINUOUS
 10
513.119629
 20
330.548737
 11
517.619629
 21
330.548737
  0
CIRCLE
  8
0
  6
CONTINUOUS
 10
514.119629
 20
334.548737
 40
2.250000
  0
ARC
  8
0
  6
CONTINUOUS
 10
513.119629
 20
333.548737
 40
3.000000
 50
180.000000
 51
270.000000
  0
LINE
  8
0
  6
CONTINUOUS
 10
510.119659
 20
333.548737
 11
510.119659
 21
338.048737
  0
LINE
  8
0
  6
CENTER
 10
492.619659
 20
345.514526
 11
492.619659
 21
281.382477
  0
LINE
  8
0
  6
CONTINUOUS
 10
516.619629
 20
330.548737
 11
516.619629
 21
295.548737
  0
LINE
  8
0
  6
CONTINUOUS
 10
475.119659
 20
289.048737
 11
510.119659
 21
289.048737
  0
LINE
  8
0
  6
CONTINUOUS
 10
468.619659
 20
295.548737
 11
468.619659
 21
330.548737
  0
LINE
  8
0
  6
CONTINUOUS
 10
510.119659
 20
337.048737
 11
475.119659
 21
337.048737
  0
LINE
  8
0
  6
CONTINUOUS
 10
513.119629
 20
295.548737
 11
517.619629
 21
295.548737
  0
ARC
  8
0
  6
CONTINUOUS
 10
513.119629
 20
292.548737
 40
3.000000
 50
90.000000
 51
180.000000
  0
LINE
  8
0
  6
CONTINUOUS
 10
510.119659
 20
292.548737
 11
510.119659
 21
288.048737
  0
CIRCLE
  8
0
  6
CONTINUOUS
 10
514.119629
 20
291.548737
 40
2.250000
  0
ARC
  8
0
  6
CONTINUOUS
 10
472.119659
 20
333.548737
 40
3.000000
 50
-90.000000
 51
0.000000
  0
LINE
  8
0
  6
CONTINUOUS
 10
475.119659
 20
333.548737
 11
475.119659
 21
338.048737
  0
LINE
  8
0
  6
CONTINUOUS
 10
472.119659
 20
330.548737
 11
467.619659
 21
330.548737
  0
CIRCLE
  8
0
  6
CONTINUOUS
 10
471.119659
 20
334.548737
 40
2.250000
  0
LINE
  8
0
  6
CONTINUOUS
 10
516.119812
 20
99.873756
 11
469.619781
 21
99.873756
  0
LINE
  8
0
  6
CONTINUOUS
 10
467.619812
 20
143.873764
 11
467.619781
 21
101.873756
  0
LINE
  8
0
  6
CONTINUOUS
 10
517.619812
 20
143.873764
 11
517.619812
 21
101.873756
  0
LINE
  8
0
  6
CONTINUOUS
 10
517.619812
 20
111.873756
 11
467.619781
 21
111.873756
  0
LINE
  8
0
  6
CONTINUOUS
 10
469.619781
 20
99.873756
 11
467.619781
 21
101.873756
  0
LINE
  8
0
  6
CONTINUOUS
 10
517.619812
 20
101.873756
 11
515.619812
 21
99.873756
  0
LINE
  8
0
  6
CONTINUOUS
 10
517.619812
 20
101.873756
 11
467.619781
 21
101.873756
  0
LINE
  8
0
  6
CONTINUOUS
 10
517.619812
 20
112.873756
 11
467.619812
 21
112.873756
  0
LINE
  8
0
  6
CONTINUOUS
 10
516.619812
 20
144.873764
 11
468.619812
 21
144.873764
  0
LINE
  8
0
  6
CONTINUOUS
 10
468.619812
 20
144.873764
 11
467.619812
 21
143.873764
  0
LINE
  8
0
  6
CONTINUOUS
 10
516.619812
 20
144.873764
 11
517.619812
 21
143.873764
  0
LINE
  8
0
  6
CONTINUOUS
 10
517.619812
 20
143.873764
 11
467.619812
 21
143.873764
  0
LINE
  8
0
  6
CENTER
 10
492.619781
 20
93.484253
 11
492.619781
 21
151.176254
  0
LINE
  8
0
  6
CENTER
 10
519.994812
 20
127.873756
 11
515.369812
 21
127.873756
  0
LINE
  8
0
  6
CONTINUOUS
 10
516.119812
 20
99.873756
 11
516.119812
 21
98.373756
  0
LINE
  8
0
  6
CONTINUOUS
 10
470.119781
 20
99.873756
 11
470.119781
 21
98.373756
  0
LINE
  8
0
  6
CONTINUOUS
 10
518.494812
 20
138.373764
 11
516.494812
 21
138.373764
  0
LINE
  8
0
  6
CONTINUOUS
 10
518.494812
 20
117.373756
 11
516.494812
 21
117.373756
  0
LINE
  8
0
  6
CENTER
 10
232.869690
 20
376.291260
 11
232.869690
 21
355.125000
  0
LINE
  8
0
  6
DASHED
 10
238.369690
 20
371.048767
 11
238.369690
 21
359.048767
  0
LINE
  8
0
  6
DASHED
 10
227.369690
 20
371.048767
 11
227.369690
 21
359.048767
  0
LINE
  8
0
  6
DASHED
 10
317.369843
 20
371.048767
 11
317.369843
 21
359.048767
  0
LINE
  8
0
  6
CENTER
 10
322.869843
 20
376.291260
 11
322.869843
 21
355.125000
  0
LINE
  8
0
  6
DASHED
 10
328.369843
 20
371.048767
 11
328.369843
 21
359.048767
  0
LINE
  8
0
  6
CONTINUOUS
 10
350.619781
 20
50.973759
 11
394.619781
 21
50.973759
  0
LINE
  8
0
  6
CONTINUOUS
 10
350.619781
 20
40.773762
 11
394.619781
 21
40.773762
  0
TEXT
  8
0
 10
-57.000000
 20
-2.000000
 40
4.000000
 41
1.000000
  1
HFM-22L-300~1800-S15K
 50
0.000000
  0
ENDSEC
  0
EOF
