  0
SECTION
  2
HEADER
  9
$CLAYER
  8
1
  9
$LTSCALE
 40
3.0
  0
ENDSEC
  0
SECTION
  2
TABLES
  0
TABLE
  2
LTYPE
 70
     4
  0
LTYPE
  2
CONTINUOUS
  3
solid line
 70
    64
 72
    65
 73
     0
 40
0.0
  0
LTYPE
  2
DASHED
  3
__ __ __ __ __ __ __ __ __ __ __ __ __ __ __
 70
    64
 72
    65
 73
     2
 40
0.75
 49
0.5
 49
-0.25
  0
LTYPE
  2
CENTER
  3
____ _ ____ _ ____ _ ____ _ ____ _ ____ _ ____
 70
    64
 72
    65
 73
     4
 40
2.0
 49
1.25
 49
-0.25
 49
0.25
 49
-0.25
  0
LTYPE
  2
PHANTOM
  3
_____ _ _ _____ _ _ _____ _ _ _____ _ _ ____
 70
    64
 72
    65
 73
     6
 40
2.5
 49
1.25
 49
-0.25
 49
0.25
 49
-0.25
 49
0.25
 49
-0.25
  0
ENDTAB
  0
TABLE
  2
LAYER
 70
     1
  0
LAYER
  2
0
 70
    64
 62
     7
  6
CONTINUOUS
  0
ENDTAB
  0
TABLE
  2
STYLE
 70
     1
  0
STYLE
  2
STANDARD
 70
     0
 40
0.000000
 41
1.000000
 50
0.000000
 71
     0
 42
3.000000
  3
txt
  4
BIGFONT
  0
ENDTAB
  0
ENDSEC
  0
SECTION
  2
BLOCKS
  0
ENDSEC
  0
SECTION
  2
ENTITIES
  0
LINE
  8
0
  6
CENTER
 10
286.349762
 20
165.645020
 11
286.349762
 21
-2.092500
  0
LINE
  8
0
  6
CENTER
 10
335.261566
 20
100.563759
 11
221.280975
 21
100.563759
  0
LINE
  8
0
  6
CONTINUOUS
 10
336.349762
 20
104.063759
 11
336.349762
 21
60.203072
  0
LINE
  8
0
  6
CONTINUOUS
 10
236.349777
 20
104.924438
 11
236.349777
 21
60.203094
  0
ARC
  8
0
  6
CONTINUOUS
 10
286.349762
 20
82.563766
 40
60.000000
 50
48.189610
 51
131.810394
  0
ARC
  8
0
  6
CONTINUOUS
 10
286.349762
 20
82.563766
 40
60.000000
 50
-131.810303
 51
-48.189701
  0
ARC
  8
0
  6
CONTINUOUS
 10
266.349762
 20
104.924438
 40
30.000000
 50
131.810394
 51
180.000000
  0
CIRCLE
  8
0
  6
CONTINUOUS
 10
286.349762
 20
100.563759
 40
27.500000
  0
ARC
  8
0
  6
CONTINUOUS
 10
286.349762
 20
100.563759
 40
31.750000
 50
7.552597
 51
172.447296
  0
ARC
  8
0
  6
CONTINUOUS
 10
303.099762
 20
59.063763
 40
20.600000
 50
-90.000000
 51
7.552597
  0
ARC
  8
0
  6
CONTINUOUS
 10
269.599762
 20
59.063763
 40
20.600000
 50
172.447296
 51
270.000000
  0
LINE
  8
0
  6
CONTINUOUS
 10
254.875168
 20
104.736923
 11
249.178375
 21
61.771389
  0
LINE
  8
0
  6
CONTINUOUS
 10
323.520966
 20
61.771351
 11
317.824188
 21
104.736862
  0
LINE
  8
0
  6
CONTINUOUS
 10
303.099762
 20
38.463760
 11
269.599762
 21
38.463760
  0
ARC
  8
0
  6
CONTINUOUS
 10
303.099762
 20
59.063763
 40
19.000000
 50
-90.000000
 51
7.552399
  0
ARC
  8
0
  6
CONTINUOUS
 10
269.599762
 20
59.063763
 40
19.000000
 50
172.447296
 51
270.000000
  0
ARC
  8
0
  6
CONTINUOUS
 10
286.349762
 20
100.563759
 40
30.150000
 50
-187.552704
 51
7.552612
  0
LINE
  8
0
  6
CONTINUOUS
 10
321.934784
 20
61.561054
 11
316.238190
 21
104.526581
  0
LINE
  8
0
  6
CONTINUOUS
 10
256.461182
 20
104.526619
 11
250.764572
 21
61.561089
  0
LINE
  8
0
  6
CONTINUOUS
 10
303.099762
 20
40.063759
 11
269.599762
 21
40.063759
  0
ARC
  8
0
  6
CONTINUOUS
 10
306.349762
 20
104.924461
 40
30.000000
 50
-1.671204
 51
48.189610
  0
ARC
  8
0
  6
CONTINUOUS
 10
306.349762
 20
60.203072
 40
30.000000
 50
-48.189701
 51
0.000000
  0
LINE
  8
0
  6
CONTINUOUS
 10
351.099762
 20
127.313759
 11
333.550568
 21
127.313759
  0
LINE
  8
0
  6
CONTINUOUS
 10
345.535187
 20
12.813760
 11
351.099762
 21
12.813760
  0
LINE
  8
0
  6
CONTINUOUS
 10
340.849762
 20
117.563759
 11
351.099762
 21
117.563759
  0
LINE
  8
0
  6
CONTINUOUS
 10
346.110565
 20
22.536320
 11
351.099762
 21
22.563761
  0
LINE
  8
0
  6
CONTINUOUS
 10
344.552765
 20
102.023758
 11
351.099762
 21
102.023758
  0
LINE
  8
0
  6
CONTINUOUS
 10
344.552765
 20
38.103760
 11
351.099762
 21
38.103760
  0
LINE
  8
0
  6
CENTER
 10
339.996582
 20
142.563766
 11
322.699768
 21
142.563766
  0
LINE
  8
0
  6
CENTER
 10
249.912170
 20
142.563766
 11
225.330978
 21
142.563766
  0
LINE
  8
0
  6
CENTER
 10
341.142578
 20
22.563761
 11
322.530975
 21
22.563761
  0
LINE
  8
0
  6
CENTER
 10
250.474777
 20
22.563761
 11
225.668381
 21
22.563761
  0
LINE
  8
0
  6
CENTER
 10
241.349777
 20
151.723145
 11
241.349777
 21
133.582504
  0
LINE
  8
0
  6
CENTER
 10
331.349762
 20
151.470016
 11
331.349762
 21
134.004379
  0
LINE
  8
0
  6
CENTER
 10
331.349762
 20
31.741880
 11
331.349762
 21
5.332520
  0
LINE
  8
0
  6
CENTER
 10
241.349777
 20
31.910641
 11
241.349777
 21
6.007500
  0
CIRCLE
  8
0
  6
CONTINUOUS
 10
241.349777
 20
142.563766
 40
5.500000
  0
CIRCLE
  8
0
  6
CONTINUOUS
 10
331.349762
 20
142.563766
 40
5.500000
  0
CIRCLE
  8
0
  6
CONTINUOUS
 10
331.349762
 20
22.563761
 40
5.500000
  0
CIRCLE
  8
0
  6
CONTINUOUS
 10
241.349777
 20
22.563761
 40
5.500000
  0
ARC
  8
0
  6
CONTINUOUS
 10
241.349777
 20
142.563766
 40
12.000000
 50
90.000000
 51
180.000000
  0
ARC
  8
0
  6
CONTINUOUS
 10
331.349762
 20
142.563766
 40
12.000000
 50
0.000000
 51
90.000000
  0
ARC
  8
0
  6
CONTINUOUS
 10
331.349762
 20
22.563761
 40
12.000000
 50
270.000000
 51
358.060608
  0
ARC
  8
0
  6
CONTINUOUS
 10
241.349777
 20
22.563761
 40
12.000000
 50
180.000000
 51
270.000000
  0
LINE
  8
0
  6
CONTINUOUS
 10
241.349777
 20
154.563766
 11
331.349762
 21
154.563766
  0
LINE
  8
0
  6
CONTINUOUS
 10
331.349579
 20
10.563760
 11
241.349777
 21
10.563760
  0
LINE
  8
0
  6
CONTINUOUS
 10
229.349777
 20
142.563766
 11
229.349777
 21
22.563761
  0
LINE
  8
0
  6
CONTINUOUS
 10
344.007782
 20
21.692160
 11
344.537384
 21
13.747240
  0
ARC
  8
0
  6
CONTINUOUS
 10
345.535187
 20
13.813760
 40
1.000000
 50
-176.185806
 51
-90.000000
  0
LINE
  8
0
  6
CONTINUOUS
 10
276.053375
 20
47.563782
 11
271.892975
 21
47.563782
  0
LINE
  8
0
  6
CONTINUOUS
 10
278.349762
 20
54.532520
 11
278.349762
 21
47.563782
  0
LINE
  8
0
  6
CONTINUOUS
 10
282.349762
 20
57.063770
 11
282.349762
 21
59.563770
  0
LINE
  8
0
  6
CONTINUOUS
 10
290.349762
 20
57.063770
 11
290.349762
 21
59.563770
  0
LINE
  8
0
  6
CONTINUOUS
 10
285.568390
 20
58.095020
 11
285.568390
 21
48.876282
  0
LINE
  8
0
  6
CONTINUOUS
 10
287.068390
 20
58.095020
 11
287.068390
 21
48.876282
  0
LINE
  8
0
  6
CONTINUOUS
 10
294.943390
 20
58.095020
 11
294.943390
 21
48.813782
  0
LINE
  8
0
  6
CONTINUOUS
 10
296.318390
 20
53.173145
 11
296.318390
 21
48.813782
  0
LINE
  8
0
  6
CONTINUOUS
 10
276.451569
 20
57.970020
 11
272.596588
 21
57.970020
  0
LINE
  8
0
  6
CONTINUOUS
 10
272.596588
 20
57.970020
 11
271.693390
 21
56.850025
  0
LINE
  8
0
  6
CONTINUOUS
 10
271.801971
 20
59.563770
 11
270.349762
 21
57.704021
  0
LINE
  8
0
  6
CONTINUOUS
 10
271.693390
 20
49.936680
 11
272.611176
 21
48.970020
  0
LINE
  8
0
  6
CONTINUOUS
 10
270.349762
 20
49.120941
 11
271.892975
 21
47.563782
  0
LINE
  8
0
  6
CONTINUOUS
 10
270.349762
 20
57.704021
 11
270.349762
 21
49.120941
  0
LINE
  8
0
  6
CONTINUOUS
 10
271.693390
 20
56.850025
 11
271.693390
 21
49.936680
  0
LINE
  8
0
  6
CONTINUOUS
 10
277.193390
 20
57.252918
 11
276.436371
 21
57.970020
  0
LINE
  8
0
  6
CONTINUOUS
 10
277.181366
 20
59.563770
 11
278.349762
 21
58.267277
  0
LINE
  8
0
  6
CONTINUOUS
 10
277.193390
 20
57.063770
 11
278.349762
 21
57.063770
  0
LINE
  8
0
  6
CONTINUOUS
 10
271.801971
 20
59.563770
 11
277.181366
 21
59.563770
  0
LINE
  8
0
  6
CONTINUOUS
 10
275.099762
 20
54.532520
 11
278.349762
 21
54.532520
  0
LINE
  8
0
  6
CONTINUOUS
 10
277.193390
 20
53.220020
 11
275.099762
 21
53.220020
  0
LINE
  8
0
  6
CONTINUOUS
 10
274.693390
 20
48.970020
 11
272.611176
 21
48.970020
  0
LINE
  8
0
  6
CONTINUOUS
 10
277.193390
 20
51.970020
 11
277.193390
 21
52.970020
  0
ARC
  8
0
  6
CONTINUOUS
 10
274.693390
 20
51.470020
 40
2.500000
 50
-89.999786
 51
0.000109
  0
LINE
  8
0
  6
CONTINUOUS
 10
277.193390
 20
48.520321
 11
277.193390
 21
47.563782
  0
LINE
  8
0
  6
CONTINUOUS
 10
278.349762
 20
58.267277
 11
278.349762
 21
57.063770
  0
LINE
  8
0
  6
CONTINUOUS
 10
277.193390
 20
53.220020
 11
277.193390
 21
51.470020
  0
LINE
  8
0
  6
CONTINUOUS
 10
275.099762
 20
54.532520
 11
275.099762
 21
53.220020
  0
LINE
  8
0
  6
CONTINUOUS
 10
277.193390
 20
47.563782
 11
278.349762
 21
47.563782
  0
LINE
  8
0
  6
CONTINUOUS
 10
277.193390
 20
48.520321
 11
276.053375
 21
47.563782
  0
LINE
  8
0
  6
CONTINUOUS
 10
287.068390
 20
48.876282
 11
287.568390
 21
48.876282
  0
LINE
  8
0
  6
CONTINUOUS
 10
284.974762
 20
48.876282
 11
284.974762
 21
47.563782
  0
LINE
  8
0
  6
CONTINUOUS
 10
287.568390
 20
48.876282
 11
287.568390
 21
47.563782
  0
LINE
  8
0
  6
CONTINUOUS
 10
289.515167
 20
57.063770
 11
290.349762
 21
57.063770
  0
LINE
  8
0
  6
CONTINUOUS
 10
282.349762
 20
57.063770
 11
283.237762
 21
57.063770
  0
LINE
  8
0
  6
CONTINUOUS
 10
282.349762
 20
59.563770
 11
290.349762
 21
59.563770
  0
LINE
  8
0
  6
CONTINUOUS
 10
284.974762
 20
47.563782
 11
287.568390
 21
47.563782
  0
LINE
  8
0
  6
CONTINUOUS
 10
284.974762
 20
48.876282
 11
285.568390
 21
48.876282
  0
ARC
  8
0
  6
CONTINUOUS
 10
299.146576
 20
56.360645
 40
3.203126
 50
-73.981873
 51
90.003510
  0
ARC
  8
0
  6
CONTINUOUS
 10
299.146576
 20
56.360645
 40
1.954124
 50
-82.585274
 51
62.411850
  0
LINE
  8
0
  6
CONTINUOUS
 10
294.349762
 20
59.563770
 11
299.146576
 21
59.563770
  0
LINE
  8
0
  6
CONTINUOUS
 10
299.398773
 20
54.422863
 11
296.318390
 21
54.422863
  0
LINE
  8
0
  6
CONTINUOUS
 10
294.349762
 20
59.563770
 11
294.349762
 21
58.095020
  0
LINE
  8
0
  6
CONTINUOUS
 10
296.318390
 20
58.095020
 11
296.318390
 21
54.422863
  0
LINE
  8
0
  6
CONTINUOUS
 10
300.030365
 20
53.281879
 11
302.012970
 21
48.813782
  0
LINE
  8
0
  6
CONTINUOUS
 10
298.878967
 20
53.173145
 11
300.755188
 21
48.813782
  0
LINE
  8
0
  6
CONTINUOUS
 10
294.349762
 20
48.813782
 11
294.943390
 21
48.813782
  0
LINE
  8
0
  6
CONTINUOUS
 10
296.318390
 20
48.813782
 11
296.865387
 21
48.813782
  0
LINE
  8
0
  6
CONTINUOUS
 10
296.865387
 20
47.563782
 11
294.349762
 21
47.563782
  0
LINE
  8
0
  6
CONTINUOUS
 10
300.505981
 20
48.813782
 11
300.755188
 21
48.813782
  0
LINE
  8
0
  6
CONTINUOUS
 10
300.505981
 20
47.563782
 11
302.349762
 21
47.563782
  0
LINE
  8
0
  6
CONTINUOUS
 10
300.505981
 20
48.813782
 11
300.505981
 21
47.563782
  0
LINE
  8
0
  6
CONTINUOUS
 10
296.865387
 20
48.813782
 11
296.865387
 21
47.563782
  0
LINE
  8
0
  6
CONTINUOUS
 10
294.349762
 20
48.813782
 11
294.349762
 21
47.563782
  0
LINE
  8
0
  6
CONTINUOUS
 10
283.667389
 20
58.095020
 11
283.237762
 21
57.063770
  0
LINE
  8
0
  6
CONTINUOUS
 10
289.152985
 20
58.095020
 11
289.515167
 21
57.063770
  0
LINE
  8
0
  6
CONTINUOUS
 10
287.068390
 20
58.095020
 11
289.152985
 21
58.095020
  0
LINE
  8
0
  6
CONTINUOUS
 10
285.568390
 20
58.095020
 11
283.667389
 21
58.095020
  0
LINE
  8
0
  6
CONTINUOUS
 10
296.318390
 20
53.173145
 11
298.878967
 21
53.173145
  0
LINE
  8
0
  6
CONTINUOUS
 10
294.349762
 20
58.095020
 11
294.943390
 21
58.095020
  0
LINE
  8
0
  6
CONTINUOUS
 10
296.318390
 20
58.095020
 11
300.051575
 21
58.092594
  0
LINE
  8
0
  6
CONTINUOUS
 10
277.193390
 20
57.252918
 11
277.193390
 21
57.063770
  0
LINE
  8
0
  6
CONTINUOUS
 10
304.787781
 20
145.063766
 11
267.911560
 21
145.063766
  0
LINE
  8
0
  6
CONTINUOUS
 10
304.787781
 20
20.063761
 11
267.911560
 21
20.063761
  0
LINE
  8
0
  6
CONTINUOUS
 10
233.849777
 20
45.183521
 11
233.849777
 21
119.944000
  0
LINE
  8
0
  6
CONTINUOUS
 10
338.849762
 20
119.563759
 11
338.849762
 21
119.944000
  0
LINE
  8
0
  6
CONTINUOUS
 10
331.022766
 20
36.063759
 11
339.099762
 21
36.063759
  0
LINE
  8
0
  6
CONTINUOUS
 10
343.349762
 20
142.563721
 11
343.349762
 21
127.313759
  0
LINE
  8
0
  6
CONTINUOUS
 10
266.349762
 20
153.818726
 11
266.349762
 21
145.622040
  0
LINE
  8
0
  6
CONTINUOUS
 10
306.349762
 20
153.818726
 11
306.349762
 21
145.622040
  0
LINE
  8
0
  6
CONTINUOUS
 10
266.349762
 20
18.723320
 11
266.349762
 21
11.902740
  0
LINE
  8
0
  6
CONTINUOUS
 10
306.349762
 20
18.723320
 11
306.349762
 21
11.902740
  0
LINE
  8
0
  6
CONTINUOUS
 10
236.003571
 20
124.054962
 11
265.065582
 21
144.174713
  0
LINE
  8
0
  6
CONTINUOUS
 10
336.695770
 20
124.054962
 11
307.633789
 21
144.174713
  0
LINE
  8
0
  6
CONTINUOUS
 10
265.065582
 20
20.952801
 11
236.003571
 21
41.072559
  0
LINE
  8
0
  6
CONTINUOUS
 10
328.176575
 20
35.174721
 11
307.633789
 21
20.952801
  0
ARC
  8
0
  6
CONTINUOUS
 10
267.911560
 20
140.063766
 40
5.000000
 50
90.000000
 51
124.695396
  0
ARC
  8
0
  6
CONTINUOUS
 10
304.787781
 20
140.063766
 40
5.000000
 50
55.305019
 51
90.000000
  0
ARC
  8
0
  6
CONTINUOUS
 10
238.849777
 20
119.944023
 40
5.000000
 50
124.695503
 51
180.000000
  0
ARC
  8
0
  6
CONTINUOUS
 10
238.849579
 20
45.183559
 40
5.000000
 50
180.000000
 51
235.305206
  0
ARC
  8
0
  6
CONTINUOUS
 10
267.911560
 20
25.063761
 40
5.000000
 50
235.304794
 51
270.000000
  0
ARC
  8
0
  6
CONTINUOUS
 10
304.787781
 20
25.063761
 40
5.000000
 50
270.000000
 51
304.695190
  0
ARC
  8
0
  6
CONTINUOUS
 10
331.022766
 20
31.063761
 40
5.000000
 50
90.000000
 51
124.695396
  0
ARC
  8
0
  6
CONTINUOUS
 10
333.849762
 20
119.943977
 40
5.000000
 50
0.000000
 51
55.304981
  0
ARC
  8
0
  6
CONTINUOUS
 10
333.550385
 20
132.313766
 40
5.000000
 50
235.304794
 51
270.000000
  0
ARC
  8
0
  6
CONTINUOUS
 10
340.849762
 20
119.563759
 40
2.000000
 50
180.000000
 51
270.000000
  0
LINE
  8
0
  6
CONTINUOUS
 10
344.099762
 20
20.313660
 11
344.099762
 21
115.563759
  0
ARC
  8
0
  6
CONTINUOUS
 10
346.099762
 20
115.563782
 40
2.000000
 50
90.000000
 51
180.000000
  0
ARC
  8
0
  6
CONTINUOUS
 10
346.099762
 20
24.536301
 40
2.000000
 50
180.000000
 51
270.315186
  0
LINE
  8
0
  6
CONTINUOUS
 10
343.508972
 20
22.158899
 11
343.306183
 21
22.158899
  0
ARC
  8
0
  6
CONTINUOUS
 10
343.508972
 20
21.658899
 40
0.500000
 50
3.814180
 51
90.000000
  0
ARC
  8
0
  6
CONTINUOUS
 10
339.099762
 20
31.063740
 40
5.000000
 50
0.000000
 51
90.000000
  0
ARC
  8
0
  6
CONTINUOUS
 10
266.349762
 20
60.203091
 40
30.000000
 50
180.000000
 51
228.189606
  0
LINE
  8
0
  6
CONTINUOUS
 10
278.849762
 20
103.563759
 11
278.849762
 21
97.563759
  0
LINE
  8
0
  6
CONTINUOUS
 10
272.849762
 20
103.563759
 11
272.849762
 21
97.563759
  0
LINE
  8
0
  6
CONTINUOUS
 10
272.849762
 20
103.563759
 11
278.849762
 21
103.563759
  0
LINE
  8
0
  6
CONTINUOUS
 10
272.849762
 20
97.563759
 11
278.849762
 21
97.563759
  0
ARC
  8
0
  6
CONTINUOUS
 10
286.349762
 20
100.563759
 40
11.000000
 50
-164.173401
 51
164.173401
  0
LINE
  8
0
  6
CONTINUOUS
 10
351.099762
 20
127.563873
 11
351.099762
 21
12.563873
  0
LINE
  8
0
  6
CONTINUOUS
 10
302.012970
 20
48.813782
 11
302.349762
 21
48.813782
  0
LINE
  8
0
  6
CONTINUOUS
 10
302.349762
 20
48.813782
 11
302.349762
 21
47.563782
  0
LINE
  8
0
  6
CENTER
 10
224.614182
 20
311.738770
 11
553.268677
 21
311.738770
  0
LINE
  8
0
  6
CONTINUOUS
 10
348.599762
 20
368.988770
 11
351.099762
 21
368.988770
  0
LINE
  8
0
  6
CONTINUOUS
 10
346.582367
 20
254.488754
 11
351.099762
 21
254.488754
  0
LINE
  8
0
  6
CONTINUOUS
 10
343.849762
 20
368.988770
 11
351.099762
 21
368.988770
  0
LINE
  8
0
  6
CONTINUOUS
 10
342.395569
 20
343.738770
 11
351.099762
 21
343.738770
  0
LINE
  8
0
  6
CONTINUOUS
 10
343.833160
 20
359.238770
 11
351.099762
 21
359.238770
  0
LINE
  8
0
  6
CONTINUOUS
 10
345.739380
 20
264.238770
 11
351.099762
 21
264.238770
  0
LINE
  8
0
  6
CONTINUOUS
 10
351.099762
 20
279.738770
 11
234.310974
 21
279.738770
  0
LINE
  8
0
  6
CONTINUOUS
 10
345.582581
 20
255.471252
 11
345.244690
 21
274.826019
  0
ARC
  8
0
  6
CONTINUOUS
 10
346.582489
 20
255.488754
 40
1.000000
 50
181.000702
 51
270.000000
  0
ARC
  8
0
  6
CONTINUOUS
 10
340.245361
 20
274.738770
 40
5.000000
 50
1.000200
 51
90.000000
  0
LINE
  8
0
  6
CONTINUOUS
 10
351.099762
 20
254.238754
 11
351.099762
 21
369.238770
  0
LINE
  8
0
  6
CONTINUOUS
 10
229.349777
 20
369.738770
 11
343.349762
 21
369.738770
  0
LINE
  8
0
  6
CONTINUOUS
 10
306.349762
 20
279.738770
 11
306.349762
 21
356.936462
  0
LINE
  8
0
  6
CONTINUOUS
 10
266.349762
 20
279.738770
 11
266.349762
 21
356.936462
  0
LINE
  8
0
  6
CONTINUOUS
 10
232.811478
 20
281.199463
 11
230.827774
 21
356.936462
  0
ARC
  8
0
  6
CONTINUOUS
 10
234.311081
 20
281.238770
 40
1.500000
 50
181.500198
 51
270.000000
  0
LINE
  8
0
  6
CONTINUOUS
 10
342.349762
 20
357.738770
 11
230.638275
 21
357.738770
  0
LINE
  8
0
  6
CONTINUOUS
 10
343.349762
 20
358.738770
 11
343.349762
 21
369.738770
  0
LINE
  8
0
  6
CONTINUOUS
 10
229.349777
 20
369.738770
 11
229.638580
 21
358.712555
  0
ARC
  8
0
  6
CONTINUOUS
 10
230.638275
 20
358.738770
 40
1.000000
 50
181.500107
 51
270.000000
  0
ARC
  8
0
  6
CONTINUOUS
 10
229.828369
 20
356.910248
 40
1.000000
 50
1.500400
 51
66.108803
  0
ARC
  8
0
  6
CONTINUOUS
 10
343.849762
 20
369.488770
 40
0.500000
 50
180.000000
 51
270.000000
  0
LINE
  8
0
  6
CENTER
 10
427.141235
 20
70.063759
 11
319.156006
 21
70.063759
  0
LINE
  8
0
  6
CONTINUOUS
 10
351.099762
 20
127.563759
 11
351.099762
 21
12.563760
  0
LINE
  8
0
  6
CENTER
 10
70.357201
 20
-4.267500
 11
70.357201
 21
163.761719
  0
LINE
  8
0
  6
CENTER
 10
1.932745
 20
70.063759
 11
136.617004
 21
70.063759
  0
LINE
  8
0
  6
CENTER
 10
1.932745
 20
100.563759
 11
169.199997
 21
100.563759
  0
LINE
  8
0
  6
CONTINUOUS
 10
12.357400
 20
100.563759
 11
12.357400
 21
10.563740
  0
LINE
  8
0
  6
CONTINUOUS
 10
24.357401
 20
100.563759
 11
24.357401
 21
152.563766
  0
LINE
  8
0
  6
CONTINUOUS
 10
22.439199
 20
154.563766
 11
12.357400
 21
154.563766
  0
LINE
  8
0
  6
CONTINUOUS
 10
22.439199
 20
10.563780
 11
12.357400
 21
10.563780
  0
LINE
  8
0
  6
CONTINUOUS
 10
102.357201
 20
21.046440
 11
102.357201
 21
144.081085
  0
LINE
  8
0
  6
CONTINUOUS
 10
101.375000
 20
145.080933
 11
26.322599
 21
146.390640
  0
LINE
  8
0
  6
CONTINUOUS
 10
101.375000
 20
20.046619
 11
26.322599
 21
18.736300
  0
LINE
  8
0
  6
CONTINUOUS
 10
26.266399
 20
122.563744
 11
101.290001
 21
122.563744
  0
LINE
  8
0
  6
CONTINUOUS
 10
26.266399
 20
42.563759
 11
100.967003
 21
42.563759
  0
LINE
  8
0
  6
CONTINUOUS
 10
24.854000
 20
12.416740
 11
25.963200
 21
16.556580
  0
LINE
  8
0
  6
CONTINUOUS
 10
24.854000
 20
152.710846
 11
25.963400
 21
148.570312
  0
ARC
  8
0
  6
CONTINUOUS
 10
28.861200
 20
149.346848
 40
3.000000
 50
195.000702
 51
269.000488
  0
ARC
  8
0
  6
CONTINUOUS
 10
22.357401
 20
152.563766
 40
2.000000
 50
0.000000
 51
90.000000
  0
ARC
  8
0
  6
CONTINUOUS
 10
26.357401
 20
148.390366
 40
2.000000
 50
180.000000
 51
269.000610
  0
ARC
  8
0
  6
CONTINUOUS
 10
28.861000
 20
15.780140
 40
3.000000
 50
91.000526
 51
165.000305
  0
ARC
  8
0
  6
CONTINUOUS
 10
26.357401
 20
16.736620
 40
2.000000
 50
91.000633
 51
180.000000
  0
ARC
  8
0
  6
CONTINUOUS
 10
22.357401
 20
12.563780
 40
2.000000
 50
-90.000000
 51
0.000000
  0
ARC
  8
0
  6
CONTINUOUS
 10
101.357201
 20
144.081085
 40
1.000000
 50
0.000000
 51
89.000359
  0
ARC
  8
0
  6
CONTINUOUS
 10
101.357201
 20
21.046440
 40
1.000000
 50
-88.999573
 51
0.000000
  0
LINE
  8
0
  6
CENTER
 10
6.863600
 20
142.563766
 11
29.500200
 21
142.563766
  0
LINE
  8
0
  6
CENTER
 10
6.863600
 20
22.563740
 11
29.500200
 21
22.563740
  0
LINE
  8
0
  6
DASHED
 10
12.357400
 20
148.063766
 11
24.357401
 21
148.063766
  0
LINE
  8
0
  6
DASHED
 10
12.357400
 20
137.063766
 11
24.357401
 21
137.063766
  0
LINE
  8
0
  6
DASHED
 10
12.357400
 20
28.063740
 11
24.357401
 21
28.063740
  0
LINE
  8
0
  6
DASHED
 10
12.357400
 20
17.063740
 11
24.357401
 21
17.063740
  0
LINE
  8
0
  6
CONTINUOUS
 10
118.357201
 20
75.370911
 11
118.357201
 21
125.756599
  0
LINE
  8
0
  6
CONTINUOUS
 10
108.357201
 20
42.368599
 11
108.357201
 21
102.633743
  0
LINE
  8
0
  6
CONTINUOUS
 10
116.127602
 20
128.656036
 11
104.587402
 21
131.721436
  0
LINE
  8
0
  6
CONTINUOUS
 10
116.127602
 20
72.471458
 11
110.586998
 21
70.999802
  0
LINE
  8
0
  6
CONTINUOUS
 10
106.130402
 20
39.469921
 11
104.584396
 21
39.057621
  0
ARC
  8
0
  6
CONTINUOUS
 10
115.357201
 20
125.756599
 40
3.000000
 50
0.000000
 51
75.124413
  0
ARC
  8
0
  6
CONTINUOUS
 10
115.357201
 20
75.370911
 40
3.000000
 50
-75.124207
 51
0.000000
  0
ARC
  8
0
  6
CONTINUOUS
 10
105.357201
 20
42.368599
 40
3.000000
 50
-75.068420
 51
0.000000
  0
ARC
  8
0
  6
CONTINUOUS
 10
105.357201
 20
134.620926
 40
3.000000
 50
180.000000
 51
255.124603
  0
ARC
  8
0
  6
CONTINUOUS
 10
111.357201
 20
68.100365
 40
3.000000
 50
104.876099
 51
180.000000
  0
ARC
  8
0
  6
CONTINUOUS
 10
105.357201
 20
36.158920
 40
3.000000
 50
104.931801
 51
180.000000
  0
LINE
  8
0
  6
CONTINUOUS
 10
117.857201
 20
27.563740
 11
117.857201
 21
36.615101
  0
LINE
  8
0
  6
CONTINUOUS
 10
112.857201
 20
22.563740
 11
103.806198
 21
22.563740
  0
ARC
  8
0
  6
CONTINUOUS
 10
70.357201
 20
70.063759
 40
57.250000
 50
-32.501888
 51
19.914110
  0
ARC
  8
0
  6
CONTINUOUS
 10
70.357201
 20
70.063759
 40
57.250000
 50
243.004898
 51
298.995514
  0
ARC
  8
0
  6
CONTINUOUS
 10
112.857201
 20
27.563740
 40
5.000000
 50
-90.000000
 51
0.000000
  0
ARC
  8
0
  6
CONTINUOUS
 10
122.857201
 20
36.615101
 40
5.000000
 50
147.498093
 51
180.000000
  0
ARC
  8
0
  6
CONTINUOUS
 10
103.806198
 20
17.563740
 40
5.000000
 50
90.000000
 51
106.842003
  0
LINE
  8
0
  6
CONTINUOUS
 10
12.357400
 20
154.563766
 11
12.357400
 21
100.563759
  0
LINE
  8
0
  6
CONTINUOUS
 10
24.357401
 20
12.563780
 11
24.357401
 21
100.563759
  0
LINE
  8
0
  6
CONTINUOUS
 10
160.357193
 20
89.563759
 11
160.357193
 21
111.563744
  0
LINE
  8
0
  6
CONTINUOUS
 10
120.357201
 20
111.563744
 11
160.357193
 21
111.563744
  0
LINE
  8
0
  6
CONTINUOUS
 10
120.357201
 20
89.563759
 11
160.357193
 21
89.563759
  0
LINE
  8
0
  6
CONTINUOUS
 10
120.357201
 20
113.063744
 11
120.357201
 21
88.063759
  0
LINE
  8
0
  6
CONTINUOUS
 10
118.357201
 20
113.063744
 11
120.357201
 21
113.063744
  0
LINE
  8
0
  6
CONTINUOUS
 10
118.357201
 20
88.063759
 11
120.357201
 21
88.063759
  0
ARC
  8
0
  6
CONTINUOUS
 10
128.357193
 20
100.563759
 40
3.000000
 50
90.000000
 51
270.000000
  0
LINE
  8
0
  6
CONTINUOUS
 10
128.357193
 20
103.563744
 11
160.357193
 21
103.563744
  0
LINE
  8
0
  6
CONTINUOUS
 10
128.357193
 20
97.563759
 11
160.357193
 21
97.563759
  0
ARC
  8
0
  6
CONTINUOUS
 10
22.439199
 20
152.063766
 40
2.500000
 50
15.000760
 51
90.000000
  0
ARC
  8
0
  6
CONTINUOUS
 10
22.439199
 20
13.063780
 40
2.500000
 50
270.000000
 51
345.000214
  0
ARC
  8
0
  6
CONTINUOUS
 10
70.357201
 20
70.063759
 40
57.499821
 50
303.815704
 51
303.996307
  0
ARC
  8
0
  6
CONTINUOUS
 10
70.357201
 20
70.063759
 40
57.500000
 50
242.540298
 51
299.460602
  0
ARC
  8
0
  6
CONTINUOUS
 10
70.357201
 20
70.063759
 40
57.500000
 50
-33.996769
 51
19.823891
  0
ARC
  8
0
  6
CONTINUOUS
 10
70.357201
 20
70.063759
 40
57.500000
 50
303.815613
 51
303.997314
  0
LINE
  8
0
  6
CONTINUOUS
 10
339.888062
 20
281.199493
 11
340.090790
 21
288.938751
  0
ARC
  8
0
  6
CONTINUOUS
 10
338.388580
 20
281.238770
 40
1.500000
 50
270.000000
 51
358.499664
  0
ARC
  8
0
  6
CONTINUOUS
 10
342.349762
 20
358.738770
 40
1.000000
 50
-90.000000
 51
0.000000
  0
ARC
  8
0
  6
CONTINUOUS
 10
342.868744
 20
356.807251
 40
1.000000
 50
105.039177
 51
178.499649
  0
LINE
  8
0
  6
CENTER
 10
286.349762
 20
215.537064
 11
286.349762
 21
382.858765
  0
LINE
  8
0
  6
CONTINUOUS
 10
311.542633
 20
263.738770
 11
261.156921
 21
263.738770
  0
LINE
  8
0
  6
CONTINUOUS
 10
256.193512
 20
273.738770
 11
252.906677
 21
273.738770
  0
ARC
  8
0
  6
CONTINUOUS
 10
261.156921
 20
266.738770
 40
3.000000
 50
-165.124313
 51
-90.000000
  0
LINE
  8
0
  6
CONTINUOUS
 10
250.007217
 20
275.968597
 11
249.598083
 21
277.508911
  0
ARC
  8
0
  6
CONTINUOUS
 10
252.906677
 20
276.738770
 40
3.000000
 50
-165.124313
 51
-90.000000
  0
ARC
  8
0
  6
CONTINUOUS
 10
246.698624
 20
276.738770
 40
3.000000
 50
14.875682
 51
90.000000
  0
LINE
  8
0
  6
CONTINUOUS
 10
256.193512
 20
273.738770
 11
258.257477
 21
265.968597
  0
LINE
  8
0
  6
CONTINUOUS
 10
322.692322
 20
275.968597
 11
323.101471
 21
277.508942
  0
ARC
  8
0
  6
CONTINUOUS
 10
319.792877
 20
276.738770
 40
3.000000
 50
270.000000
 51
345.124329
  0
ARC
  8
0
  6
CONTINUOUS
 10
326.000946
 20
276.738770
 40
3.000000
 50
90.000000
 51
165.124313
  0
LINE
  8
0
  6
CONTINUOUS
 10
316.506012
 20
273.738770
 11
319.792877
 21
273.738770
  0
ARC
  8
0
  6
CONTINUOUS
 10
311.542633
 20
266.738770
 40
3.000000
 50
270.000000
 51
345.124329
  0
LINE
  8
0
  6
CONTINUOUS
 10
316.506012
 20
273.738770
 11
314.442078
 21
265.968597
  0
LINE
  8
0
  6
CONTINUOUS
 10
297.349762
 20
221.738754
 11
272.849762
 21
221.738754
  0
LINE
  8
0
  6
CONTINUOUS
 10
275.349762
 20
261.738770
 11
275.349762
 21
256.738770
  0
LINE
  8
0
  6
CONTINUOUS
 10
297.349762
 20
261.738770
 11
297.349762
 21
221.738754
  0
LINE
  8
0
  6
CONTINUOUS
 10
273.849762
 20
263.738770
 11
273.849762
 21
261.738770
  0
LINE
  8
0
  6
CONTINUOUS
 10
298.849762
 20
263.738770
 11
298.849762
 21
261.738770
  0
LINE
  8
0
  6
CONTINUOUS
 10
298.849762
 20
261.738770
 11
273.849762
 21
261.738770
  0
LINE
  8
0
  6
CONTINUOUS
 10
272.849762
 20
256.738770
 11
272.849762
 21
221.738754
  0
LINE
  8
0
  6
CONTINUOUS
 10
275.766754
 20
221.738754
 11
275.766754
 21
256.738770
  0
LINE
  8
0
  6
CONTINUOUS
 10
275.766754
 20
256.738770
 11
272.849762
 21
256.738770
  0
ARC
  8
0
  6
CONTINUOUS
 10
401.534180
 20
310.145081
 40
65.000000
 50
157.957932
 51
199.041382
  0
LINE
  8
0
  6
CONTINUOUS
 10
341.285126
 20
334.538757
 11
341.869080
 21
356.833435
  0
LINE
  8
0
  6
CONTINUOUS
 10
517.099792
 20
21.063780
 11
517.099792
 21
97.063759
  0
LINE
  8
0
  6
CONTINUOUS
 10
517.099792
 20
97.063744
 11
403.099792
 21
97.063744
  0
LINE
  8
0
  6
CONTINUOUS
 10
517.099792
 20
21.063780
 11
403.099792
 21
21.063780
  0
LINE
  8
0
  6
CONTINUOUS
 10
517.099792
 20
89.312737
 11
411.099792
 21
89.312737
  0
LINE
  8
0
  6
CONTINUOUS
 10
517.099792
 20
28.814779
 11
411.099792
 21
28.814779
  0
LINE
  8
0
  6
CONTINUOUS
 10
411.099792
 20
95.063744
 11
411.099792
 21
23.063761
  0
ARC
  8
0
  6
CONTINUOUS
 10
409.099792
 20
95.063759
 40
2.000000
 50
0.000000
 51
90.000000
  0
ARC
  8
0
  6
CONTINUOUS
 10
409.099792
 20
23.063780
 40
2.000000
 50
-90.000000
 51
0.000000
  0
LINE
  8
0
  6
CONTINUOUS
 10
537.599792
 20
27.063761
 11
537.599792
 21
91.063759
  0
LINE
  8
0
  6
CONTINUOUS
 10
533.635742
 20
97.063759
 11
517.099792
 21
97.063759
  0
LINE
  8
0
  6
CONTINUOUS
 10
533.635681
 20
21.063761
 11
517.099792
 21
21.063761
  0
LINE
  8
0
  6
CONTINUOUS
 10
537.099792
 20
24.063761
 11
537.099792
 21
94.063759
  0
LINE
  8
0
  6
CONTINUOUS
 10
537.599792
 20
91.063759
 11
537.099792
 21
91.563759
  0
LINE
  8
0
  6
CONTINUOUS
 10
537.599792
 20
27.063761
 11
537.099792
 21
26.563761
  0
LINE
  8
0
  6
CONTINUOUS
 10
536.233765
 20
95.563744
 11
537.099792
 21
94.063759
  0
ARC
  8
0
  6
CONTINUOUS
 10
533.635681
 20
94.063782
 40
3.000000
 50
29.999599
 51
90.000000
  0
LINE
  8
0
  6
CONTINUOUS
 10
536.233765
 20
22.563780
 11
537.099792
 21
24.063761
  0
ARC
  8
0
  6
CONTINUOUS
 10
533.635681
 20
24.063761
 40
3.000000
 50
270.000000
 51
330.000397
  0
LINE
  8
0
  6
CONTINUOUS
 10
535.518188
 20
89.312767
 11
517.099792
 21
89.312767
  0
LINE
  8
0
  6
CONTINUOUS
 10
517.099792
 20
28.814760
 11
535.518188
 21
28.814760
  0
LINE
  8
0
  6
CONTINUOUS
 10
361.512543
 20
98.516022
 11
403.099792
 21
97.063759
  0
LINE
  8
0
  6
CONTINUOUS
 10
351.099792
 20
19.247881
 11
403.099792
 21
21.063761
  0
LINE
  8
0
  6
CONTINUOUS
 10
359.099792
 20
126.563759
 11
359.099792
 21
99.563759
  0
LINE
  8
0
  6
CONTINUOUS
 10
358.099792
 20
127.563759
 11
351.099762
 21
127.563759
  0
LINE
  8
0
  6
CONTINUOUS
 10
356.599792
 20
12.563760
 11
351.099792
 21
12.563760
  0
LINE
  8
0
  6
CONTINUOUS
 10
359.099792
 20
100.063759
 11
359.099792
 21
29.151104
  0
LINE
  8
0
  6
CONTINUOUS
 10
403.099792
 20
97.063759
 11
403.099792
 21
21.063761
  0
LINE
  8
0
  6
CONTINUOUS
 10
360.512909
 20
110.381561
 11
386.456360
 21
97.857155
  0
ARC
  8
0
  6
CONTINUOUS
 10
358.099792
 20
126.563759
 40
1.000000
 50
0.000000
 51
90.000000
  0
ARC
  8
0
  6
CONTINUOUS
 10
361.599792
 20
112.632942
 40
2.500000
 50
180.000000
 51
244.230682
  0
ARC
  8
0
  6
CONTINUOUS
 10
361.599792
 20
101.014496
 40
2.500000
 50
180.000000
 51
268.000000
  0
ARC
  8
0
  6
CONTINUOUS
 10
387.543213
 20
100.108528
 40
2.500000
 50
-115.769325
 51
-92.000000
  0
LINE
  8
0
  6
CONTINUOUS
 10
357.974731
 20
26.909760
 11
351.099792
 21
26.909760
  0
LINE
  8
0
  6
CONTINUOUS
 10
359.099792
 20
15.063760
 11
359.099792
 21
17.113024
  0
ARC
  8
0
  6
CONTINUOUS
 10
356.599792
 20
15.063760
 40
2.500000
 50
-90.000000
 51
0.000000
  0
ARC
  8
0
  6
CONTINUOUS
 10
361.599792
 20
17.113024
 40
2.500000
 50
92.000000
 51
180.000000
  0
LINE
  8
0
  6
CENTER
 10
549.674805
 20
59.063759
 11
318.349792
 21
59.063759
  0
LINE
  8
0
  6
CONTINUOUS
 10
356.599762
 20
369.238770
 11
351.099762
 21
369.238770
  0
LINE
  8
0
  6
CONTINUOUS
 10
356.599762
 20
254.238754
 11
351.099762
 21
254.238754
  0
LINE
  8
0
  6
CONTINUOUS
 10
359.099762
 20
366.738770
 11
359.099762
 21
256.738770
  0
LINE
  8
0
  6
CONTINUOUS
 10
403.099762
 20
273.738770
 11
403.099762
 21
349.738770
  0
LINE
  8
0
  6
CONTINUOUS
 10
361.512512
 20
272.286499
 11
403.099762
 21
273.738770
  0
LINE
  8
0
  6
CONTINUOUS
 10
361.512512
 20
351.191010
 11
403.099762
 21
349.738770
  0
ARC
  8
0
  6
CONTINUOUS
 10
356.599762
 20
256.738770
 40
2.500000
 50
-90.000000
 51
0.000000
  0
ARC
  8
0
  6
CONTINUOUS
 10
356.599762
 20
366.738770
 40
2.500000
 50
0.000000
 51
90.000000
  0
LINE
  8
0
  6
CONTINUOUS
 10
403.099762
 20
273.738770
 11
403.099762
 21
349.738770
  0
LINE
  8
0
  6
CONTINUOUS
 10
517.099670
 20
349.738739
 11
517.099670
 21
336.738770
  0
LINE
  8
0
  6
CONTINUOUS
 10
517.099670
 20
273.738770
 11
403.099640
 21
273.738770
  0
LINE
  8
0
  6
CONTINUOUS
 10
517.099670
 20
349.738739
 11
403.099640
 21
349.738739
  0
LINE
  8
0
  6
CONTINUOUS
 10
411.099640
 20
275.738770
 11
411.099640
 21
288.738770
  0
ARC
  8
0
  6
CONTINUOUS
 10
409.099640
 20
275.738770
 40
2.000000
 50
-90.000000
 51
0.000000
  0
ARC
  8
0
  6
CONTINUOUS
 10
409.099640
 20
347.738739
 40
2.000000
 50
0.000000
 51
90.000000
  0
LINE
  8
0
  6
CONTINUOUS
 10
537.599670
 20
343.738770
 11
537.599670
 21
279.738770
  0
LINE
  8
0
  6
CONTINUOUS
 10
533.635559
 20
273.738770
 11
517.099670
 21
273.738770
  0
LINE
  8
0
  6
CONTINUOUS
 10
533.635559
 20
349.738770
 11
517.099670
 21
349.738770
  0
LINE
  8
0
  6
CONTINUOUS
 10
537.099670
 20
346.738770
 11
537.099670
 21
276.738770
  0
LINE
  8
0
  6
CONTINUOUS
 10
537.599670
 20
279.738770
 11
537.099670
 21
279.238770
  0
LINE
  8
0
  6
CONTINUOUS
 10
537.599670
 20
343.738770
 11
537.099670
 21
344.238770
  0
LINE
  8
0
  6
CONTINUOUS
 10
536.233643
 20
275.238770
 11
537.099670
 21
276.738770
  0
ARC
  8
0
  6
CONTINUOUS
 10
533.635559
 20
276.738739
 40
3.000000
 50
270.000000
 51
330.000397
  0
LINE
  8
0
  6
CONTINUOUS
 10
536.233643
 20
348.238739
 11
537.099670
 21
346.738770
  0
ARC
  8
0
  6
CONTINUOUS
 10
533.635559
 20
346.738770
 40
3.000000
 50
29.999599
 51
90.000000
  0
LINE
  8
0
  6
CONTINUOUS
 10
476.099670
 20
288.738770
 11
411.099640
 21
288.738770
  0
LINE
  8
0
  6
CONTINUOUS
 10
526.099670
 20
288.738770
 11
535.518005
 21
288.738770
  0
LINE
  8
0
  6
CONTINUOUS
 10
476.099670
 20
334.738770
 11
411.099640
 21
334.738770
  0
LINE
  8
0
  6
CONTINUOUS
 10
526.099670
 20
334.738770
 11
535.518005
 21
334.738770
  0
LINE
  8
0
  6
CONTINUOUS
 10
411.099640
 20
334.738770
 11
411.099640
 21
347.738770
  0
LINE
  8
0
  6
CONTINUOUS
 10
517.099670
 20
286.738770
 11
517.099670
 21
273.738770
  0
ARC
  8
0
  6
CONTINUOUS
 10
371.930145
 20
311.738770
 40
15.000000
 50
-49.252373
 51
49.252373
  0
LINE
  8
0
  6
CONTINUOUS
 10
359.967957
 20
281.632782
 11
381.721069
 21
300.374878
  0
LINE
  8
0
  6
CONTINUOUS
 10
359.967957
 20
341.844757
 11
381.721069
 21
323.102631
  0
ARC
  8
0
  6
CONTINUOUS
 10
361.599762
 20
279.738800
 40
2.500000
 50
130.747620
 51
180.000000
  0
ARC
  8
0
  6
CONTINUOUS
 10
361.599762
 20
269.788025
 40
2.500000
 50
92.000000
 51
180.000000
  0
ARC
  8
0
  6
CONTINUOUS
 10
361.599762
 20
343.738739
 40
2.500000
 50
180.000000
 51
229.252380
  0
ARC
  8
0
  6
CONTINUOUS
 10
361.599762
 20
353.689484
 40
2.500000
 50
180.000000
 51
268.000000
  0
LINE
  8
0
  6
CONTINUOUS
 10
527.099670
 20
304.238770
 11
526.099670
 21
304.238770
  0
ARC
  8
0
  6
CONTINUOUS
 10
527.099609
 20
305.238770
 40
1.000000
 50
-90.000000
 51
0.000000
  0
LINE
  8
0
  6
CONTINUOUS
 10
531.599609
 20
307.738770
 11
531.599609
 21
315.738770
  0
LINE
  8
0
  6
CONTINUOUS
 10
531.599609
 20
307.738770
 11
528.099609
 21
306.238770
  0
LINE
  8
0
  6
CONTINUOUS
 10
531.599670
 20
315.738770
 11
528.099670
 21
317.238770
  0
LINE
  8
0
  6
CONTINUOUS
 10
528.099609
 20
305.238770
 11
528.099609
 21
318.238770
  0
LINE
  8
0
  6
CONTINUOUS
 10
527.099670
 20
319.238770
 11
526.099670
 21
319.238770
  0
ARC
  8
0
  6
CONTINUOUS
 10
527.099609
 20
318.238770
 40
1.000000
 50
0.000000
 51
90.000000
  0
LINE
  8
0
  6
CONTINUOUS
 10
526.099670
 20
334.738770
 11
526.099670
 21
288.738770
  0
LINE
  8
0
  6
CONTINUOUS
 10
524.099670
 20
286.738770
 11
526.099670
 21
288.738770
  0
LINE
  8
0
  6
CONTINUOUS
 10
524.099670
 20
286.738770
 11
478.099670
 21
286.738770
  0
LINE
  8
0
  6
CONTINUOUS
 10
483.599640
 20
291.238770
 11
483.599640
 21
286.738770
  0
ARC
  8
0
  6
CONTINUOUS
 10
480.599640
 20
291.238770
 40
3.000000
 50
0.000000
 51
90.000000
  0
LINE
  8
0
  6
CONTINUOUS
 10
480.599640
 20
294.238770
 11
476.099670
 21
294.238770
  0
CIRCLE
  8
0
  6
CONTINUOUS
 10
479.599640
 20
290.238770
 40
2.250000
  0
LINE
  8
0
  6
CONTINUOUS
 10
476.099670
 20
334.738770
 11
476.099670
 21
288.738770
  0
LINE
  8
0
  6
CONTINUOUS
 10
478.099670
 20
286.738770
 11
476.099670
 21
288.738770
  0
LINE
  8
0
  6
CONTINUOUS
 10
478.099670
 20
336.738770
 11
476.099670
 21
334.738770
  0
LINE
  8
0
  6
CONTINUOUS
 10
478.099670
 20
336.738770
 11
524.099670
 21
336.738770
  0
LINE
  8
0
  6
CONTINUOUS
 10
526.099670
 20
334.738770
 11
524.099670
 21
336.738770
  0
LINE
  8
0
  6
CONTINUOUS
 10
521.599670
 20
329.238770
 11
526.099670
 21
329.238770
  0
CIRCLE
  8
0
  6
CONTINUOUS
 10
522.599670
 20
333.238770
 40
2.250000
  0
ARC
  8
0
  6
CONTINUOUS
 10
521.599670
 20
332.238770
 40
3.000000
 50
180.000000
 51
270.000000
  0
LINE
  8
0
  6
CONTINUOUS
 10
518.599670
 20
332.238770
 11
518.599670
 21
336.738770
  0
LINE
  8
0
  6
CENTER
 10
501.099640
 20
344.204559
 11
501.099640
 21
280.072540
  0
LINE
  8
0
  6
CONTINUOUS
 10
523.685425
 20
287.738770
 11
525.099670
 21
289.152985
  0
LINE
  8
0
  6
CONTINUOUS
 10
525.099670
 20
329.238770
 11
525.099670
 21
289.152985
  0
LINE
  8
0
  6
CONTINUOUS
 10
483.599640
 20
287.738770
 11
523.685425
 21
287.738770
  0
LINE
  8
0
  6
CONTINUOUS
 10
477.099670
 20
294.238770
 11
477.099670
 21
334.324554
  0
LINE
  8
0
  6
CONTINUOUS
 10
518.599670
 20
335.738770
 11
478.513885
 21
335.738770
  0
LINE
  8
0
  6
CONTINUOUS
 10
478.513885
 20
335.738770
 11
477.099670
 21
334.324554
  0
LINE
  8
0
  6
CONTINUOUS
 10
524.599792
 20
98.563782
 11
478.099792
 21
98.563782
  0
LINE
  8
0
  6
CONTINUOUS
 10
476.099792
 20
128.563782
 11
476.099792
 21
100.563782
  0
LINE
  8
0
  6
CONTINUOUS
 10
526.099792
 20
128.563782
 11
526.099792
 21
100.563782
  0
LINE
  8
0
  6
CONTINUOUS
 10
528.099792
 20
110.563782
 11
476.099792
 21
110.563782
  0
LINE
  8
0
  6
CONTINUOUS
 10
478.099792
 20
98.563782
 11
476.099792
 21
100.563782
  0
LINE
  8
0
  6
CONTINUOUS
 10
526.099792
 20
100.563782
 11
524.099792
 21
98.563782
  0
LINE
  8
0
  6
CONTINUOUS
 10
526.099792
 20
100.563782
 11
476.099792
 21
100.563782
  0
LINE
  8
0
  6
CONTINUOUS
 10
525.099792
 20
129.563782
 11
477.099792
 21
129.563782
  0
LINE
  8
0
  6
CONTINUOUS
 10
477.099792
 20
129.563782
 11
476.099792
 21
128.563782
  0
LINE
  8
0
  6
CONTINUOUS
 10
525.099792
 20
129.563782
 11
526.099792
 21
128.563782
  0
LINE
  8
0
  6
CONTINUOUS
 10
526.099792
 20
128.563782
 11
476.099792
 21
128.563782
  0
LINE
  8
0
  6
CENTER
 10
534.043579
 20
120.063782
 11
521.968567
 21
120.063782
  0
LINE
  8
0
  6
CONTINUOUS
 10
528.099792
 20
126.563782
 11
528.099792
 21
110.563782
  0
LINE
  8
0
  6
CONTINUOUS
 10
527.099792
 20
127.563782
 11
526.099792
 21
127.563782
  0
ARC
  8
0
  6
CONTINUOUS
 10
527.099792
 20
126.563782
 40
1.000000
 50
0.000000
 51
90.000000
  0
LINE
  8
0
  6
CONTINUOUS
 10
531.599792
 20
124.063782
 11
531.599792
 21
116.063782
  0
LINE
  8
0
  6
CONTINUOUS
 10
531.599792
 20
124.063782
 11
528.099792
 21
125.563782
  0
LINE
  8
0
  6
CONTINUOUS
 10
531.599792
 20
116.063782
 11
528.099792
 21
114.563782
  0
LINE
  8
0
  6
CENTER
 10
501.099792
 20
93.870033
 11
501.099792
 21
134.951279
  0
LINE
  8
0
  6
CONTINUOUS
 10
524.599792
 20
98.563782
 11
524.599792
 21
97.063782
  0
LINE
  8
0
  6
CONTINUOUS
 10
478.599792
 20
98.563782
 11
478.599792
 21
97.063782
  0
LINE
  8
0
  6
DASHED
 10
246.849701
 20
369.738770
 11
246.849701
 21
357.738770
  0
LINE
  8
0
  6
CENTER
 10
241.349701
 20
372.932495
 11
241.349701
 21
354.098114
  0
LINE
  8
0
  6
DASHED
 10
235.849701
 20
369.738770
 11
235.849701
 21
357.738770
  0
LINE
  8
0
  6
DASHED
 10
325.849854
 20
369.738770
 11
325.849854
 21
357.738770
  0
LINE
  8
0
  6
CENTER
 10
331.349854
 20
372.932495
 11
331.349854
 21
354.098114
  0
LINE
  8
0
  6
DASHED
 10
336.849854
 20
369.738770
 11
336.849854
 21
357.738770
  0
LINE
  8
0
  6
CONTINUOUS
 10
359.099792
 20
49.663761
 11
403.099792
 21
49.663761
  0
LINE
  8
0
  6
CONTINUOUS
 10
359.099792
 20
39.463760
 11
403.099792
 21
39.463760
  0
TEXT
  8
0
 10
-25.000000
 20
-4.000000
 40
4.000000
 41
1.000000
  1
HFM-22L-300~900-S25WT
 50
0.000000
  0
ENDSEC
  0
EOF
