  0
SECTION
  2
HEADER
  9
$CLAYER
  8
1
  9
$LTSCALE
 40
3.0
  0
ENDSEC
  0
SECTION
  2
TABLES
  0
TABLE
  2
LTYPE
 70
     4
  0
LTYPE
  2
CONTINUOUS
  3
solid line
 70
    64
 72
    65
 73
     0
 40
0.0
  0
LTYPE
  2
DASHED
  3
__ __ __ __ __ __ __ __ __ __ __ __ __ __ __
 70
    64
 72
    65
 73
     2
 40
0.75
 49
0.5
 49
-0.25
  0
LTYPE
  2
CENTER
  3
____ _ ____ _ ____ _ ____ _ ____ _ ____ _ ____
 70
    64
 72
    65
 73
     4
 40
2.0
 49
1.25
 49
-0.25
 49
0.25
 49
-0.25
  0
LTYPE
  2
PHANTOM
  3
_____ _ _ _____ _ _ _____ _ _ _____ _ _ ____
 70
    64
 72
    65
 73
     6
 40
2.5
 49
1.25
 49
-0.25
 49
0.25
 49
-0.25
 49
0.25
 49
-0.25
  0
ENDTAB
  0
TABLE
  2
LAYER
 70
     1
  0
LAYER
  2
0
 70
    64
 62
     7
  6
CONTINUOUS
  0
ENDTAB
  0
TABLE
  2
STYLE
 70
     1
  0
STYLE
  2
STANDARD
 70
     0
 40
0.000000
 41
1.000000
 50
0.000000
 71
     0
 42
3.000000
  3
txt
  4
BIGFONT
  0
ENDTAB
  0
ENDSEC
  0
SECTION
  2
BLOCKS
  0
ENDSEC
  0
SECTION
  2
ENTITIES
  0
LINE
  8
0
  6
CENTER
 10
300.214783
 20
170.380020
 11
300.214783
 21
2.642500
  0
LINE
  8
0
  6
CENTER
 10
349.126587
 20
105.298759
 11
235.145981
 21
105.298759
  0
LINE
  8
0
  6
CONTINUOUS
 10
350.214783
 20
108.798759
 11
350.214783
 21
64.938072
  0
LINE
  8
0
  6
CONTINUOUS
 10
250.214767
 20
109.659439
 11
250.214767
 21
64.938095
  0
ARC
  8
0
  6
CONTINUOUS
 10
300.214783
 20
87.298767
 40
60.000000
 50
48.189610
 51
131.810394
  0
ARC
  8
0
  6
CONTINUOUS
 10
300.214783
 20
87.298767
 40
60.000000
 50
-131.810303
 51
-48.189701
  0
ARC
  8
0
  6
CONTINUOUS
 10
280.214783
 20
109.659439
 40
30.000000
 50
131.810394
 51
180.000000
  0
CIRCLE
  8
0
  6
CONTINUOUS
 10
300.214783
 20
105.298759
 40
27.500000
  0
ARC
  8
0
  6
CONTINUOUS
 10
300.214783
 20
105.298759
 40
31.750000
 50
7.552597
 51
172.447296
  0
ARC
  8
0
  6
CONTINUOUS
 10
316.964783
 20
63.798763
 40
20.600000
 50
-90.000000
 51
7.552597
  0
ARC
  8
0
  6
CONTINUOUS
 10
283.464783
 20
63.798763
 40
20.600000
 50
172.447296
 51
270.000000
  0
LINE
  8
0
  6
CONTINUOUS
 10
268.740173
 20
109.471916
 11
263.043365
 21
66.506393
  0
LINE
  8
0
  6
CONTINUOUS
 10
337.385986
 20
66.506355
 11
331.689178
 21
109.471863
  0
LINE
  8
0
  6
CONTINUOUS
 10
316.964783
 20
43.198761
 11
283.464783
 21
43.198761
  0
ARC
  8
0
  6
CONTINUOUS
 10
316.964783
 20
63.798763
 40
19.000000
 50
-90.000000
 51
7.552399
  0
ARC
  8
0
  6
CONTINUOUS
 10
283.464783
 20
63.798763
 40
19.000000
 50
172.447296
 51
270.000000
  0
ARC
  8
0
  6
CONTINUOUS
 10
300.214783
 20
105.298759
 40
30.150000
 50
-187.552704
 51
7.552612
  0
LINE
  8
0
  6
CONTINUOUS
 10
335.799774
 20
66.296051
 11
330.103180
 21
109.261581
  0
LINE
  8
0
  6
CONTINUOUS
 10
270.326172
 20
109.261620
 11
264.629578
 21
66.296089
  0
LINE
  8
0
  6
CONTINUOUS
 10
316.964783
 20
44.798759
 11
283.464783
 21
44.798759
  0
ARC
  8
0
  6
CONTINUOUS
 10
320.214783
 20
109.659462
 40
30.000000
 50
-1.671204
 51
48.189610
  0
ARC
  8
0
  6
CONTINUOUS
 10
320.214783
 20
64.938072
 40
30.000000
 50
-48.189701
 51
0.000000
  0
LINE
  8
0
  6
CONTINUOUS
 10
364.964783
 20
132.048767
 11
347.415588
 21
132.048767
  0
LINE
  8
0
  6
CONTINUOUS
 10
359.400177
 20
17.548759
 11
364.964783
 21
17.548759
  0
LINE
  8
0
  6
CONTINUOUS
 10
354.714783
 20
122.298759
 11
364.964783
 21
122.298759
  0
LINE
  8
0
  6
CONTINUOUS
 10
359.975586
 20
27.271320
 11
364.964783
 21
27.298761
  0
LINE
  8
0
  6
CONTINUOUS
 10
358.417786
 20
106.758759
 11
364.964783
 21
106.758759
  0
LINE
  8
0
  6
CONTINUOUS
 10
358.417786
 20
42.838760
 11
364.964783
 21
42.838760
  0
LINE
  8
0
  6
CENTER
 10
353.861572
 20
147.298767
 11
336.564789
 21
147.298767
  0
LINE
  8
0
  6
CENTER
 10
263.777161
 20
147.298767
 11
244.770004
 21
147.298767
  0
LINE
  8
0
  6
CENTER
 10
355.007568
 20
27.298759
 11
336.395966
 21
27.298759
  0
LINE
  8
0
  6
CENTER
 10
264.339783
 20
27.298759
 11
244.231873
 21
27.298759
  0
LINE
  8
0
  6
CENTER
 10
255.214767
 20
156.458145
 11
255.214767
 21
138.317505
  0
LINE
  8
0
  6
CENTER
 10
345.214783
 20
156.205017
 11
345.214783
 21
138.739380
  0
LINE
  8
0
  6
CENTER
 10
345.214783
 20
36.476879
 11
345.214783
 21
16.981874
  0
LINE
  8
0
  6
CENTER
 10
255.214767
 20
36.645641
 11
255.214767
 21
16.802500
  0
CIRCLE
  8
0
  6
CONTINUOUS
 10
255.214767
 20
147.298767
 40
5.500000
  0
CIRCLE
  8
0
  6
CONTINUOUS
 10
345.214783
 20
147.298767
 40
5.500000
  0
CIRCLE
  8
0
  6
CONTINUOUS
 10
345.214783
 20
27.298759
 40
5.500000
  0
CIRCLE
  8
0
  6
CONTINUOUS
 10
255.214767
 20
27.298759
 40
5.500000
  0
ARC
  8
0
  6
CONTINUOUS
 10
255.214767
 20
147.298767
 40
12.000000
 50
90.000000
 51
180.000000
  0
ARC
  8
0
  6
CONTINUOUS
 10
345.214783
 20
147.298767
 40
12.000000
 50
0.000000
 51
90.000000
  0
ARC
  8
0
  6
CONTINUOUS
 10
345.214783
 20
27.298759
 40
12.000000
 50
270.000000
 51
358.060608
  0
ARC
  8
0
  6
CONTINUOUS
 10
255.214767
 20
27.298759
 40
12.000000
 50
180.000000
 51
270.000000
  0
LINE
  8
0
  6
CONTINUOUS
 10
255.214767
 20
159.298767
 11
345.214783
 21
159.298767
  0
LINE
  8
0
  6
CONTINUOUS
 10
345.214569
 20
15.298760
 11
255.214767
 21
15.298760
  0
LINE
  8
0
  6
CONTINUOUS
 10
243.214767
 20
147.298767
 11
243.214767
 21
27.298759
  0
LINE
  8
0
  6
CONTINUOUS
 10
357.872772
 20
26.427160
 11
358.402374
 21
18.482241
  0
ARC
  8
0
  6
CONTINUOUS
 10
359.400177
 20
18.548759
 40
1.000000
 50
-176.185806
 51
-90.000000
  0
LINE
  8
0
  6
CONTINUOUS
 10
289.918365
 20
52.298779
 11
285.757965
 21
52.298779
  0
LINE
  8
0
  6
CONTINUOUS
 10
292.214783
 20
59.267521
 11
292.214783
 21
52.298779
  0
LINE
  8
0
  6
CONTINUOUS
 10
296.214783
 20
61.798771
 11
296.214783
 21
64.298767
  0
LINE
  8
0
  6
CONTINUOUS
 10
304.214783
 20
61.798771
 11
304.214783
 21
64.298767
  0
LINE
  8
0
  6
CONTINUOUS
 10
299.433380
 20
62.830021
 11
299.433380
 21
53.611279
  0
LINE
  8
0
  6
CONTINUOUS
 10
300.933380
 20
62.830021
 11
300.933380
 21
53.611279
  0
LINE
  8
0
  6
CONTINUOUS
 10
308.808380
 20
62.830021
 11
308.808380
 21
53.548779
  0
LINE
  8
0
  6
CONTINUOUS
 10
310.183380
 20
57.908146
 11
310.183380
 21
53.548779
  0
LINE
  8
0
  6
CONTINUOUS
 10
290.316589
 20
62.705021
 11
286.461578
 21
62.705021
  0
LINE
  8
0
  6
CONTINUOUS
 10
286.461578
 20
62.705021
 11
285.558380
 21
61.585026
  0
LINE
  8
0
  6
CONTINUOUS
 10
285.666962
 20
64.298767
 11
284.214783
 21
62.439022
  0
LINE
  8
0
  6
CONTINUOUS
 10
285.558380
 20
54.671680
 11
286.476166
 21
53.705021
  0
LINE
  8
0
  6
CONTINUOUS
 10
284.214783
 20
53.855942
 11
285.757965
 21
52.298779
  0
LINE
  8
0
  6
CONTINUOUS
 10
284.214783
 20
62.439022
 11
284.214783
 21
53.855942
  0
LINE
  8
0
  6
CONTINUOUS
 10
285.558380
 20
61.585026
 11
285.558380
 21
54.671680
  0
LINE
  8
0
  6
CONTINUOUS
 10
291.058380
 20
61.987919
 11
290.301361
 21
62.705021
  0
LINE
  8
0
  6
CONTINUOUS
 10
291.046387
 20
64.298767
 11
292.214783
 21
63.002277
  0
LINE
  8
0
  6
CONTINUOUS
 10
291.058380
 20
61.798771
 11
292.214783
 21
61.798771
  0
LINE
  8
0
  6
CONTINUOUS
 10
285.666962
 20
64.298767
 11
291.046387
 21
64.298767
  0
LINE
  8
0
  6
CONTINUOUS
 10
288.964783
 20
59.267521
 11
292.214783
 21
59.267521
  0
LINE
  8
0
  6
CONTINUOUS
 10
291.058380
 20
57.955021
 11
288.964783
 21
57.955021
  0
LINE
  8
0
  6
CONTINUOUS
 10
288.558380
 20
53.705021
 11
286.476166
 21
53.705021
  0
LINE
  8
0
  6
CONTINUOUS
 10
291.058380
 20
56.705021
 11
291.058380
 21
57.705021
  0
ARC
  8
0
  6
CONTINUOUS
 10
288.558380
 20
56.205021
 40
2.500000
 50
-89.999786
 51
0.000109
  0
LINE
  8
0
  6
CONTINUOUS
 10
291.058380
 20
53.255322
 11
291.058380
 21
52.298779
  0
LINE
  8
0
  6
CONTINUOUS
 10
292.214783
 20
63.002277
 11
292.214783
 21
61.798771
  0
LINE
  8
0
  6
CONTINUOUS
 10
291.058380
 20
57.955021
 11
291.058380
 21
56.205021
  0
LINE
  8
0
  6
CONTINUOUS
 10
288.964783
 20
59.267521
 11
288.964783
 21
57.955021
  0
LINE
  8
0
  6
CONTINUOUS
 10
291.058380
 20
52.298779
 11
292.214783
 21
52.298779
  0
LINE
  8
0
  6
CONTINUOUS
 10
291.058380
 20
53.255322
 11
289.918365
 21
52.298779
  0
LINE
  8
0
  6
CONTINUOUS
 10
300.933380
 20
53.611279
 11
301.433380
 21
53.611279
  0
LINE
  8
0
  6
CONTINUOUS
 10
298.839783
 20
53.611279
 11
298.839783
 21
52.298779
  0
LINE
  8
0
  6
CONTINUOUS
 10
301.433380
 20
53.611279
 11
301.433380
 21
52.298779
  0
LINE
  8
0
  6
CONTINUOUS
 10
303.380188
 20
61.798771
 11
304.214783
 21
61.798771
  0
LINE
  8
0
  6
CONTINUOUS
 10
296.214783
 20
61.798771
 11
297.102783
 21
61.798771
  0
LINE
  8
0
  6
CONTINUOUS
 10
296.214783
 20
64.298767
 11
304.214783
 21
64.298767
  0
LINE
  8
0
  6
CONTINUOUS
 10
298.839783
 20
52.298779
 11
301.433380
 21
52.298779
  0
LINE
  8
0
  6
CONTINUOUS
 10
298.839783
 20
53.611279
 11
299.433380
 21
53.611279
  0
ARC
  8
0
  6
CONTINUOUS
 10
313.011566
 20
61.095646
 40
3.203126
 50
-73.981873
 51
90.003510
  0
ARC
  8
0
  6
CONTINUOUS
 10
313.011566
 20
61.095646
 40
1.954124
 50
-82.585274
 51
62.411850
  0
LINE
  8
0
  6
CONTINUOUS
 10
308.214783
 20
64.298767
 11
313.011566
 21
64.298767
  0
LINE
  8
0
  6
CONTINUOUS
 10
313.263763
 20
59.157864
 11
310.183380
 21
59.157864
  0
LINE
  8
0
  6
CONTINUOUS
 10
308.214783
 20
64.298767
 11
308.214783
 21
62.830021
  0
LINE
  8
0
  6
CONTINUOUS
 10
310.183380
 20
62.830021
 11
310.183380
 21
59.157864
  0
LINE
  8
0
  6
CONTINUOUS
 10
313.895386
 20
58.016880
 11
315.877960
 21
53.548779
  0
LINE
  8
0
  6
CONTINUOUS
 10
312.743988
 20
57.908146
 11
314.620178
 21
53.548779
  0
LINE
  8
0
  6
CONTINUOUS
 10
308.214783
 20
53.548779
 11
308.808380
 21
53.548779
  0
LINE
  8
0
  6
CONTINUOUS
 10
310.183380
 20
53.548779
 11
310.730377
 21
53.548779
  0
LINE
  8
0
  6
CONTINUOUS
 10
310.730377
 20
52.298779
 11
308.214783
 21
52.298779
  0
LINE
  8
0
  6
CONTINUOUS
 10
314.370972
 20
53.548779
 11
314.620178
 21
53.548779
  0
LINE
  8
0
  6
CONTINUOUS
 10
314.370972
 20
52.298779
 11
316.214783
 21
52.298779
  0
LINE
  8
0
  6
CONTINUOUS
 10
314.370972
 20
53.548779
 11
314.370972
 21
52.298779
  0
LINE
  8
0
  6
CONTINUOUS
 10
310.730377
 20
53.548779
 11
310.730377
 21
52.298779
  0
LINE
  8
0
  6
CONTINUOUS
 10
308.214783
 20
53.548779
 11
308.214783
 21
52.298779
  0
LINE
  8
0
  6
CONTINUOUS
 10
297.532379
 20
62.830021
 11
297.102783
 21
61.798771
  0
LINE
  8
0
  6
CONTINUOUS
 10
303.017975
 20
62.830021
 11
303.380188
 21
61.798771
  0
LINE
  8
0
  6
CONTINUOUS
 10
300.933380
 20
62.830021
 11
303.017975
 21
62.830021
  0
LINE
  8
0
  6
CONTINUOUS
 10
299.433380
 20
62.830021
 11
297.532379
 21
62.830021
  0
LINE
  8
0
  6
CONTINUOUS
 10
310.183380
 20
57.908146
 11
312.743988
 21
57.908146
  0
LINE
  8
0
  6
CONTINUOUS
 10
308.214783
 20
62.830021
 11
308.808380
 21
62.830021
  0
LINE
  8
0
  6
CONTINUOUS
 10
310.183380
 20
62.830021
 11
313.916565
 21
62.827595
  0
LINE
  8
0
  6
CONTINUOUS
 10
291.058380
 20
61.987919
 11
291.058380
 21
61.798771
  0
LINE
  8
0
  6
CONTINUOUS
 10
318.652771
 20
149.798767
 11
281.776581
 21
149.798767
  0
LINE
  8
0
  6
CONTINUOUS
 10
318.652771
 20
24.798759
 11
281.776581
 21
24.798759
  0
LINE
  8
0
  6
CONTINUOUS
 10
247.714767
 20
49.918522
 11
247.714767
 21
124.679001
  0
LINE
  8
0
  6
CONTINUOUS
 10
352.714783
 20
124.298759
 11
352.714783
 21
124.679001
  0
LINE
  8
0
  6
CONTINUOUS
 10
344.887787
 20
40.798759
 11
352.964783
 21
40.798759
  0
LINE
  8
0
  6
CONTINUOUS
 10
357.214783
 20
147.298721
 11
357.214783
 21
132.048767
  0
LINE
  8
0
  6
CONTINUOUS
 10
280.214783
 20
158.553726
 11
280.214783
 21
150.357040
  0
LINE
  8
0
  6
CONTINUOUS
 10
320.214783
 20
158.553726
 11
320.214783
 21
150.357040
  0
LINE
  8
0
  6
CONTINUOUS
 10
280.214783
 20
23.458321
 11
280.214783
 21
16.637739
  0
LINE
  8
0
  6
CONTINUOUS
 10
320.214783
 20
23.458321
 11
320.214783
 21
16.637739
  0
LINE
  8
0
  6
CONTINUOUS
 10
249.868576
 20
128.789963
 11
278.930573
 21
148.909714
  0
LINE
  8
0
  6
CONTINUOUS
 10
350.560760
 20
128.789963
 11
321.498779
 21
148.909714
  0
LINE
  8
0
  6
CONTINUOUS
 10
278.930573
 20
25.687799
 11
249.868576
 21
45.807560
  0
LINE
  8
0
  6
CONTINUOUS
 10
342.041565
 20
39.909721
 11
321.498779
 21
25.687799
  0
ARC
  8
0
  6
CONTINUOUS
 10
281.776581
 20
144.798767
 40
5.000000
 50
90.000000
 51
124.695396
  0
ARC
  8
0
  6
CONTINUOUS
 10
318.652771
 20
144.798767
 40
5.000000
 50
55.305019
 51
90.000000
  0
ARC
  8
0
  6
CONTINUOUS
 10
252.714767
 20
124.679024
 40
5.000000
 50
124.695503
 51
180.000000
  0
ARC
  8
0
  6
CONTINUOUS
 10
252.714569
 20
49.918560
 40
5.000000
 50
180.000000
 51
235.305206
  0
ARC
  8
0
  6
CONTINUOUS
 10
281.776581
 20
29.798759
 40
5.000000
 50
235.304794
 51
270.000000
  0
ARC
  8
0
  6
CONTINUOUS
 10
318.652771
 20
29.798759
 40
5.000000
 50
270.000000
 51
304.695190
  0
ARC
  8
0
  6
CONTINUOUS
 10
344.887787
 20
35.798759
 40
5.000000
 50
90.000000
 51
124.695396
  0
ARC
  8
0
  6
CONTINUOUS
 10
347.714783
 20
124.678978
 40
5.000000
 50
0.000000
 51
55.304981
  0
ARC
  8
0
  6
CONTINUOUS
 10
347.415375
 20
137.048767
 40
5.000000
 50
235.304794
 51
270.000000
  0
ARC
  8
0
  6
CONTINUOUS
 10
354.714783
 20
124.298759
 40
2.000000
 50
180.000000
 51
270.000000
  0
LINE
  8
0
  6
CONTINUOUS
 10
357.964783
 20
25.048660
 11
357.964783
 21
120.298759
  0
ARC
  8
0
  6
CONTINUOUS
 10
359.964783
 20
120.298782
 40
2.000000
 50
90.000000
 51
180.000000
  0
ARC
  8
0
  6
CONTINUOUS
 10
359.964783
 20
29.271299
 40
2.000000
 50
180.000000
 51
270.315186
  0
LINE
  8
0
  6
CONTINUOUS
 10
357.373962
 20
26.893900
 11
357.171173
 21
26.893900
  0
ARC
  8
0
  6
CONTINUOUS
 10
357.373962
 20
26.393900
 40
0.500000
 50
3.814180
 51
90.000000
  0
ARC
  8
0
  6
CONTINUOUS
 10
352.964783
 20
35.798740
 40
5.000000
 50
0.000000
 51
90.000000
  0
ARC
  8
0
  6
CONTINUOUS
 10
280.214783
 20
64.938087
 40
30.000000
 50
180.000000
 51
228.189606
  0
LINE
  8
0
  6
CONTINUOUS
 10
292.714783
 20
108.298759
 11
292.714783
 21
102.298759
  0
LINE
  8
0
  6
CONTINUOUS
 10
286.714783
 20
108.298759
 11
286.714783
 21
102.298759
  0
LINE
  8
0
  6
CONTINUOUS
 10
286.714783
 20
108.298759
 11
292.714783
 21
108.298759
  0
LINE
  8
0
  6
CONTINUOUS
 10
286.714783
 20
102.298759
 11
292.714783
 21
102.298759
  0
ARC
  8
0
  6
CONTINUOUS
 10
300.214783
 20
105.298759
 40
11.000000
 50
-164.173401
 51
164.173401
  0
LINE
  8
0
  6
CONTINUOUS
 10
364.964783
 20
132.298874
 11
364.964783
 21
17.298874
  0
LINE
  8
0
  6
CONTINUOUS
 10
315.877960
 20
53.548779
 11
316.214783
 21
53.548779
  0
LINE
  8
0
  6
CONTINUOUS
 10
316.214783
 20
53.548779
 11
316.214783
 21
52.298779
  0
LINE
  8
0
  6
CENTER
 10
238.479172
 20
316.473755
 11
600.505005
 21
316.473755
  0
LINE
  8
0
  6
CONTINUOUS
 10
362.464783
 20
373.723755
 11
364.964783
 21
373.723755
  0
LINE
  8
0
  6
CONTINUOUS
 10
360.447388
 20
259.223755
 11
364.964783
 21
259.223755
  0
LINE
  8
0
  6
CONTINUOUS
 10
357.714783
 20
373.723755
 11
364.964783
 21
373.723755
  0
LINE
  8
0
  6
CONTINUOUS
 10
356.260559
 20
348.473755
 11
364.964783
 21
348.473755
  0
LINE
  8
0
  6
CONTINUOUS
 10
357.698181
 20
363.973755
 11
364.964783
 21
363.973755
  0
LINE
  8
0
  6
CONTINUOUS
 10
359.604370
 20
268.973755
 11
364.964783
 21
268.973755
  0
LINE
  8
0
  6
CONTINUOUS
 10
364.964783
 20
284.473755
 11
248.175980
 21
284.473755
  0
LINE
  8
0
  6
CONTINUOUS
 10
359.447571
 20
260.206268
 11
359.109711
 21
279.561035
  0
ARC
  8
0
  6
CONTINUOUS
 10
360.447479
 20
260.223755
 40
1.000000
 50
181.000702
 51
270.000000
  0
ARC
  8
0
  6
CONTINUOUS
 10
354.110382
 20
279.473755
 40
5.000000
 50
1.000200
 51
90.000000
  0
LINE
  8
0
  6
CONTINUOUS
 10
364.964783
 20
258.973755
 11
364.964783
 21
373.973755
  0
LINE
  8
0
  6
CONTINUOUS
 10
243.214767
 20
374.473755
 11
357.214783
 21
374.473755
  0
LINE
  8
0
  6
CONTINUOUS
 10
320.214783
 20
284.473755
 11
320.214783
 21
361.671448
  0
LINE
  8
0
  6
CONTINUOUS
 10
280.214783
 20
284.473755
 11
280.214783
 21
361.671448
  0
LINE
  8
0
  6
CONTINUOUS
 10
246.676468
 20
285.934448
 11
244.692780
 21
361.671448
  0
ARC
  8
0
  6
CONTINUOUS
 10
248.176071
 20
285.973755
 40
1.500000
 50
181.500198
 51
270.000000
  0
LINE
  8
0
  6
CONTINUOUS
 10
356.214783
 20
362.473755
 11
244.503281
 21
362.473755
  0
LINE
  8
0
  6
CONTINUOUS
 10
357.214783
 20
363.473755
 11
357.214783
 21
374.473755
  0
LINE
  8
0
  6
CONTINUOUS
 10
243.214767
 20
374.473755
 11
243.503571
 21
363.447571
  0
ARC
  8
0
  6
CONTINUOUS
 10
244.503281
 20
363.473755
 40
1.000000
 50
181.500107
 51
270.000000
  0
ARC
  8
0
  6
CONTINUOUS
 10
243.693375
 20
361.645264
 40
1.000000
 50
1.500400
 51
66.108803
  0
ARC
  8
0
  6
CONTINUOUS
 10
357.714783
 20
374.223755
 40
0.500000
 50
180.000000
 51
270.000000
  0
LINE
  8
0
  6
CENTER
 10
404.413757
 20
74.798759
 11
333.020996
 21
74.798759
  0
LINE
  8
0
  6
CONTINUOUS
 10
364.964783
 20
132.298767
 11
364.964783
 21
17.298759
  0
LINE
  8
0
  6
CENTER
 10
67.546951
 20
0.467500
 11
67.546951
 21
168.496719
  0
LINE
  8
0
  6
CENTER
 10
-0.877500
 20
74.798759
 11
133.806747
 21
74.798759
  0
LINE
  8
0
  6
CENTER
 10
-0.877500
 20
105.298759
 11
166.389755
 21
105.298759
  0
LINE
  8
0
  6
CONTINUOUS
 10
9.547155
 20
105.298759
 11
9.547155
 21
15.298740
  0
LINE
  8
0
  6
CONTINUOUS
 10
21.547155
 20
105.298759
 11
21.547155
 21
157.298767
  0
LINE
  8
0
  6
CONTINUOUS
 10
19.628956
 20
159.298767
 11
9.547155
 21
159.298767
  0
LINE
  8
0
  6
CONTINUOUS
 10
19.628956
 20
15.298780
 11
9.547155
 21
15.298780
  0
LINE
  8
0
  6
CONTINUOUS
 10
99.546951
 20
25.781441
 11
99.546951
 21
148.816086
  0
LINE
  8
0
  6
CONTINUOUS
 10
98.564758
 20
149.815933
 11
23.512356
 21
151.125641
  0
LINE
  8
0
  6
CONTINUOUS
 10
98.564758
 20
24.781620
 11
23.512356
 21
23.471300
  0
LINE
  8
0
  6
CONTINUOUS
 10
23.456156
 20
127.298737
 11
98.479752
 21
127.298737
  0
LINE
  8
0
  6
CONTINUOUS
 10
23.456156
 20
47.298759
 11
98.156754
 21
47.298759
  0
LINE
  8
0
  6
CONTINUOUS
 10
22.043755
 20
17.151739
 11
23.152954
 21
21.291580
  0
LINE
  8
0
  6
CONTINUOUS
 10
22.043755
 20
157.445847
 11
23.153154
 21
153.305313
  0
ARC
  8
0
  6
CONTINUOUS
 10
26.050955
 20
154.081833
 40
3.000000
 50
195.000702
 51
269.000488
  0
ARC
  8
0
  6
CONTINUOUS
 10
19.547155
 20
157.298767
 40
2.000000
 50
0.000000
 51
90.000000
  0
ARC
  8
0
  6
CONTINUOUS
 10
23.547155
 20
153.125366
 40
2.000000
 50
180.000000
 51
269.000610
  0
ARC
  8
0
  6
CONTINUOUS
 10
26.050755
 20
20.515141
 40
3.000000
 50
91.000526
 51
165.000305
  0
ARC
  8
0
  6
CONTINUOUS
 10
23.547155
 20
21.471621
 40
2.000000
 50
91.000633
 51
180.000000
  0
ARC
  8
0
  6
CONTINUOUS
 10
19.547155
 20
17.298780
 40
2.000000
 50
-90.000000
 51
0.000000
  0
ARC
  8
0
  6
CONTINUOUS
 10
98.546951
 20
148.816086
 40
1.000000
 50
0.000000
 51
89.000359
  0
ARC
  8
0
  6
CONTINUOUS
 10
98.546951
 20
25.781441
 40
1.000000
 50
-88.999573
 51
0.000000
  0
LINE
  8
0
  6
CENTER
 10
4.053355
 20
147.298767
 11
26.689955
 21
147.298767
  0
LINE
  8
0
  6
CENTER
 10
4.053355
 20
27.298740
 11
26.689955
 21
27.298740
  0
LINE
  8
0
  6
DASHED
 10
9.547155
 20
152.798767
 11
21.547155
 21
152.798767
  0
LINE
  8
0
  6
DASHED
 10
9.547155
 20
141.798767
 11
21.547155
 21
141.798767
  0
LINE
  8
0
  6
DASHED
 10
9.547155
 20
32.798740
 11
21.547155
 21
32.798740
  0
LINE
  8
0
  6
DASHED
 10
9.547155
 20
21.798740
 11
21.547155
 21
21.798740
  0
LINE
  8
0
  6
CONTINUOUS
 10
115.546951
 20
80.105911
 11
115.546951
 21
130.491592
  0
LINE
  8
0
  6
CONTINUOUS
 10
105.546951
 20
47.103600
 11
105.546951
 21
107.368736
  0
LINE
  8
0
  6
CONTINUOUS
 10
113.317352
 20
133.391037
 11
101.777153
 21
136.456436
  0
LINE
  8
0
  6
CONTINUOUS
 10
113.317352
 20
77.206459
 11
107.776756
 21
75.734802
  0
LINE
  8
0
  6
CONTINUOUS
 10
103.320152
 20
44.204922
 11
101.774155
 21
43.792622
  0
ARC
  8
0
  6
CONTINUOUS
 10
112.546951
 20
130.491592
 40
3.000000
 50
0.000000
 51
75.124413
  0
ARC
  8
0
  6
CONTINUOUS
 10
112.546951
 20
80.105911
 40
3.000000
 50
-75.124207
 51
0.000000
  0
ARC
  8
0
  6
CONTINUOUS
 10
102.546951
 20
47.103600
 40
3.000000
 50
-75.068420
 51
0.000000
  0
ARC
  8
0
  6
CONTINUOUS
 10
102.546951
 20
139.355927
 40
3.000000
 50
180.000000
 51
255.124603
  0
ARC
  8
0
  6
CONTINUOUS
 10
108.546951
 20
72.835365
 40
3.000000
 50
104.876099
 51
180.000000
  0
ARC
  8
0
  6
CONTINUOUS
 10
102.546951
 20
40.893921
 40
3.000000
 50
104.931801
 51
180.000000
  0
LINE
  8
0
  6
CONTINUOUS
 10
115.046951
 20
32.298740
 11
115.046951
 21
41.350101
  0
LINE
  8
0
  6
CONTINUOUS
 10
110.046951
 20
27.298740
 11
100.995956
 21
27.298740
  0
ARC
  8
0
  6
CONTINUOUS
 10
67.546951
 20
74.798759
 40
57.250000
 50
-32.501888
 51
19.914110
  0
ARC
  8
0
  6
CONTINUOUS
 10
67.546951
 20
74.798759
 40
57.250000
 50
243.004898
 51
298.995514
  0
ARC
  8
0
  6
CONTINUOUS
 10
110.046951
 20
32.298740
 40
5.000000
 50
-90.000000
 51
0.000000
  0
ARC
  8
0
  6
CONTINUOUS
 10
120.046951
 20
41.350101
 40
5.000000
 50
147.498093
 51
180.000000
  0
ARC
  8
0
  6
CONTINUOUS
 10
100.995956
 20
22.298740
 40
5.000000
 50
90.000000
 51
106.842003
  0
LINE
  8
0
  6
CONTINUOUS
 10
9.547155
 20
159.298767
 11
9.547155
 21
105.298759
  0
LINE
  8
0
  6
CONTINUOUS
 10
21.547155
 20
17.298780
 11
21.547155
 21
105.298759
  0
LINE
  8
0
  6
CONTINUOUS
 10
157.546951
 20
94.298759
 11
157.546951
 21
116.298737
  0
LINE
  8
0
  6
CONTINUOUS
 10
117.546951
 20
116.298737
 11
157.546951
 21
116.298737
  0
LINE
  8
0
  6
CONTINUOUS
 10
117.546951
 20
94.298759
 11
157.546951
 21
94.298759
  0
LINE
  8
0
  6
CONTINUOUS
 10
117.546951
 20
117.798737
 11
117.546951
 21
92.798759
  0
LINE
  8
0
  6
CONTINUOUS
 10
115.546951
 20
117.798737
 11
117.546951
 21
117.798737
  0
LINE
  8
0
  6
CONTINUOUS
 10
115.546951
 20
92.798759
 11
117.546951
 21
92.798759
  0
ARC
  8
0
  6
CONTINUOUS
 10
125.546951
 20
105.298759
 40
3.000000
 50
90.000000
 51
270.000000
  0
LINE
  8
0
  6
CONTINUOUS
 10
125.546951
 20
108.298737
 11
157.546951
 21
108.298737
  0
LINE
  8
0
  6
CONTINUOUS
 10
125.546951
 20
102.298759
 11
157.546951
 21
102.298759
  0
ARC
  8
0
  6
CONTINUOUS
 10
19.628956
 20
156.798767
 40
2.500000
 50
15.000760
 51
90.000000
  0
ARC
  8
0
  6
CONTINUOUS
 10
19.628956
 20
17.798780
 40
2.500000
 50
270.000000
 51
345.000214
  0
ARC
  8
0
  6
CONTINUOUS
 10
67.546951
 20
74.798759
 40
57.499821
 50
303.815704
 51
303.996307
  0
ARC
  8
0
  6
CONTINUOUS
 10
67.546951
 20
74.798759
 40
57.500000
 50
242.540298
 51
299.460602
  0
ARC
  8
0
  6
CONTINUOUS
 10
67.546951
 20
74.798759
 40
57.500000
 50
-33.996769
 51
19.823891
  0
ARC
  8
0
  6
CONTINUOUS
 10
67.546951
 20
74.798759
 40
57.500000
 50
303.815613
 51
303.997314
  0
LINE
  8
0
  6
CONTINUOUS
 10
353.753082
 20
285.934479
 11
353.955780
 21
293.673767
  0
ARC
  8
0
  6
CONTINUOUS
 10
352.253601
 20
285.973755
 40
1.500000
 50
270.000000
 51
358.499664
  0
ARC
  8
0
  6
CONTINUOUS
 10
356.214783
 20
363.473755
 40
1.000000
 50
-90.000000
 51
0.000000
  0
ARC
  8
0
  6
CONTINUOUS
 10
356.733734
 20
361.542267
 40
1.000000
 50
105.039177
 51
178.499649
  0
LINE
  8
0
  6
CENTER
 10
300.214783
 20
220.272064
 11
300.214783
 21
387.593750
  0
LINE
  8
0
  6
CONTINUOUS
 10
325.407623
 20
268.473755
 11
275.021942
 21
268.473755
  0
LINE
  8
0
  6
CONTINUOUS
 10
270.058533
 20
278.473755
 11
266.771667
 21
278.473755
  0
ARC
  8
0
  6
CONTINUOUS
 10
275.021942
 20
271.473755
 40
3.000000
 50
-165.124313
 51
-90.000000
  0
LINE
  8
0
  6
CONTINUOUS
 10
263.872223
 20
280.703583
 11
263.463074
 21
282.243927
  0
ARC
  8
0
  6
CONTINUOUS
 10
266.771667
 20
281.473755
 40
3.000000
 50
-165.124313
 51
-90.000000
  0
ARC
  8
0
  6
CONTINUOUS
 10
260.563629
 20
281.473755
 40
3.000000
 50
14.875682
 51
90.000000
  0
LINE
  8
0
  6
CONTINUOUS
 10
270.058533
 20
278.473755
 11
272.122467
 21
270.703583
  0
LINE
  8
0
  6
CONTINUOUS
 10
336.557312
 20
280.703583
 11
336.966461
 21
282.243927
  0
ARC
  8
0
  6
CONTINUOUS
 10
333.657867
 20
281.473755
 40
3.000000
 50
270.000000
 51
345.124329
  0
ARC
  8
0
  6
CONTINUOUS
 10
339.865936
 20
281.473755
 40
3.000000
 50
90.000000
 51
165.124313
  0
LINE
  8
0
  6
CONTINUOUS
 10
330.371033
 20
278.473755
 11
333.657867
 21
278.473755
  0
ARC
  8
0
  6
CONTINUOUS
 10
325.407623
 20
271.473755
 40
3.000000
 50
270.000000
 51
345.124329
  0
LINE
  8
0
  6
CONTINUOUS
 10
330.371033
 20
278.473755
 11
328.307068
 21
270.703583
  0
LINE
  8
0
  6
CONTINUOUS
 10
311.214783
 20
226.473755
 11
286.714783
 21
226.473755
  0
LINE
  8
0
  6
CONTINUOUS
 10
289.214783
 20
266.473755
 11
289.214783
 21
261.473755
  0
LINE
  8
0
  6
CONTINUOUS
 10
311.214783
 20
266.473755
 11
311.214783
 21
226.473755
  0
LINE
  8
0
  6
CONTINUOUS
 10
287.714783
 20
268.473755
 11
287.714783
 21
266.473755
  0
LINE
  8
0
  6
CONTINUOUS
 10
312.714783
 20
268.473755
 11
312.714783
 21
266.473755
  0
LINE
  8
0
  6
CONTINUOUS
 10
312.714783
 20
266.473755
 11
287.714783
 21
266.473755
  0
LINE
  8
0
  6
CONTINUOUS
 10
286.714783
 20
261.473755
 11
286.714783
 21
226.473755
  0
LINE
  8
0
  6
CONTINUOUS
 10
289.631775
 20
226.473755
 11
289.631775
 21
261.473755
  0
LINE
  8
0
  6
CONTINUOUS
 10
289.631775
 20
261.473755
 11
286.714783
 21
261.473755
  0
ARC
  8
0
  6
CONTINUOUS
 10
415.399200
 20
314.880066
 40
65.000000
 50
157.957932
 51
199.041382
  0
LINE
  8
0
  6
CONTINUOUS
 10
355.150146
 20
339.273773
 11
355.734070
 21
361.568451
  0
LINE
  8
0
  6
CONTINUOUS
 10
530.964783
 20
101.798737
 11
416.964783
 21
101.798737
  0
LINE
  8
0
  6
CONTINUOUS
 10
530.964783
 20
25.798780
 11
416.964783
 21
25.798780
  0
LINE
  8
0
  6
CONTINUOUS
 10
530.964783
 20
94.047737
 11
424.964783
 21
94.047737
  0
LINE
  8
0
  6
CONTINUOUS
 10
530.964783
 20
33.549782
 11
424.964783
 21
33.549782
  0
LINE
  8
0
  6
CONTINUOUS
 10
424.964783
 20
99.798737
 11
424.964783
 21
27.798759
  0
ARC
  8
0
  6
CONTINUOUS
 10
422.964783
 20
99.798759
 40
2.000000
 50
0.000000
 51
90.000000
  0
ARC
  8
0
  6
CONTINUOUS
 10
422.964783
 20
27.798780
 40
2.000000
 50
-90.000000
 51
0.000000
  0
LINE
  8
0
  6
CONTINUOUS
 10
375.377533
 20
103.251022
 11
416.964783
 21
101.798759
  0
LINE
  8
0
  6
CONTINUOUS
 10
364.964783
 20
23.982880
 11
416.964783
 21
25.798759
  0
LINE
  8
0
  6
CONTINUOUS
 10
372.964783
 20
131.298767
 11
372.964783
 21
104.298759
  0
LINE
  8
0
  6
CONTINUOUS
 10
371.964783
 20
132.298767
 11
364.964783
 21
132.298767
  0
LINE
  8
0
  6
CONTINUOUS
 10
370.464783
 20
17.298759
 11
364.964783
 21
17.298759
  0
LINE
  8
0
  6
CONTINUOUS
 10
372.964783
 20
104.798759
 11
372.964783
 21
33.886105
  0
LINE
  8
0
  6
CONTINUOUS
 10
416.964783
 20
101.798759
 11
416.964783
 21
25.798759
  0
LINE
  8
0
  6
CONTINUOUS
 10
374.377930
 20
115.116562
 11
400.321350
 21
102.592155
  0
ARC
  8
0
  6
CONTINUOUS
 10
371.964783
 20
131.298767
 40
1.000000
 50
0.000000
 51
90.000000
  0
ARC
  8
0
  6
CONTINUOUS
 10
375.464783
 20
117.367943
 40
2.500000
 50
180.000000
 51
244.230682
  0
ARC
  8
0
  6
CONTINUOUS
 10
375.464783
 20
105.749496
 40
2.500000
 50
180.000000
 51
268.000000
  0
ARC
  8
0
  6
CONTINUOUS
 10
401.408234
 20
104.843529
 40
2.500000
 50
-115.769325
 51
-92.000000
  0
LINE
  8
0
  6
CONTINUOUS
 10
371.839722
 20
31.644760
 11
364.964783
 21
31.644760
  0
LINE
  8
0
  6
CONTINUOUS
 10
372.964783
 20
19.798759
 11
372.964783
 21
21.848024
  0
ARC
  8
0
  6
CONTINUOUS
 10
370.464783
 20
19.798759
 40
2.500000
 50
-90.000000
 51
0.000000
  0
ARC
  8
0
  6
CONTINUOUS
 10
375.464783
 20
21.848024
 40
2.500000
 50
92.000000
 51
180.000000
  0
LINE
  8
0
  6
CENTER
 10
601.969971
 20
63.798759
 11
332.214783
 21
63.798759
  0
LINE
  8
0
  6
CONTINUOUS
 10
370.464783
 20
373.973755
 11
364.964783
 21
373.973755
  0
LINE
  8
0
  6
CONTINUOUS
 10
370.464783
 20
258.973755
 11
364.964783
 21
258.973755
  0
LINE
  8
0
  6
CONTINUOUS
 10
372.964783
 20
371.473755
 11
372.964783
 21
261.473755
  0
LINE
  8
0
  6
CONTINUOUS
 10
416.964783
 20
278.473755
 11
416.964783
 21
354.473755
  0
LINE
  8
0
  6
CONTINUOUS
 10
375.377533
 20
277.021515
 11
416.964783
 21
278.473755
  0
LINE
  8
0
  6
CONTINUOUS
 10
375.377533
 20
355.926025
 11
416.964783
 21
354.473755
  0
ARC
  8
0
  6
CONTINUOUS
 10
370.464783
 20
261.473755
 40
2.500000
 50
-90.000000
 51
0.000000
  0
ARC
  8
0
  6
CONTINUOUS
 10
370.464783
 20
371.473755
 40
2.500000
 50
0.000000
 51
90.000000
  0
LINE
  8
0
  6
CONTINUOUS
 10
416.964783
 20
278.473755
 11
416.964783
 21
354.473755
  0
LINE
  8
0
  6
CONTINUOUS
 10
530.964661
 20
278.473785
 11
416.964661
 21
278.473785
  0
LINE
  8
0
  6
CONTINUOUS
 10
530.964661
 20
354.473755
 11
416.964661
 21
354.473755
  0
LINE
  8
0
  6
CONTINUOUS
 10
424.964661
 20
280.473785
 11
424.964661
 21
293.473755
  0
ARC
  8
0
  6
CONTINUOUS
 10
422.964661
 20
280.473755
 40
2.000000
 50
-90.000000
 51
0.000000
  0
ARC
  8
0
  6
CONTINUOUS
 10
422.964661
 20
352.473755
 40
2.000000
 50
0.000000
 51
90.000000
  0
LINE
  8
0
  6
CONTINUOUS
 10
530.964661
 20
293.473755
 11
424.964661
 21
293.473755
  0
LINE
  8
0
  6
CONTINUOUS
 10
530.964661
 20
339.473755
 11
424.964661
 21
339.473755
  0
LINE
  8
0
  6
CONTINUOUS
 10
424.964661
 20
339.473755
 11
424.964661
 21
352.473755
  0
ARC
  8
0
  6
CONTINUOUS
 10
385.795135
 20
316.473755
 40
15.000000
 50
-49.252373
 51
49.252373
  0
LINE
  8
0
  6
CONTINUOUS
 10
373.832947
 20
286.367767
 11
395.586060
 21
305.109894
  0
LINE
  8
0
  6
CONTINUOUS
 10
373.832947
 20
346.579742
 11
395.586060
 21
327.837646
  0
ARC
  8
0
  6
CONTINUOUS
 10
375.464783
 20
284.473785
 40
2.500000
 50
130.747620
 51
180.000000
  0
ARC
  8
0
  6
CONTINUOUS
 10
375.464783
 20
274.523010
 40
2.500000
 50
92.000000
 51
180.000000
  0
ARC
  8
0
  6
CONTINUOUS
 10
375.464783
 20
348.473724
 40
2.500000
 50
180.000000
 51
229.252380
  0
ARC
  8
0
  6
CONTINUOUS
 10
375.464783
 20
358.424500
 40
2.500000
 50
180.000000
 51
268.000000
  0
LINE
  8
0
  6
CONTINUOUS
 10
530.964661
 20
354.473755
 11
530.964661
 21
323.339752
  0
LINE
  8
0
  6
CONTINUOUS
 10
530.964661
 20
354.473755
 11
540.464661
 21
354.473755
  0
LINE
  8
0
  6
CONTINUOUS
 10
530.964661
 20
278.473755
 11
540.464661
 21
278.473755
  0
LINE
  8
0
  6
CONTINUOUS
 10
530.964661
 20
293.473755
 11
540.464661
 21
293.473755
  0
LINE
  8
0
  6
CONTINUOUS
 10
530.964661
 20
339.473755
 11
540.464661
 21
339.473755
  0
LINE
  8
0
  6
CONTINUOUS
 10
537.464661
 20
310.473755
 11
537.464661
 21
322.473755
  0
LINE
  8
0
  6
CONTINUOUS
 10
530.464661
 20
310.473755
 11
530.464661
 21
322.473755
  0
LINE
  8
0
  6
CONTINUOUS
 10
536.464661
 20
323.473755
 11
531.464661
 21
323.473755
  0
LINE
  8
0
  6
CONTINUOUS
 10
531.464661
 20
309.473755
 11
536.464661
 21
309.473755
  0
ARC
  8
0
  6
CONTINUOUS
 10
531.464661
 20
322.473755
 40
1.000000
 50
90.000000
 51
180.000000
  0
ARC
  8
0
  6
CONTINUOUS
 10
536.464661
 20
322.473755
 40
1.000000
 50
0.000000
 51
90.000000
  0
ARC
  8
0
  6
CONTINUOUS
 10
536.464661
 20
310.473755
 40
1.000000
 50
-90.000000
 51
0.000000
  0
ARC
  8
0
  6
CONTINUOUS
 10
531.464661
 20
310.473755
 40
1.000000
 50
180.000000
 51
270.000000
  0
LINE
  8
0
  6
CONTINUOUS
 10
532.964661
 20
312.973755
 11
532.964661
 21
319.973755
  0
LINE
  8
0
  6
CONTINUOUS
 10
534.964661
 20
312.973755
 11
534.964661
 21
319.973755
  0
ARC
  8
0
  6
CONTINUOUS
 10
533.964661
 20
319.973755
 40
1.000000
 50
0.000000
 51
90.000000
  0
ARC
  8
0
  6
CONTINUOUS
 10
533.964661
 20
319.973755
 40
1.000000
 50
90.000000
 51
180.000000
  0
ARC
  8
0
  6
CONTINUOUS
 10
533.964661
 20
312.973755
 40
1.000000
 50
-90.000000
 51
0.000000
  0
ARC
  8
0
  6
CONTINUOUS
 10
533.964661
 20
312.973755
 40
1.000000
 50
180.000000
 51
270.000000
  0
LINE
  8
0
  6
CONTINUOUS
 10
530.964661
 20
309.607727
 11
530.964661
 21
278.473755
  0
LINE
  8
0
  6
CONTINUOUS
 10
540.464661
 20
276.473755
 11
540.464661
 21
356.473755
  0
LINE
  8
0
  6
CONTINUOUS
 10
584.464661
 20
356.473755
 11
540.464661
 21
356.473755
  0
LINE
  8
0
  6
CONTINUOUS
 10
584.464661
 20
276.473755
 11
540.464661
 21
276.473755
  0
LINE
  8
0
  6
CONTINUOUS
 10
589.464661
 20
281.473755
 11
589.464661
 21
351.473755
  0
ARC
  8
0
  6
CONTINUOUS
 10
584.464661
 20
351.473755
 40
5.000000
 50
0.000000
 51
90.000000
  0
ARC
  8
0
  6
CONTINUOUS
 10
584.464661
 20
281.473755
 40
5.000000
 50
-90.000000
 51
0.000000
  0
LINE
  8
0
  6
CONTINUOUS
 10
586.964661
 20
340.473755
 11
540.464661
 21
340.473755
  0
LINE
  8
0
  6
CONTINUOUS
 10
586.964661
 20
290.473755
 11
540.464661
 21
290.473755
  0
LINE
  8
0
  6
CONTINUOUS
 10
540.464783
 20
101.798737
 11
530.964783
 21
101.798737
  0
LINE
  8
0
  6
CONTINUOUS
 10
540.464783
 20
25.798738
 11
530.964783
 21
25.798738
  0
LINE
  8
0
  6
CONTINUOUS
 10
540.464783
 20
23.798738
 11
540.464783
 21
103.798737
  0
LINE
  8
0
  6
CONTINUOUS
 10
530.464783
 20
103.298737
 11
530.464783
 21
101.798737
  0
LINE
  8
0
  6
CONTINUOUS
 10
537.464783
 20
103.298737
 11
537.464783
 21
101.798737
  0
LINE
  8
0
  6
CONTINUOUS
 10
537.464783
 20
103.298737
 11
530.464783
 21
103.298737
  0
LINE
  8
0
  6
CONTINUOUS
 10
533.064819
 20
116.298737
 11
533.064819
 21
103.298737
  0
LINE
  8
0
  6
CONTINUOUS
 10
534.864807
 20
116.923737
 11
534.864807
 21
103.298737
  0
LINE
  8
0
  6
CONTINUOUS
 10
536.664795
 20
114.861237
 11
536.664795
 21
103.298737
  0
LINE
  8
0
  6
CONTINUOUS
 10
531.264771
 20
115.673737
 11
531.264771
 21
103.298737
  0
LINE
  8
0
  6
CONTINUOUS
 10
534.864807
 20
116.923737
 11
533.064819
 21
116.298737
  0
LINE
  8
0
  6
CONTINUOUS
 10
536.664795
 20
114.861237
 11
534.864807
 21
115.486237
  0
LINE
  8
0
  6
CONTINUOUS
 10
531.264771
 20
115.673737
 11
533.063782
 21
115.226036
  0
LINE
  8
0
  6
CONTINUOUS
 10
540.464783
 20
94.047737
 11
530.964783
 21
94.047737
  0
LINE
  8
0
  6
CONTINUOUS
 10
540.464783
 20
33.549740
 11
530.964783
 21
33.549740
  0
LINE
  8
0
  6
CONTINUOUS
 10
584.464783
 20
103.798737
 11
540.464783
 21
103.798737
  0
LINE
  8
0
  6
CONTINUOUS
 10
584.464783
 20
23.798738
 11
540.464783
 21
23.798738
  0
LINE
  8
0
  6
CONTINUOUS
 10
589.464783
 20
28.798738
 11
589.464783
 21
98.798737
  0
ARC
  8
0
  6
CONTINUOUS
 10
584.464783
 20
98.798737
 40
5.000000
 50
0.000000
 51
90.000000
  0
ARC
  8
0
  6
CONTINUOUS
 10
584.464783
 20
28.798738
 40
5.000000
 50
-90.000000
 51
0.000000
  0
LINE
  8
0
  6
CONTINUOUS
 10
586.964783
 20
89.798737
 11
540.464783
 21
89.798737
  0
LINE
  8
0
  6
CONTINUOUS
 10
586.964783
 20
39.798740
 11
540.464783
 21
39.798740
  0
LINE
  8
0
  6
CONTINUOUS
 10
530.964783
 20
25.798759
 11
530.964783
 21
101.798737
  0
LINE
  8
0
  6
CENTER
 10
255.214691
 20
378.998749
 11
255.214691
 21
358.370636
  0
LINE
  8
0
  6
DASHED
 10
260.714691
 20
374.473755
 11
260.714691
 21
362.473755
  0
LINE
  8
0
  6
DASHED
 10
249.714691
 20
374.473755
 11
249.714691
 21
362.473755
  0
LINE
  8
0
  6
DASHED
 10
339.714844
 20
374.473755
 11
339.714844
 21
362.473755
  0
LINE
  8
0
  6
CENTER
 10
345.214844
 20
378.998749
 11
345.214844
 21
358.370636
  0
LINE
  8
0
  6
DASHED
 10
350.714844
 20
374.473755
 11
350.714844
 21
362.473755
  0
LINE
  8
0
  6
CONTINUOUS
 10
372.964783
 20
54.398762
 11
416.964783
 21
54.398762
  0
LINE
  8
0
  6
CONTINUOUS
 10
372.964783
 20
44.198761
 11
416.964783
 21
44.198761
  0
TEXT
  8
0
 10
-6.000000
 20
0.000000
 40
4.000000
 41
1.000000
  1
HFM-22L-300~450-S40W
 50
0.000000
  0
ENDSEC
  0
EOF
