  0
SECTION
  2
HEADER
  9
$CLAYER
  8
1
  9
$LTSCALE
 40
3.0
  0
ENDSEC
  0
SECTION
  2
TABLES
  0
TABLE
  2
LTYPE
 70
     4
  0
LTYPE
  2
CONTINUOUS
  3
solid line
 70
    64
 72
    65
 73
     0
 40
0.0
  0
LTYPE
  2
DASHED
  3
__ __ __ __ __ __ __ __ __ __ __ __ __ __ __
 70
    64
 72
    65
 73
     2
 40
0.75
 49
0.5
 49
-0.25
  0
LTYPE
  2
CENTER
  3
____ _ ____ _ ____ _ ____ _ ____ _ ____ _ ____
 70
    64
 72
    65
 73
     4
 40
2.0
 49
1.25
 49
-0.25
 49
0.25
 49
-0.25
  0
LTYPE
  2
PHANTOM
  3
_____ _ _ _____ _ _ _____ _ _ _____ _ _ ____
 70
    64
 72
    65
 73
     6
 40
2.5
 49
1.25
 49
-0.25
 49
0.25
 49
-0.25
 49
0.25
 49
-0.25
  0
ENDTAB
  0
TABLE
  2
LAYER
 70
     1
  0
LAYER
  2
0
 70
    64
 62
     7
  6
CONTINUOUS
  0
ENDTAB
  0
TABLE
  2
STYLE
 70
     1
  0
STYLE
  2
STANDARD
 70
     0
 40
0.000000
 41
1.000000
 50
0.000000
 71
     0
 42
3.000000
  3
txt
  4
BIGFONT
  0
ENDTAB
  0
ENDSEC
  0
SECTION
  2
BLOCKS
  0
ENDSEC
  0
SECTION
  2
ENTITIES
  0
LINE
  8
0
  6
CENTER
 10
282.174774
 20
170.080017
 11
282.174774
 21
2.342500
  0
LINE
  8
0
  6
CENTER
 10
331.086578
 20
104.998756
 11
217.105972
 21
104.998756
  0
LINE
  8
0
  6
CONTINUOUS
 10
332.174774
 20
108.498756
 11
332.174774
 21
64.638069
  0
LINE
  8
0
  6
CONTINUOUS
 10
232.174774
 20
109.359444
 11
232.174774
 21
64.638092
  0
ARC
  8
0
  6
CONTINUOUS
 10
282.174774
 20
86.998772
 40
60.000000
 50
48.189610
 51
131.810394
  0
ARC
  8
0
  6
CONTINUOUS
 10
282.174774
 20
86.998772
 40
60.000000
 50
-131.810303
 51
-48.189701
  0
ARC
  8
0
  6
CONTINUOUS
 10
262.174774
 20
109.359444
 40
30.000000
 50
131.810394
 51
180.000000
  0
CIRCLE
  8
0
  6
CONTINUOUS
 10
282.174774
 20
104.998756
 40
27.500000
  0
ARC
  8
0
  6
CONTINUOUS
 10
282.174774
 20
104.998756
 40
31.750000
 50
7.552597
 51
172.447296
  0
ARC
  8
0
  6
CONTINUOUS
 10
298.924774
 20
63.498764
 40
20.600000
 50
-90.000000
 51
7.552597
  0
ARC
  8
0
  6
CONTINUOUS
 10
265.424774
 20
63.498764
 40
20.600000
 50
172.447296
 51
270.000000
  0
LINE
  8
0
  6
CONTINUOUS
 10
250.700180
 20
109.171921
 11
245.003372
 21
66.206390
  0
LINE
  8
0
  6
CONTINUOUS
 10
319.345978
 20
66.206352
 11
313.649170
 21
109.171860
  0
LINE
  8
0
  6
CONTINUOUS
 10
298.924774
 20
42.898762
 11
265.424774
 21
42.898762
  0
ARC
  8
0
  6
CONTINUOUS
 10
298.924774
 20
63.498764
 40
19.000000
 50
-90.000000
 51
7.552399
  0
ARC
  8
0
  6
CONTINUOUS
 10
265.424774
 20
63.498764
 40
19.000000
 50
172.447296
 51
270.000000
  0
ARC
  8
0
  6
CONTINUOUS
 10
282.174774
 20
104.998756
 40
30.150000
 50
-187.552704
 51
7.552612
  0
LINE
  8
0
  6
CONTINUOUS
 10
317.759766
 20
65.996056
 11
312.063171
 21
108.961578
  0
LINE
  8
0
  6
CONTINUOUS
 10
252.286179
 20
108.961617
 11
246.589569
 21
65.996094
  0
LINE
  8
0
  6
CONTINUOUS
 10
298.924774
 20
44.498760
 11
265.424774
 21
44.498760
  0
ARC
  8
0
  6
CONTINUOUS
 10
302.174774
 20
109.359459
 40
30.000000
 50
-1.671204
 51
48.189610
  0
ARC
  8
0
  6
CONTINUOUS
 10
302.174774
 20
64.638069
 40
30.000000
 50
-48.189701
 51
0.000000
  0
LINE
  8
0
  6
CONTINUOUS
 10
346.924774
 20
131.748764
 11
329.375580
 21
131.748764
  0
LINE
  8
0
  6
CONTINUOUS
 10
341.360168
 20
17.248760
 11
346.924774
 21
17.248760
  0
LINE
  8
0
  6
CONTINUOUS
 10
336.674774
 20
121.998756
 11
346.924774
 21
121.998756
  0
LINE
  8
0
  6
CONTINUOUS
 10
341.935577
 20
26.971319
 11
346.924774
 21
26.998760
  0
LINE
  8
0
  6
CONTINUOUS
 10
340.377777
 20
106.458763
 11
346.924774
 21
106.458763
  0
LINE
  8
0
  6
CONTINUOUS
 10
340.377777
 20
42.538761
 11
346.924774
 21
42.538761
  0
LINE
  8
0
  6
CENTER
 10
335.821564
 20
146.998764
 11
318.524780
 21
146.998764
  0
LINE
  8
0
  6
CENTER
 10
245.737183
 20
146.998764
 11
221.155975
 21
146.998764
  0
LINE
  8
0
  6
CENTER
 10
336.967560
 20
26.998760
 11
318.355988
 21
26.998760
  0
LINE
  8
0
  6
CENTER
 10
246.299774
 20
26.998760
 11
221.493378
 21
26.998760
  0
LINE
  8
0
  6
CENTER
 10
237.174774
 20
156.158142
 11
237.174774
 21
138.017502
  0
LINE
  8
0
  6
CENTER
 10
327.174774
 20
155.905014
 11
327.174774
 21
138.439377
  0
LINE
  8
0
  6
CENTER
 10
327.174774
 20
36.176880
 11
327.174774
 21
9.767520
  0
LINE
  8
0
  6
CENTER
 10
237.174774
 20
36.345638
 11
237.174774
 21
10.442500
  0
CIRCLE
  8
0
  6
CONTINUOUS
 10
237.174774
 20
146.998764
 40
5.500000
  0
CIRCLE
  8
0
  6
CONTINUOUS
 10
327.174774
 20
146.998764
 40
5.500000
  0
CIRCLE
  8
0
  6
CONTINUOUS
 10
327.174774
 20
26.998760
 40
5.500000
  0
CIRCLE
  8
0
  6
CONTINUOUS
 10
237.174774
 20
26.998760
 40
5.500000
  0
ARC
  8
0
  6
CONTINUOUS
 10
237.174774
 20
146.998764
 40
12.000000
 50
90.000000
 51
180.000000
  0
ARC
  8
0
  6
CONTINUOUS
 10
327.174774
 20
146.998764
 40
12.000000
 50
0.000000
 51
90.000000
  0
ARC
  8
0
  6
CONTINUOUS
 10
327.174774
 20
26.998760
 40
12.000000
 50
270.000000
 51
358.060608
  0
ARC
  8
0
  6
CONTINUOUS
 10
237.174774
 20
26.998760
 40
12.000000
 50
180.000000
 51
270.000000
  0
LINE
  8
0
  6
CONTINUOUS
 10
237.174774
 20
158.998764
 11
327.174774
 21
158.998764
  0
LINE
  8
0
  6
CONTINUOUS
 10
327.174561
 20
14.998760
 11
237.174774
 21
14.998760
  0
LINE
  8
0
  6
CONTINUOUS
 10
225.174774
 20
146.998764
 11
225.174774
 21
26.998760
  0
LINE
  8
0
  6
CONTINUOUS
 10
339.832764
 20
26.127159
 11
340.362366
 21
18.182240
  0
ARC
  8
0
  6
CONTINUOUS
 10
341.360168
 20
18.248760
 40
1.000000
 50
-176.185806
 51
-90.000000
  0
LINE
  8
0
  6
CONTINUOUS
 10
271.878387
 20
51.998779
 11
267.717987
 21
51.998779
  0
LINE
  8
0
  6
CONTINUOUS
 10
274.174774
 20
58.967522
 11
274.174774
 21
51.998779
  0
LINE
  8
0
  6
CONTINUOUS
 10
278.174774
 20
61.498772
 11
278.174774
 21
63.998772
  0
LINE
  8
0
  6
CONTINUOUS
 10
286.174774
 20
61.498772
 11
286.174774
 21
63.998772
  0
LINE
  8
0
  6
CONTINUOUS
 10
281.393372
 20
62.530022
 11
281.393372
 21
53.311279
  0
LINE
  8
0
  6
CONTINUOUS
 10
282.893372
 20
62.530022
 11
282.893372
 21
53.311279
  0
LINE
  8
0
  6
CONTINUOUS
 10
290.768372
 20
62.530022
 11
290.768372
 21
53.248779
  0
LINE
  8
0
  6
CONTINUOUS
 10
292.143372
 20
57.608147
 11
292.143372
 21
53.248779
  0
LINE
  8
0
  6
CONTINUOUS
 10
272.276581
 20
62.405022
 11
268.421570
 21
62.405022
  0
LINE
  8
0
  6
CONTINUOUS
 10
268.421570
 20
62.405022
 11
267.518372
 21
61.285027
  0
LINE
  8
0
  6
CONTINUOUS
 10
267.626984
 20
63.998772
 11
266.174774
 21
62.139023
  0
LINE
  8
0
  6
CONTINUOUS
 10
267.518372
 20
54.371681
 11
268.436188
 21
53.405022
  0
LINE
  8
0
  6
CONTINUOUS
 10
266.174774
 20
53.555939
 11
267.717987
 21
51.998779
  0
LINE
  8
0
  6
CONTINUOUS
 10
266.174774
 20
62.139023
 11
266.174774
 21
53.555939
  0
LINE
  8
0
  6
CONTINUOUS
 10
267.518372
 20
61.285027
 11
267.518372
 21
54.371681
  0
LINE
  8
0
  6
CONTINUOUS
 10
273.018372
 20
61.687920
 11
272.261383
 21
62.405022
  0
LINE
  8
0
  6
CONTINUOUS
 10
273.006378
 20
63.998772
 11
274.174774
 21
62.702278
  0
LINE
  8
0
  6
CONTINUOUS
 10
273.018372
 20
61.498772
 11
274.174774
 21
61.498772
  0
LINE
  8
0
  6
CONTINUOUS
 10
267.626984
 20
63.998772
 11
273.006378
 21
63.998772
  0
LINE
  8
0
  6
CONTINUOUS
 10
270.924774
 20
58.967522
 11
274.174774
 21
58.967522
  0
LINE
  8
0
  6
CONTINUOUS
 10
273.018372
 20
57.655022
 11
270.924774
 21
57.655022
  0
LINE
  8
0
  6
CONTINUOUS
 10
270.518372
 20
53.405022
 11
268.436188
 21
53.405022
  0
LINE
  8
0
  6
CONTINUOUS
 10
273.018372
 20
56.405022
 11
273.018372
 21
57.405022
  0
ARC
  8
0
  6
CONTINUOUS
 10
270.518372
 20
55.905022
 40
2.500000
 50
-89.999786
 51
0.000109
  0
LINE
  8
0
  6
CONTINUOUS
 10
273.018372
 20
52.955318
 11
273.018372
 21
51.998779
  0
LINE
  8
0
  6
CONTINUOUS
 10
274.174774
 20
62.702278
 11
274.174774
 21
61.498772
  0
LINE
  8
0
  6
CONTINUOUS
 10
273.018372
 20
57.655022
 11
273.018372
 21
55.905022
  0
LINE
  8
0
  6
CONTINUOUS
 10
270.924774
 20
58.967522
 11
270.924774
 21
57.655022
  0
LINE
  8
0
  6
CONTINUOUS
 10
273.018372
 20
51.998779
 11
274.174774
 21
51.998779
  0
LINE
  8
0
  6
CONTINUOUS
 10
273.018372
 20
52.955318
 11
271.878387
 21
51.998779
  0
LINE
  8
0
  6
CONTINUOUS
 10
282.893372
 20
53.311279
 11
283.393372
 21
53.311279
  0
LINE
  8
0
  6
CONTINUOUS
 10
280.799774
 20
53.311279
 11
280.799774
 21
51.998779
  0
LINE
  8
0
  6
CONTINUOUS
 10
283.393372
 20
53.311279
 11
283.393372
 21
51.998779
  0
LINE
  8
0
  6
CONTINUOUS
 10
285.340179
 20
61.498772
 11
286.174774
 21
61.498772
  0
LINE
  8
0
  6
CONTINUOUS
 10
278.174774
 20
61.498772
 11
279.062775
 21
61.498772
  0
LINE
  8
0
  6
CONTINUOUS
 10
278.174774
 20
63.998772
 11
286.174774
 21
63.998772
  0
LINE
  8
0
  6
CONTINUOUS
 10
280.799774
 20
51.998779
 11
283.393372
 21
51.998779
  0
LINE
  8
0
  6
CONTINUOUS
 10
280.799774
 20
53.311279
 11
281.393372
 21
53.311279
  0
ARC
  8
0
  6
CONTINUOUS
 10
294.971588
 20
60.795647
 40
3.203126
 50
-73.981873
 51
90.003510
  0
ARC
  8
0
  6
CONTINUOUS
 10
294.971588
 20
60.795647
 40
1.954124
 50
-82.585274
 51
62.411850
  0
LINE
  8
0
  6
CONTINUOUS
 10
290.174774
 20
63.998772
 11
294.971588
 21
63.998772
  0
LINE
  8
0
  6
CONTINUOUS
 10
295.223785
 20
58.857864
 11
292.143372
 21
58.857864
  0
LINE
  8
0
  6
CONTINUOUS
 10
290.174774
 20
63.998772
 11
290.174774
 21
62.530022
  0
LINE
  8
0
  6
CONTINUOUS
 10
292.143372
 20
62.530022
 11
292.143372
 21
58.857864
  0
LINE
  8
0
  6
CONTINUOUS
 10
295.855377
 20
57.716881
 11
297.837982
 21
53.248779
  0
LINE
  8
0
  6
CONTINUOUS
 10
294.703979
 20
57.608147
 11
296.580170
 21
53.248779
  0
LINE
  8
0
  6
CONTINUOUS
 10
290.174774
 20
53.248779
 11
290.768372
 21
53.248779
  0
LINE
  8
0
  6
CONTINUOUS
 10
292.143372
 20
53.248779
 11
292.690369
 21
53.248779
  0
LINE
  8
0
  6
CONTINUOUS
 10
292.690369
 20
51.998779
 11
290.174774
 21
51.998779
  0
LINE
  8
0
  6
CONTINUOUS
 10
296.330963
 20
53.248779
 11
296.580170
 21
53.248779
  0
LINE
  8
0
  6
CONTINUOUS
 10
296.330963
 20
51.998779
 11
298.174774
 21
51.998779
  0
LINE
  8
0
  6
CONTINUOUS
 10
296.330963
 20
53.248779
 11
296.330963
 21
51.998779
  0
LINE
  8
0
  6
CONTINUOUS
 10
292.690369
 20
53.248779
 11
292.690369
 21
51.998779
  0
LINE
  8
0
  6
CONTINUOUS
 10
290.174774
 20
53.248779
 11
290.174774
 21
51.998779
  0
LINE
  8
0
  6
CONTINUOUS
 10
279.492371
 20
62.530022
 11
279.062775
 21
61.498772
  0
LINE
  8
0
  6
CONTINUOUS
 10
284.977966
 20
62.530022
 11
285.340179
 21
61.498772
  0
LINE
  8
0
  6
CONTINUOUS
 10
282.893372
 20
62.530022
 11
284.977966
 21
62.530022
  0
LINE
  8
0
  6
CONTINUOUS
 10
281.393372
 20
62.530022
 11
279.492371
 21
62.530022
  0
LINE
  8
0
  6
CONTINUOUS
 10
292.143372
 20
57.608147
 11
294.703979
 21
57.608147
  0
LINE
  8
0
  6
CONTINUOUS
 10
290.174774
 20
62.530022
 11
290.768372
 21
62.530022
  0
LINE
  8
0
  6
CONTINUOUS
 10
292.143372
 20
62.530022
 11
295.876587
 21
62.527596
  0
LINE
  8
0
  6
CONTINUOUS
 10
273.018372
 20
61.687920
 11
273.018372
 21
61.498772
  0
LINE
  8
0
  6
CONTINUOUS
 10
300.612762
 20
149.498764
 11
263.736572
 21
149.498764
  0
LINE
  8
0
  6
CONTINUOUS
 10
300.612762
 20
24.498760
 11
263.736572
 21
24.498760
  0
LINE
  8
0
  6
CONTINUOUS
 10
229.674774
 20
49.618519
 11
229.674774
 21
124.378998
  0
LINE
  8
0
  6
CONTINUOUS
 10
334.674774
 20
123.998756
 11
334.674774
 21
124.378998
  0
LINE
  8
0
  6
CONTINUOUS
 10
326.847778
 20
40.498760
 11
334.924774
 21
40.498760
  0
LINE
  8
0
  6
CONTINUOUS
 10
339.174774
 20
146.998718
 11
339.174774
 21
131.748764
  0
LINE
  8
0
  6
CONTINUOUS
 10
262.174774
 20
158.253723
 11
262.174774
 21
150.057037
  0
LINE
  8
0
  6
CONTINUOUS
 10
302.174774
 20
158.253723
 11
302.174774
 21
150.057037
  0
LINE
  8
0
  6
CONTINUOUS
 10
262.174774
 20
23.158319
 11
262.174774
 21
16.337740
  0
LINE
  8
0
  6
CONTINUOUS
 10
302.174774
 20
23.158319
 11
302.174774
 21
16.337740
  0
LINE
  8
0
  6
CONTINUOUS
 10
231.828568
 20
128.489960
 11
260.890564
 21
148.609726
  0
LINE
  8
0
  6
CONTINUOUS
 10
332.520782
 20
128.489960
 11
303.458771
 21
148.609726
  0
LINE
  8
0
  6
CONTINUOUS
 10
260.890564
 20
25.387800
 11
231.828568
 21
45.507561
  0
LINE
  8
0
  6
CONTINUOUS
 10
324.001587
 20
39.609718
 11
303.458771
 21
25.387800
  0
ARC
  8
0
  6
CONTINUOUS
 10
263.736572
 20
144.498764
 40
5.000000
 50
90.000000
 51
124.695396
  0
ARC
  8
0
  6
CONTINUOUS
 10
300.612762
 20
144.498764
 40
5.000000
 50
55.305019
 51
90.000000
  0
ARC
  8
0
  6
CONTINUOUS
 10
234.674774
 20
124.379021
 40
5.000000
 50
124.695503
 51
180.000000
  0
ARC
  8
0
  6
CONTINUOUS
 10
234.674576
 20
49.618561
 40
5.000000
 50
180.000000
 51
235.305206
  0
ARC
  8
0
  6
CONTINUOUS
 10
263.736572
 20
29.498760
 40
5.000000
 50
235.304794
 51
270.000000
  0
ARC
  8
0
  6
CONTINUOUS
 10
300.612762
 20
29.498760
 40
5.000000
 50
270.000000
 51
304.695190
  0
ARC
  8
0
  6
CONTINUOUS
 10
326.847778
 20
35.498760
 40
5.000000
 50
90.000000
 51
124.695396
  0
ARC
  8
0
  6
CONTINUOUS
 10
329.674774
 20
124.378983
 40
5.000000
 50
0.000000
 51
55.304981
  0
ARC
  8
0
  6
CONTINUOUS
 10
329.375366
 20
136.748764
 40
5.000000
 50
235.304794
 51
270.000000
  0
ARC
  8
0
  6
CONTINUOUS
 10
336.674774
 20
123.998756
 40
2.000000
 50
180.000000
 51
270.000000
  0
LINE
  8
0
  6
CONTINUOUS
 10
339.924774
 20
24.748659
 11
339.924774
 21
119.998756
  0
ARC
  8
0
  6
CONTINUOUS
 10
341.924774
 20
119.998779
 40
2.000000
 50
90.000000
 51
180.000000
  0
ARC
  8
0
  6
CONTINUOUS
 10
341.924774
 20
28.971300
 40
2.000000
 50
180.000000
 51
270.315186
  0
LINE
  8
0
  6
CONTINUOUS
 10
339.333984
 20
26.593901
 11
339.131165
 21
26.593901
  0
ARC
  8
0
  6
CONTINUOUS
 10
339.333984
 20
26.093901
 40
0.500000
 50
3.814180
 51
90.000000
  0
ARC
  8
0
  6
CONTINUOUS
 10
334.924774
 20
35.498741
 40
5.000000
 50
0.000000
 51
90.000000
  0
ARC
  8
0
  6
CONTINUOUS
 10
262.174774
 20
64.638092
 40
30.000000
 50
180.000000
 51
228.189606
  0
LINE
  8
0
  6
CONTINUOUS
 10
274.674774
 20
107.998756
 11
274.674774
 21
101.998756
  0
LINE
  8
0
  6
CONTINUOUS
 10
268.674774
 20
107.998756
 11
268.674774
 21
101.998756
  0
LINE
  8
0
  6
CONTINUOUS
 10
268.674774
 20
107.998756
 11
274.674774
 21
107.998756
  0
LINE
  8
0
  6
CONTINUOUS
 10
268.674774
 20
101.998756
 11
274.674774
 21
101.998756
  0
ARC
  8
0
  6
CONTINUOUS
 10
282.174774
 20
104.998756
 40
11.000000
 50
-164.173401
 51
164.173401
  0
LINE
  8
0
  6
CONTINUOUS
 10
346.924774
 20
131.998871
 11
346.924774
 21
16.998873
  0
LINE
  8
0
  6
CONTINUOUS
 10
297.837982
 20
53.248779
 11
298.174774
 21
53.248779
  0
LINE
  8
0
  6
CONTINUOUS
 10
298.174774
 20
53.248779
 11
298.174774
 21
51.998779
  0
LINE
  8
0
  6
CENTER
 10
220.439178
 20
316.173767
 11
582.465027
 21
316.173767
  0
LINE
  8
0
  6
CONTINUOUS
 10
344.424774
 20
373.423767
 11
346.924774
 21
373.423767
  0
LINE
  8
0
  6
CONTINUOUS
 10
342.407379
 20
258.923767
 11
346.924774
 21
258.923767
  0
LINE
  8
0
  6
CONTINUOUS
 10
339.674774
 20
373.423767
 11
346.924774
 21
373.423767
  0
LINE
  8
0
  6
CONTINUOUS
 10
338.220551
 20
348.173767
 11
346.924774
 21
348.173767
  0
LINE
  8
0
  6
CONTINUOUS
 10
339.658173
 20
363.673767
 11
346.924774
 21
363.673767
  0
LINE
  8
0
  6
CONTINUOUS
 10
341.564362
 20
268.673767
 11
346.924774
 21
268.673767
  0
LINE
  8
0
  6
CONTINUOUS
 10
346.924774
 20
284.173767
 11
230.135971
 21
284.173767
  0
LINE
  8
0
  6
CONTINUOUS
 10
341.407562
 20
259.906250
 11
341.069702
 21
279.261047
  0
ARC
  8
0
  6
CONTINUOUS
 10
342.407471
 20
259.923767
 40
1.000000
 50
181.000702
 51
270.000000
  0
ARC
  8
0
  6
CONTINUOUS
 10
336.070374
 20
279.173767
 40
5.000000
 50
1.000200
 51
90.000000
  0
LINE
  8
0
  6
CONTINUOUS
 10
346.924774
 20
258.673767
 11
346.924774
 21
373.673767
  0
LINE
  8
0
  6
CONTINUOUS
 10
225.174774
 20
374.173767
 11
339.174774
 21
374.173767
  0
LINE
  8
0
  6
CONTINUOUS
 10
302.174774
 20
284.173767
 11
302.174774
 21
361.371460
  0
LINE
  8
0
  6
CONTINUOUS
 10
262.174774
 20
284.173767
 11
262.174774
 21
361.371460
  0
LINE
  8
0
  6
CONTINUOUS
 10
228.636475
 20
285.634460
 11
226.652771
 21
361.371460
  0
ARC
  8
0
  6
CONTINUOUS
 10
230.136078
 20
285.673767
 40
1.500000
 50
181.500198
 51
270.000000
  0
LINE
  8
0
  6
CONTINUOUS
 10
338.174774
 20
362.173767
 11
226.463272
 21
362.173767
  0
LINE
  8
0
  6
CONTINUOUS
 10
339.174774
 20
363.173767
 11
339.174774
 21
374.173767
  0
LINE
  8
0
  6
CONTINUOUS
 10
225.174774
 20
374.173767
 11
225.463577
 21
363.147552
  0
ARC
  8
0
  6
CONTINUOUS
 10
226.463272
 20
363.173767
 40
1.000000
 50
181.500107
 51
270.000000
  0
ARC
  8
0
  6
CONTINUOUS
 10
225.653381
 20
361.345245
 40
1.000000
 50
1.500400
 51
66.108803
  0
ARC
  8
0
  6
CONTINUOUS
 10
339.674774
 20
373.923767
 40
0.500000
 50
180.000000
 51
270.000000
  0
LINE
  8
0
  6
CENTER
 10
422.607513
 20
74.498756
 11
314.980988
 21
74.498756
  0
LINE
  8
0
  6
CONTINUOUS
 10
346.924774
 20
131.998764
 11
346.924774
 21
16.998760
  0
LINE
  8
0
  6
CENTER
 10
63.312199
 20
0.167500
 11
63.312199
 21
168.196716
  0
LINE
  8
0
  6
CENTER
 10
-5.112255
 20
74.498756
 11
129.572006
 21
74.498756
  0
LINE
  8
0
  6
CENTER
 10
-5.112255
 20
104.998756
 11
162.154999
 21
104.998756
  0
LINE
  8
0
  6
CONTINUOUS
 10
5.312400
 20
104.998756
 11
5.312400
 21
14.998740
  0
LINE
  8
0
  6
CONTINUOUS
 10
17.312401
 20
104.998756
 11
17.312401
 21
156.998764
  0
LINE
  8
0
  6
CONTINUOUS
 10
15.394200
 20
158.998764
 11
5.312400
 21
158.998764
  0
LINE
  8
0
  6
CONTINUOUS
 10
15.394200
 20
14.998780
 11
5.312400
 21
14.998780
  0
LINE
  8
0
  6
CONTINUOUS
 10
95.312202
 20
25.481440
 11
95.312202
 21
148.516083
  0
LINE
  8
0
  6
CONTINUOUS
 10
94.330002
 20
149.515945
 11
19.277599
 21
150.825638
  0
LINE
  8
0
  6
CONTINUOUS
 10
94.330002
 20
24.481621
 11
19.277599
 21
23.171301
  0
LINE
  8
0
  6
CONTINUOUS
 10
19.221399
 20
126.998741
 11
94.245003
 21
126.998741
  0
LINE
  8
0
  6
CONTINUOUS
 10
19.221399
 20
46.998760
 11
93.921997
 21
46.998760
  0
LINE
  8
0
  6
CONTINUOUS
 10
17.809000
 20
16.851740
 11
18.918200
 21
20.991579
  0
LINE
  8
0
  6
CONTINUOUS
 10
17.809000
 20
157.145844
 11
18.918400
 21
153.005325
  0
ARC
  8
0
  6
CONTINUOUS
 10
21.816200
 20
153.781845
 40
3.000000
 50
195.000702
 51
269.000488
  0
ARC
  8
0
  6
CONTINUOUS
 10
15.312400
 20
156.998764
 40
2.000000
 50
0.000000
 51
90.000000
  0
ARC
  8
0
  6
CONTINUOUS
 10
19.312401
 20
152.825363
 40
2.000000
 50
180.000000
 51
269.000610
  0
ARC
  8
0
  6
CONTINUOUS
 10
21.816000
 20
20.215139
 40
3.000000
 50
91.000526
 51
165.000305
  0
ARC
  8
0
  6
CONTINUOUS
 10
19.312401
 20
21.171619
 40
2.000000
 50
91.000633
 51
180.000000
  0
ARC
  8
0
  6
CONTINUOUS
 10
15.312400
 20
16.998779
 40
2.000000
 50
-90.000000
 51
0.000000
  0
ARC
  8
0
  6
CONTINUOUS
 10
94.312202
 20
148.516083
 40
1.000000
 50
0.000000
 51
89.000359
  0
ARC
  8
0
  6
CONTINUOUS
 10
94.312202
 20
25.481440
 40
1.000000
 50
-88.999573
 51
0.000000
  0
LINE
  8
0
  6
CENTER
 10
-0.181400
 20
146.998764
 11
22.455200
 21
146.998764
  0
LINE
  8
0
  6
CENTER
 10
-0.181400
 20
26.998739
 11
22.455200
 21
26.998739
  0
LINE
  8
0
  6
DASHED
 10
5.312400
 20
152.498764
 11
17.312401
 21
152.498764
  0
LINE
  8
0
  6
DASHED
 10
5.312400
 20
141.498764
 11
17.312401
 21
141.498764
  0
LINE
  8
0
  6
DASHED
 10
5.312400
 20
32.498741
 11
17.312401
 21
32.498741
  0
LINE
  8
0
  6
DASHED
 10
5.312400
 20
21.498739
 11
17.312401
 21
21.498739
  0
LINE
  8
0
  6
CONTINUOUS
 10
111.312202
 20
79.805908
 11
111.312202
 21
130.191605
  0
LINE
  8
0
  6
CONTINUOUS
 10
101.312202
 20
46.803600
 11
101.312202
 21
107.068741
  0
LINE
  8
0
  6
CONTINUOUS
 10
109.082603
 20
133.091034
 11
97.542397
 21
136.156433
  0
LINE
  8
0
  6
CONTINUOUS
 10
109.082603
 20
76.906464
 11
103.542000
 21
75.434807
  0
LINE
  8
0
  6
CONTINUOUS
 10
99.085403
 20
43.904919
 11
97.539398
 21
43.492619
  0
ARC
  8
0
  6
CONTINUOUS
 10
108.312202
 20
130.191605
 40
3.000000
 50
0.000000
 51
75.124413
  0
ARC
  8
0
  6
CONTINUOUS
 10
108.312202
 20
79.805908
 40
3.000000
 50
-75.124207
 51
0.000000
  0
ARC
  8
0
  6
CONTINUOUS
 10
98.312202
 20
46.803600
 40
3.000000
 50
-75.068420
 51
0.000000
  0
ARC
  8
0
  6
CONTINUOUS
 10
98.312202
 20
139.055923
 40
3.000000
 50
180.000000
 51
255.124603
  0
ARC
  8
0
  6
CONTINUOUS
 10
104.312202
 20
72.535362
 40
3.000000
 50
104.876099
 51
180.000000
  0
ARC
  8
0
  6
CONTINUOUS
 10
98.312202
 20
40.593922
 40
3.000000
 50
104.931801
 51
180.000000
  0
LINE
  8
0
  6
CONTINUOUS
 10
110.812202
 20
31.998739
 11
110.812202
 21
41.050098
  0
LINE
  8
0
  6
CONTINUOUS
 10
105.812202
 20
26.998739
 11
96.761200
 21
26.998739
  0
ARC
  8
0
  6
CONTINUOUS
 10
63.312199
 20
74.498756
 40
57.250000
 50
-32.501888
 51
19.914110
  0
ARC
  8
0
  6
CONTINUOUS
 10
63.312199
 20
74.498756
 40
57.250000
 50
243.004898
 51
298.995514
  0
ARC
  8
0
  6
CONTINUOUS
 10
105.812202
 20
31.998739
 40
5.000000
 50
-90.000000
 51
0.000000
  0
ARC
  8
0
  6
CONTINUOUS
 10
115.812202
 20
41.050098
 40
5.000000
 50
147.498093
 51
180.000000
  0
ARC
  8
0
  6
CONTINUOUS
 10
96.761200
 20
21.998739
 40
5.000000
 50
90.000000
 51
106.842003
  0
LINE
  8
0
  6
CONTINUOUS
 10
5.312400
 20
158.998764
 11
5.312400
 21
104.998756
  0
LINE
  8
0
  6
CONTINUOUS
 10
17.312401
 20
16.998779
 11
17.312401
 21
104.998756
  0
LINE
  8
0
  6
CONTINUOUS
 10
153.312195
 20
93.998764
 11
153.312195
 21
115.998741
  0
LINE
  8
0
  6
CONTINUOUS
 10
113.312202
 20
115.998741
 11
153.312195
 21
115.998741
  0
LINE
  8
0
  6
CONTINUOUS
 10
113.312202
 20
93.998764
 11
153.312195
 21
93.998764
  0
LINE
  8
0
  6
CONTINUOUS
 10
113.312202
 20
117.498741
 11
113.312202
 21
92.498764
  0
LINE
  8
0
  6
CONTINUOUS
 10
111.312202
 20
117.498741
 11
113.312202
 21
117.498741
  0
LINE
  8
0
  6
CONTINUOUS
 10
111.312202
 20
92.498764
 11
113.312202
 21
92.498764
  0
ARC
  8
0
  6
CONTINUOUS
 10
121.312202
 20
104.998756
 40
3.000000
 50
90.000000
 51
270.000000
  0
LINE
  8
0
  6
CONTINUOUS
 10
121.312202
 20
107.998741
 11
153.312195
 21
107.998741
  0
LINE
  8
0
  6
CONTINUOUS
 10
121.312202
 20
101.998756
 11
153.312195
 21
101.998756
  0
ARC
  8
0
  6
CONTINUOUS
 10
15.394200
 20
156.498764
 40
2.500000
 50
15.000760
 51
90.000000
  0
ARC
  8
0
  6
CONTINUOUS
 10
15.394200
 20
17.498779
 40
2.500000
 50
270.000000
 51
345.000214
  0
ARC
  8
0
  6
CONTINUOUS
 10
63.312199
 20
74.498756
 40
57.499821
 50
303.815704
 51
303.996307
  0
ARC
  8
0
  6
CONTINUOUS
 10
63.312199
 20
74.498756
 40
57.500000
 50
242.540298
 51
299.460602
  0
ARC
  8
0
  6
CONTINUOUS
 10
63.312199
 20
74.498756
 40
57.500000
 50
-33.996769
 51
19.823891
  0
ARC
  8
0
  6
CONTINUOUS
 10
63.312199
 20
74.498756
 40
57.500000
 50
303.815613
 51
303.997314
  0
LINE
  8
0
  6
CONTINUOUS
 10
335.713074
 20
285.634491
 11
335.915771
 21
293.373749
  0
ARC
  8
0
  6
CONTINUOUS
 10
334.213593
 20
285.673767
 40
1.500000
 50
270.000000
 51
358.499664
  0
ARC
  8
0
  6
CONTINUOUS
 10
338.174774
 20
363.173767
 40
1.000000
 50
-90.000000
 51
0.000000
  0
ARC
  8
0
  6
CONTINUOUS
 10
338.693726
 20
361.242249
 40
1.000000
 50
105.039177
 51
178.499649
  0
LINE
  8
0
  6
CENTER
 10
282.174774
 20
219.972061
 11
282.174774
 21
387.293762
  0
LINE
  8
0
  6
CONTINUOUS
 10
307.367615
 20
268.173767
 11
256.981934
 21
268.173767
  0
LINE
  8
0
  6
CONTINUOUS
 10
252.018524
 20
278.173767
 11
248.731689
 21
278.173767
  0
ARC
  8
0
  6
CONTINUOUS
 10
256.981934
 20
271.173767
 40
3.000000
 50
-165.124313
 51
-90.000000
  0
LINE
  8
0
  6
CONTINUOUS
 10
245.832230
 20
280.403595
 11
245.423080
 21
281.943939
  0
ARC
  8
0
  6
CONTINUOUS
 10
248.731689
 20
281.173767
 40
3.000000
 50
-165.124313
 51
-90.000000
  0
ARC
  8
0
  6
CONTINUOUS
 10
242.523621
 20
281.173767
 40
3.000000
 50
14.875682
 51
90.000000
  0
LINE
  8
0
  6
CONTINUOUS
 10
252.018524
 20
278.173767
 11
254.082474
 21
270.403595
  0
LINE
  8
0
  6
CONTINUOUS
 10
318.517334
 20
280.403595
 11
318.926483
 21
281.943939
  0
ARC
  8
0
  6
CONTINUOUS
 10
315.617859
 20
281.173767
 40
3.000000
 50
270.000000
 51
345.124329
  0
ARC
  8
0
  6
CONTINUOUS
 10
321.825928
 20
281.173767
 40
3.000000
 50
90.000000
 51
165.124313
  0
LINE
  8
0
  6
CONTINUOUS
 10
312.331024
 20
278.173767
 11
315.617859
 21
278.173767
  0
ARC
  8
0
  6
CONTINUOUS
 10
307.367615
 20
271.173767
 40
3.000000
 50
270.000000
 51
345.124329
  0
LINE
  8
0
  6
CONTINUOUS
 10
312.331024
 20
278.173767
 11
310.267090
 21
270.403595
  0
LINE
  8
0
  6
CONTINUOUS
 10
293.174774
 20
226.173767
 11
268.674774
 21
226.173767
  0
LINE
  8
0
  6
CONTINUOUS
 10
271.174774
 20
266.173767
 11
271.174774
 21
261.173767
  0
LINE
  8
0
  6
CONTINUOUS
 10
293.174774
 20
266.173767
 11
293.174774
 21
226.173767
  0
LINE
  8
0
  6
CONTINUOUS
 10
269.674774
 20
268.173767
 11
269.674774
 21
266.173767
  0
LINE
  8
0
  6
CONTINUOUS
 10
294.674774
 20
268.173767
 11
294.674774
 21
266.173767
  0
LINE
  8
0
  6
CONTINUOUS
 10
294.674774
 20
266.173767
 11
269.674774
 21
266.173767
  0
LINE
  8
0
  6
CONTINUOUS
 10
268.674774
 20
261.173767
 11
268.674774
 21
226.173767
  0
LINE
  8
0
  6
CONTINUOUS
 10
271.591766
 20
226.173767
 11
271.591766
 21
261.173767
  0
LINE
  8
0
  6
CONTINUOUS
 10
271.591766
 20
261.173767
 11
268.674774
 21
261.173767
  0
ARC
  8
0
  6
CONTINUOUS
 10
397.359192
 20
314.580078
 40
65.000000
 50
157.957932
 51
199.041382
  0
LINE
  8
0
  6
CONTINUOUS
 10
337.110138
 20
338.973755
 11
337.694092
 21
361.268433
  0
LINE
  8
0
  6
CONTINUOUS
 10
512.924805
 20
101.498741
 11
398.924805
 21
101.498741
  0
LINE
  8
0
  6
CONTINUOUS
 10
512.924805
 20
25.498779
 11
398.924805
 21
25.498779
  0
LINE
  8
0
  6
CONTINUOUS
 10
512.924805
 20
93.747742
 11
406.924805
 21
93.747742
  0
LINE
  8
0
  6
CONTINUOUS
 10
512.924805
 20
33.249779
 11
406.924805
 21
33.249779
  0
LINE
  8
0
  6
CONTINUOUS
 10
406.924805
 20
99.498741
 11
406.924805
 21
27.498760
  0
ARC
  8
0
  6
CONTINUOUS
 10
404.924805
 20
99.498756
 40
2.000000
 50
0.000000
 51
90.000000
  0
ARC
  8
0
  6
CONTINUOUS
 10
404.924805
 20
27.498779
 40
2.000000
 50
-90.000000
 51
0.000000
  0
LINE
  8
0
  6
CONTINUOUS
 10
357.337555
 20
102.951019
 11
398.924805
 21
101.498756
  0
LINE
  8
0
  6
CONTINUOUS
 10
346.924805
 20
23.682880
 11
398.924805
 21
25.498760
  0
LINE
  8
0
  6
CONTINUOUS
 10
354.924805
 20
130.998764
 11
354.924805
 21
103.998756
  0
LINE
  8
0
  6
CONTINUOUS
 10
353.924805
 20
131.998764
 11
346.924774
 21
131.998764
  0
LINE
  8
0
  6
CONTINUOUS
 10
352.424805
 20
16.998760
 11
346.924805
 21
16.998760
  0
LINE
  8
0
  6
CONTINUOUS
 10
354.924805
 20
104.498756
 11
354.924805
 21
33.586105
  0
LINE
  8
0
  6
CONTINUOUS
 10
398.924805
 20
101.498756
 11
398.924805
 21
25.498760
  0
LINE
  8
0
  6
CONTINUOUS
 10
356.337921
 20
114.816566
 11
382.281342
 21
102.292152
  0
ARC
  8
0
  6
CONTINUOUS
 10
353.924805
 20
130.998764
 40
1.000000
 50
0.000000
 51
90.000000
  0
ARC
  8
0
  6
CONTINUOUS
 10
357.424805
 20
117.067940
 40
2.500000
 50
180.000000
 51
244.230682
  0
ARC
  8
0
  6
CONTINUOUS
 10
357.424805
 20
105.449493
 40
2.500000
 50
180.000000
 51
268.000000
  0
ARC
  8
0
  6
CONTINUOUS
 10
383.368225
 20
104.543533
 40
2.500000
 50
-115.769325
 51
-92.000000
  0
LINE
  8
0
  6
CONTINUOUS
 10
353.799713
 20
31.344761
 11
346.924805
 21
31.344761
  0
LINE
  8
0
  6
CONTINUOUS
 10
354.924805
 20
19.498760
 11
354.924805
 21
21.548023
  0
ARC
  8
0
  6
CONTINUOUS
 10
352.424805
 20
19.498760
 40
2.500000
 50
-90.000000
 51
0.000000
  0
ARC
  8
0
  6
CONTINUOUS
 10
357.424805
 20
21.548023
 40
2.500000
 50
92.000000
 51
180.000000
  0
LINE
  8
0
  6
CENTER
 10
583.929993
 20
63.498760
 11
314.174805
 21
63.498760
  0
LINE
  8
0
  6
CONTINUOUS
 10
352.424774
 20
373.673767
 11
346.924774
 21
373.673767
  0
LINE
  8
0
  6
CONTINUOUS
 10
352.424774
 20
258.673767
 11
346.924774
 21
258.673767
  0
LINE
  8
0
  6
CONTINUOUS
 10
354.924774
 20
371.173767
 11
354.924774
 21
261.173767
  0
LINE
  8
0
  6
CONTINUOUS
 10
398.924774
 20
278.173767
 11
398.924774
 21
354.173767
  0
LINE
  8
0
  6
CONTINUOUS
 10
357.337524
 20
276.721497
 11
398.924774
 21
278.173767
  0
LINE
  8
0
  6
CONTINUOUS
 10
357.337524
 20
355.626007
 11
398.924774
 21
354.173767
  0
ARC
  8
0
  6
CONTINUOUS
 10
352.424774
 20
261.173767
 40
2.500000
 50
-90.000000
 51
0.000000
  0
ARC
  8
0
  6
CONTINUOUS
 10
352.424774
 20
371.173767
 40
2.500000
 50
0.000000
 51
90.000000
  0
LINE
  8
0
  6
CONTINUOUS
 10
398.924774
 20
278.173767
 11
398.924774
 21
354.173767
  0
LINE
  8
0
  6
CONTINUOUS
 10
512.924683
 20
278.173767
 11
398.924652
 21
278.173767
  0
LINE
  8
0
  6
CONTINUOUS
 10
512.924683
 20
354.173737
 11
398.924652
 21
354.173737
  0
LINE
  8
0
  6
CONTINUOUS
 10
406.924652
 20
280.173767
 11
406.924652
 21
293.173767
  0
ARC
  8
0
  6
CONTINUOUS
 10
404.924652
 20
280.173767
 40
2.000000
 50
-90.000000
 51
0.000000
  0
ARC
  8
0
  6
CONTINUOUS
 10
404.924652
 20
352.173737
 40
2.000000
 50
0.000000
 51
90.000000
  0
LINE
  8
0
  6
CONTINUOUS
 10
471.924652
 20
293.173767
 11
406.924652
 21
293.173767
  0
LINE
  8
0
  6
CONTINUOUS
 10
471.924652
 20
339.173767
 11
406.924652
 21
339.173767
  0
LINE
  8
0
  6
CONTINUOUS
 10
406.924652
 20
339.173767
 11
406.924652
 21
352.173767
  0
ARC
  8
0
  6
CONTINUOUS
 10
367.755127
 20
316.173767
 40
15.000000
 50
-49.252373
 51
49.252373
  0
LINE
  8
0
  6
CONTINUOUS
 10
355.792969
 20
286.067780
 11
377.546082
 21
304.809875
  0
LINE
  8
0
  6
CONTINUOUS
 10
355.792969
 20
346.279755
 11
377.546082
 21
327.537628
  0
ARC
  8
0
  6
CONTINUOUS
 10
357.424774
 20
284.173798
 40
2.500000
 50
130.747620
 51
180.000000
  0
ARC
  8
0
  6
CONTINUOUS
 10
357.424774
 20
274.223022
 40
2.500000
 50
92.000000
 51
180.000000
  0
ARC
  8
0
  6
CONTINUOUS
 10
357.424774
 20
348.173737
 40
2.500000
 50
180.000000
 51
229.252380
  0
ARC
  8
0
  6
CONTINUOUS
 10
357.424774
 20
358.124481
 40
2.500000
 50
180.000000
 51
268.000000
  0
LINE
  8
0
  6
CONTINUOUS
 10
512.924683
 20
354.173737
 11
512.924683
 21
341.173767
  0
LINE
  8
0
  6
CONTINUOUS
 10
512.924683
 20
354.173737
 11
522.424683
 21
354.173737
  0
LINE
  8
0
  6
CONTINUOUS
 10
512.924683
 20
278.173737
 11
522.424683
 21
278.173737
  0
LINE
  8
0
  6
CONTINUOUS
 10
521.924683
 20
293.173767
 11
522.424683
 21
293.173737
  0
LINE
  8
0
  6
CONTINUOUS
 10
521.924683
 20
339.173737
 11
522.424683
 21
339.173737
  0
LINE
  8
0
  6
CONTINUOUS
 10
512.924683
 20
291.173767
 11
512.924683
 21
278.173737
  0
LINE
  8
0
  6
CONTINUOUS
 10
522.424683
 20
276.173737
 11
522.424683
 21
308.673767
  0
LINE
  8
0
  6
CONTINUOUS
 10
566.424683
 20
356.173737
 11
522.424683
 21
356.173737
  0
LINE
  8
0
  6
CONTINUOUS
 10
566.424683
 20
276.173737
 11
522.424683
 21
276.173737
  0
LINE
  8
0
  6
CONTINUOUS
 10
571.424683
 20
281.173737
 11
571.424683
 21
351.173737
  0
ARC
  8
0
  6
CONTINUOUS
 10
566.424683
 20
351.173737
 40
5.000000
 50
0.000000
 51
90.000000
  0
ARC
  8
0
  6
CONTINUOUS
 10
566.424683
 20
281.173737
 40
5.000000
 50
-90.000000
 51
0.000000
  0
LINE
  8
0
  6
CONTINUOUS
 10
568.924683
 20
340.173737
 11
522.424683
 21
340.173737
  0
LINE
  8
0
  6
CONTINUOUS
 10
568.924683
 20
290.173737
 11
522.424683
 21
290.173737
  0
LINE
  8
0
  6
CONTINUOUS
 10
522.424805
 20
101.498741
 11
512.924805
 21
101.498741
  0
LINE
  8
0
  6
CONTINUOUS
 10
522.424805
 20
25.498739
 11
512.924805
 21
25.498739
  0
LINE
  8
0
  6
CONTINUOUS
 10
522.424805
 20
23.498739
 11
522.424805
 21
103.498741
  0
LINE
  8
0
  6
CONTINUOUS
 10
522.424805
 20
93.747742
 11
512.924805
 21
93.747742
  0
LINE
  8
0
  6
CONTINUOUS
 10
522.424805
 20
33.249741
 11
512.924805
 21
33.249741
  0
LINE
  8
0
  6
CONTINUOUS
 10
566.424805
 20
103.498741
 11
522.424805
 21
103.498741
  0
LINE
  8
0
  6
CONTINUOUS
 10
566.424805
 20
23.498739
 11
522.424805
 21
23.498739
  0
LINE
  8
0
  6
CONTINUOUS
 10
571.424805
 20
28.498739
 11
571.424805
 21
98.498741
  0
ARC
  8
0
  6
CONTINUOUS
 10
566.424805
 20
98.498741
 40
5.000000
 50
0.000000
 51
90.000000
  0
ARC
  8
0
  6
CONTINUOUS
 10
566.424805
 20
28.498739
 40
5.000000
 50
-90.000000
 51
0.000000
  0
LINE
  8
0
  6
CONTINUOUS
 10
568.924805
 20
89.498741
 11
522.424805
 21
89.498741
  0
LINE
  8
0
  6
CONTINUOUS
 10
568.924805
 20
39.498737
 11
522.424805
 21
39.498737
  0
LINE
  8
0
  6
CONTINUOUS
 10
512.924805
 20
25.498758
 11
512.924805
 21
101.498741
  0
LINE
  8
0
  6
CONTINUOUS
 10
522.924683
 20
308.673767
 11
521.924683
 21
308.673767
  0
ARC
  8
0
  6
CONTINUOUS
 10
522.924622
 20
309.673767
 40
1.000000
 50
-90.000000
 51
0.000000
  0
LINE
  8
0
  6
CONTINUOUS
 10
527.424622
 20
312.173767
 11
527.424622
 21
320.173767
  0
LINE
  8
0
  6
CONTINUOUS
 10
527.424622
 20
312.173767
 11
523.924622
 21
310.673767
  0
LINE
  8
0
  6
CONTINUOUS
 10
527.424683
 20
320.173767
 11
523.924683
 21
321.673767
  0
LINE
  8
0
  6
CONTINUOUS
 10
523.924622
 20
309.673767
 11
523.924622
 21
322.673767
  0
LINE
  8
0
  6
CONTINUOUS
 10
522.924683
 20
323.673767
 11
521.924683
 21
323.673767
  0
ARC
  8
0
  6
CONTINUOUS
 10
522.924622
 20
322.673767
 40
1.000000
 50
0.000000
 51
90.000000
  0
LINE
  8
0
  6
CONTINUOUS
 10
521.924683
 20
339.173767
 11
521.924683
 21
293.173767
  0
LINE
  8
0
  6
CONTINUOUS
 10
519.924683
 20
291.173767
 11
521.924683
 21
293.173767
  0
LINE
  8
0
  6
CONTINUOUS
 10
519.924683
 20
291.173767
 11
473.924652
 21
291.173767
  0
LINE
  8
0
  6
CONTINUOUS
 10
479.424652
 20
295.673767
 11
479.424652
 21
291.173767
  0
ARC
  8
0
  6
CONTINUOUS
 10
476.424652
 20
295.673767
 40
3.000000
 50
0.000000
 51
90.000000
  0
LINE
  8
0
  6
CONTINUOUS
 10
476.424652
 20
298.673767
 11
471.924652
 21
298.673767
  0
CIRCLE
  8
0
  6
CONTINUOUS
 10
475.424652
 20
294.673767
 40
2.250000
  0
LINE
  8
0
  6
CONTINUOUS
 10
471.924652
 20
339.173767
 11
471.924652
 21
293.173767
  0
LINE
  8
0
  6
CONTINUOUS
 10
473.924652
 20
291.173767
 11
471.924652
 21
293.173767
  0
LINE
  8
0
  6
CONTINUOUS
 10
473.924652
 20
341.173767
 11
471.924652
 21
339.173767
  0
LINE
  8
0
  6
CONTINUOUS
 10
473.924652
 20
341.173767
 11
519.924683
 21
341.173767
  0
LINE
  8
0
  6
CONTINUOUS
 10
521.924683
 20
339.173767
 11
519.924683
 21
341.173767
  0
LINE
  8
0
  6
CONTINUOUS
 10
517.424683
 20
333.673767
 11
521.924622
 21
333.673767
  0
CIRCLE
  8
0
  6
CONTINUOUS
 10
518.424683
 20
337.673767
 40
2.250000
  0
ARC
  8
0
  6
CONTINUOUS
 10
517.424683
 20
336.673767
 40
3.000000
 50
180.000000
 51
270.000000
  0
LINE
  8
0
  6
CONTINUOUS
 10
514.424683
 20
336.673767
 11
514.424683
 21
341.173767
  0
LINE
  8
0
  6
CENTER
 10
496.924652
 20
348.639557
 11
496.924652
 21
284.507538
  0
LINE
  8
0
  6
CONTINUOUS
 10
519.510437
 20
292.173767
 11
520.924622
 21
293.587982
  0
LINE
  8
0
  6
CONTINUOUS
 10
520.924622
 20
333.673767
 11
520.924622
 21
293.587982
  0
LINE
  8
0
  6
CONTINUOUS
 10
479.424652
 20
292.173767
 11
519.510437
 21
292.173767
  0
LINE
  8
0
  6
CONTINUOUS
 10
472.924652
 20
298.673767
 11
472.924652
 21
338.759552
  0
LINE
  8
0
  6
CONTINUOUS
 10
514.424683
 20
340.173767
 11
474.338867
 21
340.173767
  0
LINE
  8
0
  6
CONTINUOUS
 10
474.338867
 20
340.173767
 11
472.924652
 21
338.759552
  0
LINE
  8
0
  6
CONTINUOUS
 10
520.424805
 20
102.998764
 11
473.924805
 21
102.998764
  0
LINE
  8
0
  6
CONTINUOUS
 10
471.924805
 20
132.998764
 11
471.924805
 21
104.998764
  0
LINE
  8
0
  6
CONTINUOUS
 10
521.924805
 20
132.998764
 11
521.924805
 21
104.998764
  0
LINE
  8
0
  6
CONTINUOUS
 10
523.924805
 20
114.998764
 11
471.924805
 21
114.998764
  0
LINE
  8
0
  6
CONTINUOUS
 10
473.924805
 20
102.998764
 11
471.924805
 21
104.998764
  0
LINE
  8
0
  6
CONTINUOUS
 10
521.924805
 20
104.998764
 11
519.924805
 21
102.998764
  0
LINE
  8
0
  6
CONTINUOUS
 10
521.924805
 20
104.998764
 11
471.924805
 21
104.998764
  0
LINE
  8
0
  6
CONTINUOUS
 10
520.924805
 20
133.998764
 11
472.924805
 21
133.998764
  0
LINE
  8
0
  6
CONTINUOUS
 10
472.924805
 20
133.998764
 11
471.924805
 21
132.998764
  0
LINE
  8
0
  6
CONTINUOUS
 10
520.924805
 20
133.998764
 11
521.924805
 21
132.998764
  0
LINE
  8
0
  6
CONTINUOUS
 10
521.924805
 20
132.998764
 11
471.924805
 21
132.998764
  0
LINE
  8
0
  6
CENTER
 10
529.868530
 20
124.498764
 11
517.793518
 21
124.498764
  0
LINE
  8
0
  6
CONTINUOUS
 10
523.924805
 20
130.998764
 11
523.924805
 21
114.998764
  0
LINE
  8
0
  6
CONTINUOUS
 10
522.924805
 20
131.998764
 11
521.924805
 21
131.998764
  0
ARC
  8
0
  6
CONTINUOUS
 10
522.924805
 20
130.998764
 40
1.000000
 50
0.000000
 51
90.000000
  0
LINE
  8
0
  6
CONTINUOUS
 10
527.424805
 20
128.498764
 11
527.424805
 21
120.498764
  0
LINE
  8
0
  6
CONTINUOUS
 10
527.424805
 20
128.498764
 11
523.924805
 21
129.998764
  0
LINE
  8
0
  6
CONTINUOUS
 10
527.424805
 20
120.498764
 11
523.924805
 21
118.998764
  0
LINE
  8
0
  6
CENTER
 10
496.924805
 20
98.305008
 11
496.924805
 21
139.386261
  0
LINE
  8
0
  6
CONTINUOUS
 10
520.424805
 20
102.998764
 11
520.424805
 21
101.498764
  0
LINE
  8
0
  6
CONTINUOUS
 10
474.424805
 20
102.998764
 11
474.424805
 21
101.498764
  0
LINE
  8
0
  6
CONTINUOUS
 10
522.424683
 20
323.673767
 11
522.424683
 21
356.173737
  0
LINE
  8
0
  6
DASHED
 10
242.674698
 20
374.173767
 11
242.674698
 21
362.173767
  0
LINE
  8
0
  6
CENTER
 10
237.174698
 20
377.367493
 11
237.174698
 21
358.533112
  0
LINE
  8
0
  6
DASHED
 10
231.674698
 20
374.173767
 11
231.674698
 21
362.173767
  0
LINE
  8
0
  6
DASHED
 10
321.674866
 20
374.173767
 11
321.674866
 21
362.173767
  0
LINE
  8
0
  6
CENTER
 10
327.174866
 20
377.367493
 11
327.174866
 21
358.533112
  0
LINE
  8
0
  6
DASHED
 10
332.674866
 20
374.173767
 11
332.674866
 21
362.173767
  0
LINE
  8
0
  6
CONTINUOUS
 10
354.924774
 20
54.098759
 11
398.924774
 21
54.098759
  0
LINE
  8
0
  6
CONTINUOUS
 10
354.924774
 20
43.898762
 11
398.924774
 21
43.898762
  0
TEXT
  8
0
 10
-21.000000
 20
0.000000
 40
4.000000
 41
1.000000
  1
HFM-22L-300~450-S60T
 50
0.000000
  0
ENDSEC
  0
EOF
