  0
SECTION
  2
HEADER
  9
$CLAYER
  8
1
  9
$LTSCALE
 40
3.0
  0
ENDSEC
  0
SECTION
  2
TABLES
  0
TABLE
  2
LTYPE
 70
     4
  0
LTYPE
  2
CONTINUOUS
  3
solid line
 70
    64
 72
    65
 73
     0
 40
0.0
  0
LTYPE
  2
DASHED
  3
__ __ __ __ __ __ __ __ __ __ __ __ __ __ __
 70
    64
 72
    65
 73
     2
 40
0.75
 49
0.5
 49
-0.25
  0
LTYPE
  2
CENTER
  3
____ _ ____ _ ____ _ ____ _ ____ _ ____ _ ____
 70
    64
 72
    65
 73
     4
 40
2.0
 49
1.25
 49
-0.25
 49
0.25
 49
-0.25
  0
LTYPE
  2
PHANTOM
  3
_____ _ _ _____ _ _ _____ _ _ _____ _ _ ____
 70
    64
 72
    65
 73
     6
 40
2.5
 49
1.25
 49
-0.25
 49
0.25
 49
-0.25
 49
0.25
 49
-0.25
  0
ENDTAB
  0
TABLE
  2
LAYER
 70
     1
  0
LAYER
  2
0
 70
    64
 62
     7
  6
CONTINUOUS
  0
ENDTAB
  0
TABLE
  2
STYLE
 70
     1
  0
STYLE
  2
STANDARD
 70
     0
 40
0.000000
 41
1.000000
 50
0.000000
 71
     0
 42
3.000000
  3
txt
  4
BIGFONT
  0
ENDTAB
  0
ENDSEC
  0
SECTION
  2
BLOCKS
  0
ENDSEC
  0
SECTION
  2
ENTITIES
  0
LINE
  8
0
  6
CENTER
 10
293.654785
 20
168.390015
 11
293.654785
 21
0.652500
  0
LINE
  8
0
  6
CENTER
 10
342.566589
 20
103.308762
 11
228.585968
 21
103.308762
  0
LINE
  8
0
  6
CONTINUOUS
 10
343.654785
 20
106.808762
 11
343.654785
 21
62.948071
  0
LINE
  8
0
  6
CONTINUOUS
 10
243.654770
 20
107.669441
 11
243.654770
 21
62.948093
  0
ARC
  8
0
  6
CONTINUOUS
 10
293.654785
 20
85.308769
 40
60.000000
 50
48.189610
 51
131.810394
  0
ARC
  8
0
  6
CONTINUOUS
 10
293.654785
 20
85.308769
 40
60.000000
 50
-131.810303
 51
-48.189701
  0
ARC
  8
0
  6
CONTINUOUS
 10
273.654785
 20
107.669441
 40
30.000000
 50
131.810394
 51
180.000000
  0
CIRCLE
  8
0
  6
CONTINUOUS
 10
293.654785
 20
103.308762
 40
27.500000
  0
ARC
  8
0
  6
CONTINUOUS
 10
293.654785
 20
103.308762
 40
31.750000
 50
7.552597
 51
172.447296
  0
ARC
  8
0
  6
CONTINUOUS
 10
310.404785
 20
61.808765
 40
20.600000
 50
-90.000000
 51
7.552597
  0
ARC
  8
0
  6
CONTINUOUS
 10
276.904785
 20
61.808765
 40
20.600000
 50
172.447296
 51
270.000000
  0
LINE
  8
0
  6
CONTINUOUS
 10
262.180176
 20
107.481918
 11
256.483368
 21
64.516388
  0
LINE
  8
0
  6
CONTINUOUS
 10
330.825989
 20
64.516350
 11
325.129181
 21
107.481857
  0
LINE
  8
0
  6
CONTINUOUS
 10
310.404785
 20
41.208759
 11
276.904785
 21
41.208759
  0
ARC
  8
0
  6
CONTINUOUS
 10
310.404785
 20
61.808765
 40
19.000000
 50
-90.000000
 51
7.552399
  0
ARC
  8
0
  6
CONTINUOUS
 10
276.904785
 20
61.808765
 40
19.000000
 50
172.447296
 51
270.000000
  0
ARC
  8
0
  6
CONTINUOUS
 10
293.654785
 20
103.308762
 40
30.150000
 50
-187.552704
 51
7.552612
  0
LINE
  8
0
  6
CONTINUOUS
 10
329.239777
 20
64.306053
 11
323.543182
 21
107.271584
  0
LINE
  8
0
  6
CONTINUOUS
 10
263.766174
 20
107.271622
 11
258.069580
 21
64.306091
  0
LINE
  8
0
  6
CONTINUOUS
 10
310.404785
 20
42.808762
 11
276.904785
 21
42.808762
  0
ARC
  8
0
  6
CONTINUOUS
 10
313.654785
 20
107.669456
 40
30.000000
 50
-1.671204
 51
48.189610
  0
ARC
  8
0
  6
CONTINUOUS
 10
313.654785
 20
62.948071
 40
30.000000
 50
-48.189701
 51
0.000000
  0
LINE
  8
0
  6
CONTINUOUS
 10
358.404785
 20
130.058762
 11
340.855560
 21
130.058762
  0
LINE
  8
0
  6
CONTINUOUS
 10
352.840179
 20
15.558760
 11
358.404785
 21
15.558760
  0
LINE
  8
0
  6
CONTINUOUS
 10
348.154785
 20
120.308762
 11
358.404785
 21
120.308762
  0
LINE
  8
0
  6
CONTINUOUS
 10
353.415588
 20
25.281321
 11
358.404785
 21
25.308762
  0
LINE
  8
0
  6
CONTINUOUS
 10
351.857788
 20
104.768761
 11
358.404785
 21
104.768761
  0
LINE
  8
0
  6
CONTINUOUS
 10
351.857788
 20
40.848759
 11
358.404785
 21
40.848759
  0
LINE
  8
0
  6
CENTER
 10
347.301575
 20
145.308762
 11
330.004761
 21
145.308762
  0
LINE
  8
0
  6
CENTER
 10
257.217163
 20
145.308762
 11
232.635971
 21
145.308762
  0
LINE
  8
0
  6
CENTER
 10
348.447571
 20
25.308760
 11
329.835968
 21
25.308760
  0
LINE
  8
0
  6
CENTER
 10
257.779785
 20
25.308760
 11
232.973373
 21
25.308760
  0
LINE
  8
0
  6
CENTER
 10
248.654770
 20
154.468140
 11
248.654770
 21
136.327499
  0
LINE
  8
0
  6
CENTER
 10
338.654785
 20
154.215027
 11
338.654785
 21
136.749374
  0
LINE
  8
0
  6
CENTER
 10
338.654785
 20
34.486881
 11
338.654785
 21
8.077520
  0
LINE
  8
0
  6
CENTER
 10
248.654770
 20
34.655640
 11
248.654770
 21
8.752500
  0
CIRCLE
  8
0
  6
CONTINUOUS
 10
248.654770
 20
145.308762
 40
5.500000
  0
CIRCLE
  8
0
  6
CONTINUOUS
 10
338.654785
 20
145.308762
 40
5.500000
  0
CIRCLE
  8
0
  6
CONTINUOUS
 10
338.654785
 20
25.308760
 40
5.500000
  0
CIRCLE
  8
0
  6
CONTINUOUS
 10
248.654770
 20
25.308760
 40
5.500000
  0
ARC
  8
0
  6
CONTINUOUS
 10
248.654770
 20
145.308762
 40
12.000000
 50
90.000000
 51
180.000000
  0
ARC
  8
0
  6
CONTINUOUS
 10
338.654785
 20
145.308762
 40
12.000000
 50
0.000000
 51
90.000000
  0
ARC
  8
0
  6
CONTINUOUS
 10
338.654785
 20
25.308760
 40
12.000000
 50
270.000000
 51
358.060608
  0
ARC
  8
0
  6
CONTINUOUS
 10
248.654770
 20
25.308760
 40
12.000000
 50
180.000000
 51
270.000000
  0
LINE
  8
0
  6
CONTINUOUS
 10
248.654770
 20
157.308762
 11
338.654785
 21
157.308762
  0
LINE
  8
0
  6
CONTINUOUS
 10
338.654572
 20
13.308760
 11
248.654770
 21
13.308760
  0
LINE
  8
0
  6
CONTINUOUS
 10
236.654770
 20
145.308762
 11
236.654770
 21
25.308760
  0
LINE
  8
0
  6
CONTINUOUS
 10
351.312775
 20
24.437160
 11
351.842377
 21
16.492241
  0
ARC
  8
0
  6
CONTINUOUS
 10
352.840179
 20
16.558760
 40
1.000000
 50
-176.185806
 51
-90.000000
  0
LINE
  8
0
  6
CONTINUOUS
 10
283.358368
 20
50.308781
 11
279.197968
 21
50.308781
  0
LINE
  8
0
  6
CONTINUOUS
 10
285.654785
 20
57.277523
 11
285.654785
 21
50.308781
  0
LINE
  8
0
  6
CONTINUOUS
 10
289.654785
 20
59.808769
 11
289.654785
 21
62.308769
  0
LINE
  8
0
  6
CONTINUOUS
 10
297.654785
 20
59.808769
 11
297.654785
 21
62.308769
  0
LINE
  8
0
  6
CONTINUOUS
 10
292.873383
 20
60.840023
 11
292.873383
 21
51.621281
  0
LINE
  8
0
  6
CONTINUOUS
 10
294.373383
 20
60.840023
 11
294.373383
 21
51.621281
  0
LINE
  8
0
  6
CONTINUOUS
 10
302.248383
 20
60.840023
 11
302.248383
 21
51.558781
  0
LINE
  8
0
  6
CONTINUOUS
 10
303.623383
 20
55.918144
 11
303.623383
 21
51.558781
  0
LINE
  8
0
  6
CONTINUOUS
 10
283.756561
 20
60.715023
 11
279.901581
 21
60.715023
  0
LINE
  8
0
  6
CONTINUOUS
 10
279.901581
 20
60.715023
 11
278.998383
 21
59.595024
  0
LINE
  8
0
  6
CONTINUOUS
 10
279.106964
 20
62.308769
 11
277.654785
 21
60.449020
  0
LINE
  8
0
  6
CONTINUOUS
 10
278.998383
 20
52.681679
 11
279.916168
 21
51.715019
  0
LINE
  8
0
  6
CONTINUOUS
 10
277.654785
 20
51.865940
 11
279.197968
 21
50.308781
  0
LINE
  8
0
  6
CONTINUOUS
 10
277.654785
 20
60.449020
 11
277.654785
 21
51.865940
  0
LINE
  8
0
  6
CONTINUOUS
 10
278.998383
 20
59.595024
 11
278.998383
 21
52.681679
  0
LINE
  8
0
  6
CONTINUOUS
 10
284.498383
 20
59.997921
 11
283.741364
 21
60.715023
  0
LINE
  8
0
  6
CONTINUOUS
 10
284.486389
 20
62.308769
 11
285.654785
 21
61.012280
  0
LINE
  8
0
  6
CONTINUOUS
 10
284.498383
 20
59.808769
 11
285.654785
 21
59.808769
  0
LINE
  8
0
  6
CONTINUOUS
 10
279.106964
 20
62.308769
 11
284.486389
 21
62.308769
  0
LINE
  8
0
  6
CONTINUOUS
 10
282.404785
 20
57.277523
 11
285.654785
 21
57.277523
  0
LINE
  8
0
  6
CONTINUOUS
 10
284.498383
 20
55.965023
 11
282.404785
 21
55.965023
  0
LINE
  8
0
  6
CONTINUOUS
 10
281.998383
 20
51.715019
 11
279.916168
 21
51.715019
  0
LINE
  8
0
  6
CONTINUOUS
 10
284.498383
 20
54.715023
 11
284.498383
 21
55.715023
  0
ARC
  8
0
  6
CONTINUOUS
 10
281.998383
 20
54.215023
 40
2.500000
 50
-89.999786
 51
0.000109
  0
LINE
  8
0
  6
CONTINUOUS
 10
284.498383
 20
51.265320
 11
284.498383
 21
50.308781
  0
LINE
  8
0
  6
CONTINUOUS
 10
285.654785
 20
61.012280
 11
285.654785
 21
59.808769
  0
LINE
  8
0
  6
CONTINUOUS
 10
284.498383
 20
55.965023
 11
284.498383
 21
54.215023
  0
LINE
  8
0
  6
CONTINUOUS
 10
282.404785
 20
57.277523
 11
282.404785
 21
55.965023
  0
LINE
  8
0
  6
CONTINUOUS
 10
284.498383
 20
50.308781
 11
285.654785
 21
50.308781
  0
LINE
  8
0
  6
CONTINUOUS
 10
284.498383
 20
51.265320
 11
283.358368
 21
50.308781
  0
LINE
  8
0
  6
CONTINUOUS
 10
294.373383
 20
51.621281
 11
294.873383
 21
51.621281
  0
LINE
  8
0
  6
CONTINUOUS
 10
292.279785
 20
51.621281
 11
292.279785
 21
50.308781
  0
LINE
  8
0
  6
CONTINUOUS
 10
294.873383
 20
51.621281
 11
294.873383
 21
50.308781
  0
LINE
  8
0
  6
CONTINUOUS
 10
296.820160
 20
59.808769
 11
297.654785
 21
59.808769
  0
LINE
  8
0
  6
CONTINUOUS
 10
289.654785
 20
59.808769
 11
290.542786
 21
59.808769
  0
LINE
  8
0
  6
CONTINUOUS
 10
289.654785
 20
62.308769
 11
297.654785
 21
62.308769
  0
LINE
  8
0
  6
CONTINUOUS
 10
292.279785
 20
50.308781
 11
294.873383
 21
50.308781
  0
LINE
  8
0
  6
CONTINUOUS
 10
292.279785
 20
51.621281
 11
292.873383
 21
51.621281
  0
ARC
  8
0
  6
CONTINUOUS
 10
306.451569
 20
59.105644
 40
3.203126
 50
-73.981873
 51
90.003510
  0
ARC
  8
0
  6
CONTINUOUS
 10
306.451569
 20
59.105644
 40
1.954124
 50
-82.585274
 51
62.411850
  0
LINE
  8
0
  6
CONTINUOUS
 10
301.654785
 20
62.308769
 11
306.451569
 21
62.308769
  0
LINE
  8
0
  6
CONTINUOUS
 10
306.703766
 20
57.167866
 11
303.623383
 21
57.167866
  0
LINE
  8
0
  6
CONTINUOUS
 10
301.654785
 20
62.308769
 11
301.654785
 21
60.840023
  0
LINE
  8
0
  6
CONTINUOUS
 10
303.623383
 20
60.840023
 11
303.623383
 21
57.167866
  0
LINE
  8
0
  6
CONTINUOUS
 10
307.335388
 20
56.026878
 11
309.317963
 21
51.558781
  0
LINE
  8
0
  6
CONTINUOUS
 10
306.183960
 20
55.918144
 11
308.060181
 21
51.558781
  0
LINE
  8
0
  6
CONTINUOUS
 10
301.654785
 20
51.558781
 11
302.248383
 21
51.558781
  0
LINE
  8
0
  6
CONTINUOUS
 10
303.623383
 20
51.558781
 11
304.170380
 21
51.558781
  0
LINE
  8
0
  6
CONTINUOUS
 10
304.170380
 20
50.308781
 11
301.654785
 21
50.308781
  0
LINE
  8
0
  6
CONTINUOUS
 10
307.810974
 20
51.558781
 11
308.060181
 21
51.558781
  0
LINE
  8
0
  6
CONTINUOUS
 10
307.810974
 20
50.308781
 11
309.654785
 21
50.308781
  0
LINE
  8
0
  6
CONTINUOUS
 10
307.810974
 20
51.558781
 11
307.810974
 21
50.308781
  0
LINE
  8
0
  6
CONTINUOUS
 10
304.170380
 20
51.558781
 11
304.170380
 21
50.308781
  0
LINE
  8
0
  6
CONTINUOUS
 10
301.654785
 20
51.558781
 11
301.654785
 21
50.308781
  0
LINE
  8
0
  6
CONTINUOUS
 10
290.972382
 20
60.840023
 11
290.542786
 21
59.808769
  0
LINE
  8
0
  6
CONTINUOUS
 10
296.457977
 20
60.840023
 11
296.820160
 21
59.808769
  0
LINE
  8
0
  6
CONTINUOUS
 10
294.373383
 20
60.840023
 11
296.457977
 21
60.840023
  0
LINE
  8
0
  6
CONTINUOUS
 10
292.873383
 20
60.840023
 11
290.972382
 21
60.840023
  0
LINE
  8
0
  6
CONTINUOUS
 10
303.623383
 20
55.918144
 11
306.183960
 21
55.918144
  0
LINE
  8
0
  6
CONTINUOUS
 10
301.654785
 20
60.840023
 11
302.248383
 21
60.840023
  0
LINE
  8
0
  6
CONTINUOUS
 10
303.623383
 20
60.840023
 11
307.356567
 21
60.837597
  0
LINE
  8
0
  6
CONTINUOUS
 10
284.498383
 20
59.997921
 11
284.498383
 21
59.808769
  0
LINE
  8
0
  6
CONTINUOUS
 10
312.092773
 20
147.808762
 11
275.216583
 21
147.808762
  0
LINE
  8
0
  6
CONTINUOUS
 10
312.092773
 20
22.808760
 11
275.216583
 21
22.808760
  0
LINE
  8
0
  6
CONTINUOUS
 10
241.154770
 20
47.928520
 11
241.154770
 21
122.689003
  0
LINE
  8
0
  6
CONTINUOUS
 10
346.154785
 20
122.308762
 11
346.154785
 21
122.689003
  0
LINE
  8
0
  6
CONTINUOUS
 10
338.327789
 20
38.808762
 11
346.404785
 21
38.808762
  0
LINE
  8
0
  6
CONTINUOUS
 10
350.654785
 20
145.308716
 11
350.654785
 21
130.058762
  0
LINE
  8
0
  6
CONTINUOUS
 10
273.654785
 20
156.563721
 11
273.654785
 21
148.367035
  0
LINE
  8
0
  6
CONTINUOUS
 10
313.654785
 20
156.563721
 11
313.654785
 21
148.367035
  0
LINE
  8
0
  6
CONTINUOUS
 10
273.654785
 20
21.468321
 11
273.654785
 21
14.647740
  0
LINE
  8
0
  6
CONTINUOUS
 10
313.654785
 20
21.468321
 11
313.654785
 21
14.647740
  0
LINE
  8
0
  6
CONTINUOUS
 10
243.308578
 20
126.799957
 11
272.370575
 21
146.919724
  0
LINE
  8
0
  6
CONTINUOUS
 10
344.000763
 20
126.799957
 11
314.938782
 21
146.919724
  0
LINE
  8
0
  6
CONTINUOUS
 10
272.370575
 20
23.697800
 11
243.308578
 21
43.817558
  0
LINE
  8
0
  6
CONTINUOUS
 10
335.481567
 20
37.919720
 11
314.938782
 21
23.697800
  0
ARC
  8
0
  6
CONTINUOUS
 10
275.216583
 20
142.808762
 40
5.000000
 50
90.000000
 51
124.695396
  0
ARC
  8
0
  6
CONTINUOUS
 10
312.092773
 20
142.808762
 40
5.000000
 50
55.305019
 51
90.000000
  0
ARC
  8
0
  6
CONTINUOUS
 10
246.154770
 20
122.689018
 40
5.000000
 50
124.695503
 51
180.000000
  0
ARC
  8
0
  6
CONTINUOUS
 10
246.154572
 20
47.928558
 40
5.000000
 50
180.000000
 51
235.305206
  0
ARC
  8
0
  6
CONTINUOUS
 10
275.216583
 20
27.808760
 40
5.000000
 50
235.304794
 51
270.000000
  0
ARC
  8
0
  6
CONTINUOUS
 10
312.092773
 20
27.808760
 40
5.000000
 50
270.000000
 51
304.695190
  0
ARC
  8
0
  6
CONTINUOUS
 10
338.327789
 20
33.808762
 40
5.000000
 50
90.000000
 51
124.695396
  0
ARC
  8
0
  6
CONTINUOUS
 10
341.154785
 20
122.688980
 40
5.000000
 50
0.000000
 51
55.304981
  0
ARC
  8
0
  6
CONTINUOUS
 10
340.855377
 20
135.058762
 40
5.000000
 50
235.304794
 51
270.000000
  0
ARC
  8
0
  6
CONTINUOUS
 10
348.154785
 20
122.308762
 40
2.000000
 50
180.000000
 51
270.000000
  0
LINE
  8
0
  6
CONTINUOUS
 10
351.404785
 20
23.058661
 11
351.404785
 21
118.308762
  0
ARC
  8
0
  6
CONTINUOUS
 10
353.404785
 20
118.308777
 40
2.000000
 50
90.000000
 51
180.000000
  0
ARC
  8
0
  6
CONTINUOUS
 10
353.404785
 20
27.281300
 40
2.000000
 50
180.000000
 51
270.315186
  0
LINE
  8
0
  6
CONTINUOUS
 10
350.813965
 20
24.903900
 11
350.611176
 21
24.903900
  0
ARC
  8
0
  6
CONTINUOUS
 10
350.813965
 20
24.403900
 40
0.500000
 50
3.814180
 51
90.000000
  0
ARC
  8
0
  6
CONTINUOUS
 10
346.404785
 20
33.808739
 40
5.000000
 50
0.000000
 51
90.000000
  0
ARC
  8
0
  6
CONTINUOUS
 10
273.654785
 20
62.948090
 40
30.000000
 50
180.000000
 51
228.189606
  0
LINE
  8
0
  6
CONTINUOUS
 10
286.154785
 20
106.308762
 11
286.154785
 21
100.308762
  0
LINE
  8
0
  6
CONTINUOUS
 10
280.154785
 20
106.308762
 11
280.154785
 21
100.308762
  0
LINE
  8
0
  6
CONTINUOUS
 10
280.154785
 20
106.308762
 11
286.154785
 21
106.308762
  0
LINE
  8
0
  6
CONTINUOUS
 10
280.154785
 20
100.308762
 11
286.154785
 21
100.308762
  0
ARC
  8
0
  6
CONTINUOUS
 10
293.654785
 20
103.308762
 40
11.000000
 50
-164.173401
 51
164.173401
  0
LINE
  8
0
  6
CONTINUOUS
 10
358.404785
 20
130.308868
 11
358.404785
 21
15.308873
  0
LINE
  8
0
  6
CONTINUOUS
 10
309.317963
 20
51.558781
 11
309.654785
 21
51.558781
  0
LINE
  8
0
  6
CONTINUOUS
 10
309.654785
 20
51.558781
 11
309.654785
 21
50.308781
  0
LINE
  8
0
  6
CENTER
 10
231.919174
 20
314.483765
 11
560.573669
 21
314.483765
  0
LINE
  8
0
  6
CONTINUOUS
 10
355.904785
 20
371.733765
 11
358.404785
 21
371.733765
  0
LINE
  8
0
  6
CONTINUOUS
 10
353.887390
 20
257.233765
 11
358.404785
 21
257.233765
  0
LINE
  8
0
  6
CONTINUOUS
 10
351.154785
 20
371.733765
 11
358.404785
 21
371.733765
  0
LINE
  8
0
  6
CONTINUOUS
 10
349.700562
 20
346.483765
 11
358.404785
 21
346.483765
  0
LINE
  8
0
  6
CONTINUOUS
 10
351.138184
 20
361.983765
 11
358.404785
 21
361.983765
  0
LINE
  8
0
  6
CONTINUOUS
 10
353.044373
 20
266.983765
 11
358.404785
 21
266.983765
  0
LINE
  8
0
  6
CONTINUOUS
 10
358.404785
 20
282.483765
 11
241.615982
 21
282.483765
  0
LINE
  8
0
  6
CONTINUOUS
 10
352.887573
 20
258.216248
 11
352.549683
 21
277.571045
  0
ARC
  8
0
  6
CONTINUOUS
 10
353.887482
 20
258.233765
 40
1.000000
 50
181.000702
 51
270.000000
  0
ARC
  8
0
  6
CONTINUOUS
 10
347.550385
 20
277.483765
 40
5.000000
 50
1.000200
 51
90.000000
  0
LINE
  8
0
  6
CONTINUOUS
 10
358.404785
 20
256.983765
 11
358.404785
 21
371.983765
  0
LINE
  8
0
  6
CONTINUOUS
 10
236.654770
 20
372.483765
 11
350.654785
 21
372.483765
  0
LINE
  8
0
  6
CONTINUOUS
 10
313.654785
 20
282.483765
 11
313.654785
 21
359.681458
  0
LINE
  8
0
  6
CONTINUOUS
 10
273.654785
 20
282.483765
 11
273.654785
 21
359.681458
  0
LINE
  8
0
  6
CONTINUOUS
 10
240.116470
 20
283.944458
 11
238.132782
 21
359.681458
  0
ARC
  8
0
  6
CONTINUOUS
 10
241.616074
 20
283.983765
 40
1.500000
 50
181.500198
 51
270.000000
  0
LINE
  8
0
  6
CONTINUOUS
 10
349.654785
 20
360.483765
 11
237.943268
 21
360.483765
  0
LINE
  8
0
  6
CONTINUOUS
 10
350.654785
 20
361.483765
 11
350.654785
 21
372.483765
  0
LINE
  8
0
  6
CONTINUOUS
 10
236.654770
 20
372.483765
 11
236.943573
 21
361.457550
  0
ARC
  8
0
  6
CONTINUOUS
 10
237.943268
 20
361.483765
 40
1.000000
 50
181.500107
 51
270.000000
  0
ARC
  8
0
  6
CONTINUOUS
 10
237.133377
 20
359.655273
 40
1.000000
 50
1.500400
 51
66.108803
  0
ARC
  8
0
  6
CONTINUOUS
 10
351.154785
 20
372.233765
 40
0.500000
 50
180.000000
 51
270.000000
  0
LINE
  8
0
  6
CENTER
 10
424.444641
 20
72.808762
 11
326.460999
 21
72.808762
  0
LINE
  8
0
  6
CONTINUOUS
 10
358.404785
 20
130.308762
 11
358.404785
 21
15.308760
  0
LINE
  8
0
  6
CENTER
 10
60.986954
 20
-1.522500
 11
60.986954
 21
166.506714
  0
LINE
  8
0
  6
CENTER
 10
-7.437500
 20
72.808762
 11
127.246758
 21
72.808762
  0
LINE
  8
0
  6
CENTER
 10
-7.437500
 20
103.308762
 11
159.829758
 21
103.308762
  0
LINE
  8
0
  6
CONTINUOUS
 10
2.987155
 20
103.308762
 11
2.987155
 21
13.308740
  0
LINE
  8
0
  6
CONTINUOUS
 10
14.987155
 20
103.308762
 11
14.987155
 21
155.308762
  0
LINE
  8
0
  6
CONTINUOUS
 10
13.068955
 20
157.308762
 11
2.987155
 21
157.308762
  0
LINE
  8
0
  6
CONTINUOUS
 10
13.068955
 20
13.308780
 11
2.987155
 21
13.308780
  0
LINE
  8
0
  6
CONTINUOUS
 10
92.986954
 20
23.791439
 11
92.986954
 21
146.826080
  0
LINE
  8
0
  6
CONTINUOUS
 10
92.004753
 20
147.825943
 11
16.952354
 21
149.135635
  0
LINE
  8
0
  6
CONTINUOUS
 10
92.004753
 20
22.791620
 11
16.952354
 21
21.481300
  0
LINE
  8
0
  6
CONTINUOUS
 10
16.896154
 20
125.308739
 11
91.919754
 21
125.308739
  0
LINE
  8
0
  6
CONTINUOUS
 10
16.896154
 20
45.308762
 11
91.596756
 21
45.308762
  0
LINE
  8
0
  6
CONTINUOUS
 10
15.483755
 20
15.161740
 11
16.592955
 21
19.301580
  0
LINE
  8
0
  6
CONTINUOUS
 10
15.483755
 20
155.455841
 11
16.593155
 21
151.315323
  0
ARC
  8
0
  6
CONTINUOUS
 10
19.490955
 20
152.091843
 40
3.000000
 50
195.000702
 51
269.000488
  0
ARC
  8
0
  6
CONTINUOUS
 10
12.987155
 20
155.308762
 40
2.000000
 50
0.000000
 51
90.000000
  0
ARC
  8
0
  6
CONTINUOUS
 10
16.987156
 20
151.135361
 40
2.000000
 50
180.000000
 51
269.000610
  0
ARC
  8
0
  6
CONTINUOUS
 10
19.490755
 20
18.525141
 40
3.000000
 50
91.000526
 51
165.000305
  0
ARC
  8
0
  6
CONTINUOUS
 10
16.987156
 20
19.481621
 40
2.000000
 50
91.000633
 51
180.000000
  0
ARC
  8
0
  6
CONTINUOUS
 10
12.987155
 20
15.308780
 40
2.000000
 50
-90.000000
 51
0.000000
  0
ARC
  8
0
  6
CONTINUOUS
 10
91.986954
 20
146.826080
 40
1.000000
 50
0.000000
 51
89.000359
  0
ARC
  8
0
  6
CONTINUOUS
 10
91.986954
 20
23.791439
 40
1.000000
 50
-88.999573
 51
0.000000
  0
LINE
  8
0
  6
CENTER
 10
-2.506645
 20
145.308762
 11
20.129955
 21
145.308762
  0
LINE
  8
0
  6
CENTER
 10
-2.506645
 20
25.308741
 11
20.129955
 21
25.308741
  0
LINE
  8
0
  6
DASHED
 10
2.987155
 20
150.808762
 11
14.987155
 21
150.808762
  0
LINE
  8
0
  6
DASHED
 10
2.987155
 20
139.808762
 11
14.987155
 21
139.808762
  0
LINE
  8
0
  6
DASHED
 10
2.987155
 20
30.808741
 11
14.987155
 21
30.808741
  0
LINE
  8
0
  6
DASHED
 10
2.987155
 20
19.808741
 11
14.987155
 21
19.808741
  0
LINE
  8
0
  6
CONTINUOUS
 10
108.986954
 20
78.115913
 11
108.986954
 21
128.501602
  0
LINE
  8
0
  6
CONTINUOUS
 10
98.986954
 20
45.113602
 11
98.986954
 21
105.378738
  0
LINE
  8
0
  6
CONTINUOUS
 10
106.757355
 20
131.401047
 11
95.217155
 21
134.466446
  0
LINE
  8
0
  6
CONTINUOUS
 10
106.757355
 20
75.216461
 11
101.216759
 21
73.744804
  0
LINE
  8
0
  6
CONTINUOUS
 10
96.760155
 20
42.214920
 11
95.214157
 21
41.802620
  0
ARC
  8
0
  6
CONTINUOUS
 10
105.986954
 20
128.501602
 40
3.000000
 50
0.000000
 51
75.124413
  0
ARC
  8
0
  6
CONTINUOUS
 10
105.986954
 20
78.115913
 40
3.000000
 50
-75.124207
 51
0.000000
  0
ARC
  8
0
  6
CONTINUOUS
 10
95.986954
 20
45.113602
 40
3.000000
 50
-75.068420
 51
0.000000
  0
ARC
  8
0
  6
CONTINUOUS
 10
95.986954
 20
137.365921
 40
3.000000
 50
180.000000
 51
255.124603
  0
ARC
  8
0
  6
CONTINUOUS
 10
101.986954
 20
70.845367
 40
3.000000
 50
104.876099
 51
180.000000
  0
ARC
  8
0
  6
CONTINUOUS
 10
95.986954
 20
38.903919
 40
3.000000
 50
104.931801
 51
180.000000
  0
LINE
  8
0
  6
CONTINUOUS
 10
108.486954
 20
30.308741
 11
108.486954
 21
39.360100
  0
LINE
  8
0
  6
CONTINUOUS
 10
103.486954
 20
25.308741
 11
94.435951
 21
25.308741
  0
ARC
  8
0
  6
CONTINUOUS
 10
60.986954
 20
72.808762
 40
57.250000
 50
-32.501888
 51
19.914110
  0
ARC
  8
0
  6
CONTINUOUS
 10
60.986954
 20
72.808762
 40
57.250000
 50
243.004898
 51
298.995514
  0
ARC
  8
0
  6
CONTINUOUS
 10
103.486954
 20
30.308741
 40
5.000000
 50
-90.000000
 51
0.000000
  0
ARC
  8
0
  6
CONTINUOUS
 10
113.486954
 20
39.360100
 40
5.000000
 50
147.498093
 51
180.000000
  0
ARC
  8
0
  6
CONTINUOUS
 10
94.435951
 20
20.308741
 40
5.000000
 50
90.000000
 51
106.842003
  0
LINE
  8
0
  6
CONTINUOUS
 10
2.987155
 20
157.308762
 11
2.987155
 21
103.308762
  0
LINE
  8
0
  6
CONTINUOUS
 10
14.987155
 20
15.308780
 11
14.987155
 21
103.308762
  0
LINE
  8
0
  6
CONTINUOUS
 10
150.986954
 20
92.308762
 11
150.986954
 21
114.308739
  0
LINE
  8
0
  6
CONTINUOUS
 10
110.986954
 20
114.308739
 11
150.986954
 21
114.308739
  0
LINE
  8
0
  6
CONTINUOUS
 10
110.986954
 20
92.308762
 11
150.986954
 21
92.308762
  0
LINE
  8
0
  6
CONTINUOUS
 10
110.986954
 20
115.808739
 11
110.986954
 21
90.808762
  0
LINE
  8
0
  6
CONTINUOUS
 10
108.986954
 20
115.808739
 11
110.986954
 21
115.808739
  0
LINE
  8
0
  6
CONTINUOUS
 10
108.986954
 20
90.808762
 11
110.986954
 21
90.808762
  0
ARC
  8
0
  6
CONTINUOUS
 10
118.986954
 20
103.308762
 40
3.000000
 50
90.000000
 51
270.000000
  0
LINE
  8
0
  6
CONTINUOUS
 10
118.986954
 20
106.308739
 11
150.986954
 21
106.308739
  0
LINE
  8
0
  6
CONTINUOUS
 10
118.986954
 20
100.308762
 11
150.986954
 21
100.308762
  0
ARC
  8
0
  6
CONTINUOUS
 10
13.068955
 20
154.808762
 40
2.500000
 50
15.000760
 51
90.000000
  0
ARC
  8
0
  6
CONTINUOUS
 10
13.068955
 20
15.808780
 40
2.500000
 50
270.000000
 51
345.000214
  0
ARC
  8
0
  6
CONTINUOUS
 10
60.986954
 20
72.808762
 40
57.499821
 50
303.815704
 51
303.996307
  0
ARC
  8
0
  6
CONTINUOUS
 10
60.986954
 20
72.808762
 40
57.500000
 50
242.540298
 51
299.460602
  0
ARC
  8
0
  6
CONTINUOUS
 10
60.986954
 20
72.808762
 40
57.500000
 50
-33.996769
 51
19.823891
  0
ARC
  8
0
  6
CONTINUOUS
 10
60.986954
 20
72.808762
 40
57.500000
 50
303.815613
 51
303.997314
  0
LINE
  8
0
  6
CONTINUOUS
 10
347.193085
 20
283.944489
 11
347.395782
 21
291.683746
  0
ARC
  8
0
  6
CONTINUOUS
 10
345.693604
 20
283.983765
 40
1.500000
 50
270.000000
 51
358.499664
  0
ARC
  8
0
  6
CONTINUOUS
 10
349.654785
 20
361.483765
 40
1.000000
 50
-90.000000
 51
0.000000
  0
ARC
  8
0
  6
CONTINUOUS
 10
350.173737
 20
359.552277
 40
1.000000
 50
105.039177
 51
178.499649
  0
LINE
  8
0
  6
CENTER
 10
293.654785
 20
218.282074
 11
293.654785
 21
385.603760
  0
LINE
  8
0
  6
CONTINUOUS
 10
318.847626
 20
266.483765
 11
268.461945
 21
266.483765
  0
LINE
  8
0
  6
CONTINUOUS
 10
263.498535
 20
276.483765
 11
260.211670
 21
276.483765
  0
ARC
  8
0
  6
CONTINUOUS
 10
268.461945
 20
269.483765
 40
3.000000
 50
-165.124313
 51
-90.000000
  0
LINE
  8
0
  6
CONTINUOUS
 10
257.312225
 20
278.713593
 11
256.903076
 21
280.253937
  0
ARC
  8
0
  6
CONTINUOUS
 10
260.211670
 20
279.483765
 40
3.000000
 50
-165.124313
 51
-90.000000
  0
ARC
  8
0
  6
CONTINUOUS
 10
254.003616
 20
279.483765
 40
3.000000
 50
14.875682
 51
90.000000
  0
LINE
  8
0
  6
CONTINUOUS
 10
263.498535
 20
276.483765
 11
265.562469
 21
268.713593
  0
LINE
  8
0
  6
CONTINUOUS
 10
329.997314
 20
278.713593
 11
330.406464
 21
280.253937
  0
ARC
  8
0
  6
CONTINUOUS
 10
327.097870
 20
279.483765
 40
3.000000
 50
270.000000
 51
345.124329
  0
ARC
  8
0
  6
CONTINUOUS
 10
333.305939
 20
279.483765
 40
3.000000
 50
90.000000
 51
165.124313
  0
LINE
  8
0
  6
CONTINUOUS
 10
323.811035
 20
276.483765
 11
327.097870
 21
276.483765
  0
ARC
  8
0
  6
CONTINUOUS
 10
318.847626
 20
269.483765
 40
3.000000
 50
270.000000
 51
345.124329
  0
LINE
  8
0
  6
CONTINUOUS
 10
323.811035
 20
276.483765
 11
321.747070
 21
268.713593
  0
LINE
  8
0
  6
CONTINUOUS
 10
304.654785
 20
224.483765
 11
280.154785
 21
224.483765
  0
LINE
  8
0
  6
CONTINUOUS
 10
282.654785
 20
264.483765
 11
282.654785
 21
259.483765
  0
LINE
  8
0
  6
CONTINUOUS
 10
304.654785
 20
264.483765
 11
304.654785
 21
224.483765
  0
LINE
  8
0
  6
CONTINUOUS
 10
281.154785
 20
266.483765
 11
281.154785
 21
264.483765
  0
LINE
  8
0
  6
CONTINUOUS
 10
306.154785
 20
266.483765
 11
306.154785
 21
264.483765
  0
LINE
  8
0
  6
CONTINUOUS
 10
306.154785
 20
264.483765
 11
281.154785
 21
264.483765
  0
LINE
  8
0
  6
CONTINUOUS
 10
280.154785
 20
259.483765
 11
280.154785
 21
224.483765
  0
LINE
  8
0
  6
CONTINUOUS
 10
283.071777
 20
224.483765
 11
283.071777
 21
259.483765
  0
LINE
  8
0
  6
CONTINUOUS
 10
283.071777
 20
259.483765
 11
280.154785
 21
259.483765
  0
ARC
  8
0
  6
CONTINUOUS
 10
408.839203
 20
312.890076
 40
65.000000
 50
157.957932
 51
199.041382
  0
LINE
  8
0
  6
CONTINUOUS
 10
348.590149
 20
337.283752
 11
349.174072
 21
359.578461
  0
LINE
  8
0
  6
CONTINUOUS
 10
524.404785
 20
23.808781
 11
524.404785
 21
99.808762
  0
LINE
  8
0
  6
CONTINUOUS
 10
524.404785
 20
99.808739
 11
410.404785
 21
99.808739
  0
LINE
  8
0
  6
CONTINUOUS
 10
524.404785
 20
23.808781
 11
410.404785
 21
23.808781
  0
LINE
  8
0
  6
CONTINUOUS
 10
524.404785
 20
92.057739
 11
418.404785
 21
92.057739
  0
LINE
  8
0
  6
CONTINUOUS
 10
524.404785
 20
31.559780
 11
418.404785
 21
31.559780
  0
LINE
  8
0
  6
CONTINUOUS
 10
418.404785
 20
97.808739
 11
418.404785
 21
25.808760
  0
ARC
  8
0
  6
CONTINUOUS
 10
416.404785
 20
97.808762
 40
2.000000
 50
0.000000
 51
90.000000
  0
ARC
  8
0
  6
CONTINUOUS
 10
416.404785
 20
25.808781
 40
2.000000
 50
-90.000000
 51
0.000000
  0
LINE
  8
0
  6
CONTINUOUS
 10
544.904785
 20
29.808760
 11
544.904785
 21
93.808762
  0
LINE
  8
0
  6
CONTINUOUS
 10
540.940735
 20
99.808762
 11
524.404785
 21
99.808762
  0
LINE
  8
0
  6
CONTINUOUS
 10
540.940674
 20
23.808760
 11
524.404785
 21
23.808760
  0
LINE
  8
0
  6
CONTINUOUS
 10
544.404785
 20
26.808760
 11
544.404785
 21
96.808762
  0
LINE
  8
0
  6
CONTINUOUS
 10
544.904785
 20
93.808762
 11
544.404785
 21
94.308762
  0
LINE
  8
0
  6
CONTINUOUS
 10
544.904785
 20
29.808760
 11
544.404785
 21
29.308760
  0
LINE
  8
0
  6
CONTINUOUS
 10
543.538757
 20
98.308739
 11
544.404785
 21
96.808762
  0
ARC
  8
0
  6
CONTINUOUS
 10
540.940674
 20
96.808777
 40
3.000000
 50
29.999599
 51
90.000000
  0
LINE
  8
0
  6
CONTINUOUS
 10
543.538757
 20
25.308781
 11
544.404785
 21
26.808760
  0
ARC
  8
0
  6
CONTINUOUS
 10
540.940674
 20
26.808760
 40
3.000000
 50
270.000000
 51
330.000397
  0
LINE
  8
0
  6
CONTINUOUS
 10
542.823181
 20
92.057770
 11
524.404785
 21
92.057770
  0
LINE
  8
0
  6
CONTINUOUS
 10
524.404785
 20
31.559759
 11
542.823181
 21
31.559759
  0
LINE
  8
0
  6
CONTINUOUS
 10
523.904785
 20
101.308762
 11
523.904785
 21
99.808762
  0
LINE
  8
0
  6
CONTINUOUS
 10
530.904785
 20
101.308762
 11
530.904785
 21
99.808762
  0
LINE
  8
0
  6
CONTINUOUS
 10
530.904785
 20
101.308762
 11
523.904785
 21
101.308762
  0
LINE
  8
0
  6
CONTINUOUS
 10
526.504822
 20
114.308762
 11
526.504822
 21
101.308762
  0
LINE
  8
0
  6
CONTINUOUS
 10
528.304810
 20
114.933762
 11
528.304810
 21
101.308762
  0
LINE
  8
0
  6
CONTINUOUS
 10
530.104797
 20
112.871262
 11
530.104797
 21
101.308762
  0
LINE
  8
0
  6
CONTINUOUS
 10
524.704773
 20
113.683762
 11
524.704773
 21
101.308762
  0
LINE
  8
0
  6
CONTINUOUS
 10
528.304810
 20
114.933762
 11
526.504822
 21
114.308762
  0
LINE
  8
0
  6
CONTINUOUS
 10
530.104797
 20
112.871262
 11
528.304810
 21
113.496262
  0
LINE
  8
0
  6
CONTINUOUS
 10
524.704773
 20
113.683762
 11
526.503784
 21
113.236061
  0
LINE
  8
0
  6
CONTINUOUS
 10
368.817535
 20
101.261017
 11
410.404785
 21
99.808762
  0
LINE
  8
0
  6
CONTINUOUS
 10
358.404785
 20
21.992880
 11
410.404785
 21
23.808760
  0
LINE
  8
0
  6
CONTINUOUS
 10
366.404785
 20
129.308762
 11
366.404785
 21
102.308762
  0
LINE
  8
0
  6
CONTINUOUS
 10
365.404785
 20
130.308762
 11
358.404785
 21
130.308762
  0
LINE
  8
0
  6
CONTINUOUS
 10
363.904785
 20
15.308760
 11
358.404785
 21
15.308760
  0
LINE
  8
0
  6
CONTINUOUS
 10
366.404785
 20
102.808762
 11
366.404785
 21
31.896105
  0
LINE
  8
0
  6
CONTINUOUS
 10
410.404785
 20
99.808762
 11
410.404785
 21
23.808760
  0
LINE
  8
0
  6
CONTINUOUS
 10
367.817932
 20
113.126564
 11
393.761353
 21
100.602150
  0
ARC
  8
0
  6
CONTINUOUS
 10
365.404785
 20
129.308762
 40
1.000000
 50
0.000000
 51
90.000000
  0
ARC
  8
0
  6
CONTINUOUS
 10
368.904785
 20
115.377945
 40
2.500000
 50
180.000000
 51
244.230682
  0
ARC
  8
0
  6
CONTINUOUS
 10
368.904785
 20
103.759499
 40
2.500000
 50
180.000000
 51
268.000000
  0
ARC
  8
0
  6
CONTINUOUS
 10
394.848236
 20
102.853531
 40
2.500000
 50
-115.769325
 51
-92.000000
  0
LINE
  8
0
  6
CONTINUOUS
 10
365.279724
 20
29.654760
 11
358.404785
 21
29.654760
  0
LINE
  8
0
  6
CONTINUOUS
 10
366.404785
 20
17.808760
 11
366.404785
 21
19.858025
  0
ARC
  8
0
  6
CONTINUOUS
 10
363.904785
 20
17.808760
 40
2.500000
 50
-90.000000
 51
0.000000
  0
ARC
  8
0
  6
CONTINUOUS
 10
368.904785
 20
19.858025
 40
2.500000
 50
92.000000
 51
180.000000
  0
LINE
  8
0
  6
CENTER
 10
556.979797
 20
61.808762
 11
325.654785
 21
61.808762
  0
LINE
  8
0
  6
CONTINUOUS
 10
363.904785
 20
371.983765
 11
358.404785
 21
371.983765
  0
LINE
  8
0
  6
CONTINUOUS
 10
363.904785
 20
256.983765
 11
358.404785
 21
256.983765
  0
LINE
  8
0
  6
CONTINUOUS
 10
366.404785
 20
369.483765
 11
366.404785
 21
259.483765
  0
LINE
  8
0
  6
CONTINUOUS
 10
410.404785
 20
276.483765
 11
410.404785
 21
352.483765
  0
LINE
  8
0
  6
CONTINUOUS
 10
368.817535
 20
275.031494
 11
410.404785
 21
276.483765
  0
LINE
  8
0
  6
CONTINUOUS
 10
368.817535
 20
353.936005
 11
410.404785
 21
352.483765
  0
ARC
  8
0
  6
CONTINUOUS
 10
363.904785
 20
259.483765
 40
2.500000
 50
-90.000000
 51
0.000000
  0
ARC
  8
0
  6
CONTINUOUS
 10
363.904785
 20
369.483765
 40
2.500000
 50
0.000000
 51
90.000000
  0
LINE
  8
0
  6
CONTINUOUS
 10
410.404785
 20
276.483765
 11
410.404785
 21
352.483765
  0
LINE
  8
0
  6
CONTINUOUS
 10
524.404663
 20
352.483734
 11
524.404663
 21
321.349792
  0
LINE
  8
0
  6
CONTINUOUS
 10
524.404663
 20
276.483795
 11
410.404663
 21
276.483795
  0
LINE
  8
0
  6
CONTINUOUS
 10
524.404663
 20
352.483734
 11
410.404663
 21
352.483734
  0
LINE
  8
0
  6
CONTINUOUS
 10
418.404663
 20
278.483795
 11
418.404663
 21
291.483765
  0
ARC
  8
0
  6
CONTINUOUS
 10
416.404663
 20
278.483765
 40
2.000000
 50
-90.000000
 51
0.000000
  0
ARC
  8
0
  6
CONTINUOUS
 10
416.404663
 20
350.483734
 40
2.000000
 50
0.000000
 51
90.000000
  0
LINE
  8
0
  6
CONTINUOUS
 10
544.904663
 20
346.483765
 11
544.904663
 21
282.483765
  0
LINE
  8
0
  6
CONTINUOUS
 10
540.940552
 20
276.483765
 11
524.404663
 21
276.483765
  0
LINE
  8
0
  6
CONTINUOUS
 10
540.940552
 20
352.483765
 11
524.404663
 21
352.483765
  0
LINE
  8
0
  6
CONTINUOUS
 10
544.404663
 20
349.483765
 11
544.404663
 21
279.483765
  0
LINE
  8
0
  6
CONTINUOUS
 10
544.904663
 20
282.483765
 11
544.404663
 21
281.983765
  0
LINE
  8
0
  6
CONTINUOUS
 10
544.904663
 20
346.483765
 11
544.404663
 21
346.983765
  0
LINE
  8
0
  6
CONTINUOUS
 10
543.538635
 20
277.983795
 11
544.404663
 21
279.483765
  0
ARC
  8
0
  6
CONTINUOUS
 10
540.940552
 20
279.483734
 40
3.000000
 50
270.000000
 51
330.000397
  0
LINE
  8
0
  6
CONTINUOUS
 10
543.538635
 20
350.983734
 11
544.404663
 21
349.483765
  0
ARC
  8
0
  6
CONTINUOUS
 10
540.940552
 20
349.483765
 40
3.000000
 50
29.999599
 51
90.000000
  0
LINE
  8
0
  6
CONTINUOUS
 10
524.404663
 20
291.483765
 11
418.404663
 21
291.483765
  0
LINE
  8
0
  6
CONTINUOUS
 10
524.404663
 20
291.483765
 11
542.822998
 21
291.483765
  0
LINE
  8
0
  6
CONTINUOUS
 10
524.404663
 20
337.483765
 11
418.404663
 21
337.483765
  0
LINE
  8
0
  6
CONTINUOUS
 10
524.404663
 20
337.483765
 11
542.822998
 21
337.483765
  0
LINE
  8
0
  6
CONTINUOUS
 10
418.404663
 20
337.483765
 11
418.404663
 21
350.483765
  0
LINE
  8
0
  6
CONTINUOUS
 10
530.904663
 20
320.483765
 11
530.904663
 21
308.483765
  0
LINE
  8
0
  6
CONTINUOUS
 10
523.904663
 20
320.483765
 11
523.904663
 21
308.483765
  0
LINE
  8
0
  6
CONTINUOUS
 10
529.904663
 20
307.483765
 11
524.904663
 21
307.483765
  0
LINE
  8
0
  6
CONTINUOUS
 10
524.904663
 20
321.483765
 11
529.904663
 21
321.483765
  0
ARC
  8
0
  6
CONTINUOUS
 10
524.904663
 20
308.483765
 40
1.000000
 50
180.000000
 51
270.000000
  0
ARC
  8
0
  6
CONTINUOUS
 10
529.904663
 20
308.483765
 40
1.000000
 50
-90.000000
 51
0.000000
  0
ARC
  8
0
  6
CONTINUOUS
 10
529.904663
 20
320.483765
 40
1.000000
 50
0.000000
 51
90.000000
  0
ARC
  8
0
  6
CONTINUOUS
 10
524.904663
 20
320.483765
 40
1.000000
 50
90.000000
 51
180.000000
  0
LINE
  8
0
  6
CONTINUOUS
 10
526.404663
 20
317.983765
 11
526.404663
 21
310.983765
  0
LINE
  8
0
  6
CONTINUOUS
 10
528.404663
 20
317.983765
 11
528.404663
 21
310.983765
  0
ARC
  8
0
  6
CONTINUOUS
 10
527.404663
 20
310.983765
 40
1.000000
 50
-90.000000
 51
0.000000
  0
ARC
  8
0
  6
CONTINUOUS
 10
527.404663
 20
310.983765
 40
1.000000
 50
180.000000
 51
270.000000
  0
ARC
  8
0
  6
CONTINUOUS
 10
527.404663
 20
317.983765
 40
1.000000
 50
0.000000
 51
90.000000
  0
ARC
  8
0
  6
CONTINUOUS
 10
527.404663
 20
317.983765
 40
1.000000
 50
90.000000
 51
180.000000
  0
LINE
  8
0
  6
CONTINUOUS
 10
524.404663
 20
307.617737
 11
524.404663
 21
276.483765
  0
ARC
  8
0
  6
CONTINUOUS
 10
379.235138
 20
314.483765
 40
15.000000
 50
-49.252373
 51
49.252373
  0
LINE
  8
0
  6
CONTINUOUS
 10
367.272949
 20
284.377777
 11
389.026062
 21
303.119873
  0
LINE
  8
0
  6
CONTINUOUS
 10
367.272949
 20
344.589752
 11
389.026062
 21
325.847626
  0
ARC
  8
0
  6
CONTINUOUS
 10
368.904785
 20
282.483795
 40
2.500000
 50
130.747620
 51
180.000000
  0
ARC
  8
0
  6
CONTINUOUS
 10
368.904785
 20
272.533020
 40
2.500000
 50
92.000000
 51
180.000000
  0
ARC
  8
0
  6
CONTINUOUS
 10
368.904785
 20
346.483734
 40
2.500000
 50
180.000000
 51
229.252380
  0
ARC
  8
0
  6
CONTINUOUS
 10
368.904785
 20
356.434509
 40
2.500000
 50
180.000000
 51
268.000000
  0
LINE
  8
0
  6
CENTER
 10
248.654694
 20
377.008759
 11
248.654694
 21
356.380615
  0
LINE
  8
0
  6
DASHED
 10
254.154694
 20
372.483765
 11
254.154694
 21
360.483765
  0
LINE
  8
0
  6
DASHED
 10
243.154694
 20
372.483765
 11
243.154694
 21
360.483765
  0
LINE
  8
0
  6
DASHED
 10
333.154846
 20
372.483765
 11
333.154846
 21
360.483765
  0
LINE
  8
0
  6
CENTER
 10
338.654846
 20
377.008759
 11
338.654846
 21
356.380615
  0
LINE
  8
0
  6
DASHED
 10
344.154846
 20
372.483765
 11
344.154846
 21
360.483765
  0
LINE
  8
0
  6
CONTINUOUS
 10
366.404785
 20
52.408760
 11
410.404785
 21
52.408760
  0
LINE
  8
0
  6
CONTINUOUS
 10
366.404785
 20
42.208759
 11
410.404785
 21
42.208759
  0
TEXT
  8
0
 10
-18.000000
 20
-1.000000
 40
4.000000
 41
1.000000
  1
HFM-22L-300~1800-T15W
 50
0.000000
  0
ENDSEC
  0
EOF
