  0
SECTION
  2
HEADER
  9
$CLAYER
  8
1
  9
$LTSCALE
 40
3.0
  0
ENDSEC
  0
SECTION
  2
TABLES
  0
TABLE
  2
LTYPE
 70
     4
  0
LTYPE
  2
CONTINUOUS
  3
solid line
 70
    64
 72
    65
 73
     0
 40
0.0
  0
LTYPE
  2
DASHED
  3
__ __ __ __ __ __ __ __ __ __ __ __ __ __ __
 70
    64
 72
    65
 73
     2
 40
0.75
 49
0.5
 49
-0.25
  0
LTYPE
  2
CENTER
  3
____ _ ____ _ ____ _ ____ _ ____ _ ____ _ ____
 70
    64
 72
    65
 73
     4
 40
2.0
 49
1.25
 49
-0.25
 49
0.25
 49
-0.25
  0
LTYPE
  2
PHANTOM
  3
_____ _ _ _____ _ _ _____ _ _ _____ _ _ ____
 70
    64
 72
    65
 73
     6
 40
2.5
 49
1.25
 49
-0.25
 49
0.25
 49
-0.25
 49
0.25
 49
-0.25
  0
ENDTAB
  0
TABLE
  2
LAYER
 70
     1
  0
LAYER
  2
0
 70
    64
 62
     7
  6
CONTINUOUS
  0
ENDTAB
  0
TABLE
  2
STYLE
 70
     1
  0
STYLE
  2
STANDARD
 70
     0
 40
0.000000
 41
1.000000
 50
0.000000
 71
     0
 42
3.000000
  3
txt
  4
BIGFONT
  0
ENDTAB
  0
ENDSEC
  0
SECTION
  2
BLOCKS
  0
ENDSEC
  0
SECTION
  2
ENTITIES
  0
LINE
  8
0
  6
CENTER
 10
272.129761
 20
158.600021
 11
272.129761
 21
-9.137500
  0
LINE
  8
0
  6
CENTER
 10
321.041565
 20
93.518761
 11
207.060974
 21
93.518761
  0
LINE
  8
0
  6
CONTINUOUS
 10
322.129761
 20
97.018761
 11
322.129761
 21
53.158073
  0
LINE
  8
0
  6
CONTINUOUS
 10
222.129776
 20
97.879440
 11
222.129776
 21
53.158092
  0
ARC
  8
0
  6
CONTINUOUS
 10
272.129761
 20
75.518768
 40
60.000000
 50
48.189610
 51
131.810394
  0
ARC
  8
0
  6
CONTINUOUS
 10
272.129761
 20
75.518768
 40
60.000000
 50
-131.810303
 51
-48.189701
  0
ARC
  8
0
  6
CONTINUOUS
 10
252.129776
 20
97.879440
 40
30.000000
 50
131.810394
 51
180.000000
  0
CIRCLE
  8
0
  6
CONTINUOUS
 10
272.129761
 20
93.518761
 40
27.500000
  0
ARC
  8
0
  6
CONTINUOUS
 10
272.129761
 20
93.518761
 40
31.750000
 50
7.552597
 51
172.447296
  0
ARC
  8
0
  6
CONTINUOUS
 10
288.879761
 20
52.018764
 40
20.600000
 50
-90.000000
 51
7.552597
  0
ARC
  8
0
  6
CONTINUOUS
 10
255.379776
 20
52.018764
 40
20.600000
 50
172.447296
 51
270.000000
  0
LINE
  8
0
  6
CONTINUOUS
 10
240.655182
 20
97.691917
 11
234.958374
 21
54.726391
  0
LINE
  8
0
  6
CONTINUOUS
 10
309.300964
 20
54.726353
 11
303.604187
 21
97.691856
  0
LINE
  8
0
  6
CONTINUOUS
 10
288.879761
 20
31.418760
 11
255.379776
 21
31.418760
  0
ARC
  8
0
  6
CONTINUOUS
 10
288.879761
 20
52.018764
 40
19.000000
 50
-90.000000
 51
7.552399
  0
ARC
  8
0
  6
CONTINUOUS
 10
255.379776
 20
52.018764
 40
19.000000
 50
172.447296
 51
270.000000
  0
ARC
  8
0
  6
CONTINUOUS
 10
272.129761
 20
93.518761
 40
30.150000
 50
-187.552704
 51
7.552612
  0
LINE
  8
0
  6
CONTINUOUS
 10
307.714783
 20
54.516052
 11
302.018188
 21
97.481583
  0
LINE
  8
0
  6
CONTINUOUS
 10
242.241180
 20
97.481621
 11
236.544571
 21
54.516090
  0
LINE
  8
0
  6
CONTINUOUS
 10
288.879761
 20
33.018761
 11
255.379776
 21
33.018761
  0
ARC
  8
0
  6
CONTINUOUS
 10
292.129761
 20
97.879463
 40
30.000000
 50
-1.671204
 51
48.189610
  0
ARC
  8
0
  6
CONTINUOUS
 10
292.129761
 20
53.158073
 40
30.000000
 50
-48.189701
 51
0.000000
  0
LINE
  8
0
  6
CONTINUOUS
 10
336.879761
 20
120.268761
 11
319.330566
 21
120.268761
  0
LINE
  8
0
  6
CONTINUOUS
 10
331.315186
 20
5.768760
 11
336.879761
 21
5.768760
  0
LINE
  8
0
  6
CONTINUOUS
 10
326.629761
 20
110.518761
 11
336.879761
 21
110.518761
  0
LINE
  8
0
  6
CONTINUOUS
 10
331.890564
 20
15.491320
 11
336.879761
 21
15.518761
  0
LINE
  8
0
  6
CONTINUOUS
 10
330.332764
 20
94.978760
 11
336.879761
 21
94.978760
  0
LINE
  8
0
  6
CONTINUOUS
 10
330.332764
 20
31.058760
 11
336.879761
 21
31.058760
  0
LINE
  8
0
  6
CENTER
 10
325.776581
 20
135.518753
 11
308.479767
 21
135.518753
  0
LINE
  8
0
  6
CENTER
 10
235.692169
 20
135.518753
 11
211.110977
 21
135.518753
  0
LINE
  8
0
  6
CENTER
 10
326.922577
 20
15.518760
 11
308.310974
 21
15.518760
  0
LINE
  8
0
  6
CENTER
 10
236.254776
 20
15.518760
 11
211.448380
 21
15.518760
  0
LINE
  8
0
  6
CENTER
 10
227.129776
 20
144.678146
 11
227.129776
 21
126.537498
  0
LINE
  8
0
  6
CENTER
 10
317.129761
 20
144.425018
 11
317.129761
 21
126.959381
  0
LINE
  8
0
  6
CENTER
 10
317.129761
 20
24.696880
 11
317.129761
 21
-1.712480
  0
LINE
  8
0
  6
CENTER
 10
227.129776
 20
24.865641
 11
227.129776
 21
-1.037500
  0
CIRCLE
  8
0
  6
CONTINUOUS
 10
227.129776
 20
135.518753
 40
5.500000
  0
CIRCLE
  8
0
  6
CONTINUOUS
 10
317.129761
 20
135.518753
 40
5.500000
  0
CIRCLE
  8
0
  6
CONTINUOUS
 10
317.129761
 20
15.518760
 40
5.500000
  0
CIRCLE
  8
0
  6
CONTINUOUS
 10
227.129776
 20
15.518760
 40
5.500000
  0
ARC
  8
0
  6
CONTINUOUS
 10
227.129776
 20
135.518753
 40
12.000000
 50
90.000000
 51
180.000000
  0
ARC
  8
0
  6
CONTINUOUS
 10
317.129761
 20
135.518753
 40
12.000000
 50
0.000000
 51
90.000000
  0
ARC
  8
0
  6
CONTINUOUS
 10
317.129761
 20
15.518760
 40
12.000000
 50
270.000000
 51
358.060608
  0
ARC
  8
0
  6
CONTINUOUS
 10
227.129776
 20
15.518760
 40
12.000000
 50
180.000000
 51
270.000000
  0
LINE
  8
0
  6
CONTINUOUS
 10
227.129776
 20
147.518753
 11
317.129761
 21
147.518753
  0
LINE
  8
0
  6
CONTINUOUS
 10
317.129578
 20
3.518760
 11
227.129776
 21
3.518760
  0
LINE
  8
0
  6
CONTINUOUS
 10
215.129776
 20
135.518753
 11
215.129776
 21
15.518760
  0
LINE
  8
0
  6
CONTINUOUS
 10
329.787781
 20
14.647160
 11
330.317383
 21
6.702240
  0
ARC
  8
0
  6
CONTINUOUS
 10
331.315186
 20
6.768760
 40
1.000000
 50
-176.185806
 51
-90.000000
  0
LINE
  8
0
  6
CONTINUOUS
 10
261.833374
 20
40.518780
 11
257.672974
 21
40.518780
  0
LINE
  8
0
  6
CONTINUOUS
 10
264.129761
 20
47.487522
 11
264.129761
 21
40.518780
  0
LINE
  8
0
  6
CONTINUOUS
 10
268.129761
 20
50.018768
 11
268.129761
 21
52.518768
  0
LINE
  8
0
  6
CONTINUOUS
 10
276.129761
 20
50.018768
 11
276.129761
 21
52.518768
  0
LINE
  8
0
  6
CONTINUOUS
 10
271.348389
 20
51.050022
 11
271.348389
 21
41.831280
  0
LINE
  8
0
  6
CONTINUOUS
 10
272.848389
 20
51.050022
 11
272.848389
 21
41.831280
  0
LINE
  8
0
  6
CONTINUOUS
 10
280.723389
 20
51.050022
 11
280.723389
 21
41.768780
  0
LINE
  8
0
  6
CONTINUOUS
 10
282.098389
 20
46.128147
 11
282.098389
 21
41.768780
  0
LINE
  8
0
  6
CONTINUOUS
 10
262.231567
 20
50.925022
 11
258.376587
 21
50.925022
  0
LINE
  8
0
  6
CONTINUOUS
 10
258.376587
 20
50.925022
 11
257.473389
 21
49.805027
  0
LINE
  8
0
  6
CONTINUOUS
 10
257.581970
 20
52.518768
 11
256.129761
 21
50.659023
  0
LINE
  8
0
  6
CONTINUOUS
 10
257.473389
 20
42.891682
 11
258.391174
 21
41.925018
  0
LINE
  8
0
  6
CONTINUOUS
 10
256.129761
 20
42.075939
 11
257.672974
 21
40.518780
  0
LINE
  8
0
  6
CONTINUOUS
 10
256.129761
 20
50.659023
 11
256.129761
 21
42.075939
  0
LINE
  8
0
  6
CONTINUOUS
 10
257.473389
 20
49.805027
 11
257.473389
 21
42.891682
  0
LINE
  8
0
  6
CONTINUOUS
 10
262.973389
 20
50.207920
 11
262.216370
 21
50.925022
  0
LINE
  8
0
  6
CONTINUOUS
 10
262.961365
 20
52.518768
 11
264.129761
 21
51.222279
  0
LINE
  8
0
  6
CONTINUOUS
 10
262.973389
 20
50.018768
 11
264.129761
 21
50.018768
  0
LINE
  8
0
  6
CONTINUOUS
 10
257.581970
 20
52.518768
 11
262.961365
 21
52.518768
  0
LINE
  8
0
  6
CONTINUOUS
 10
260.879761
 20
47.487522
 11
264.129761
 21
47.487522
  0
LINE
  8
0
  6
CONTINUOUS
 10
262.973389
 20
46.175022
 11
260.879761
 21
46.175022
  0
LINE
  8
0
  6
CONTINUOUS
 10
260.473389
 20
41.925018
 11
258.391174
 21
41.925018
  0
LINE
  8
0
  6
CONTINUOUS
 10
262.973389
 20
44.925022
 11
262.973389
 21
45.925022
  0
ARC
  8
0
  6
CONTINUOUS
 10
260.473389
 20
44.425022
 40
2.500000
 50
-89.999786
 51
0.000109
  0
LINE
  8
0
  6
CONTINUOUS
 10
262.973389
 20
41.475319
 11
262.973389
 21
40.518780
  0
LINE
  8
0
  6
CONTINUOUS
 10
264.129761
 20
51.222279
 11
264.129761
 21
50.018768
  0
LINE
  8
0
  6
CONTINUOUS
 10
262.973389
 20
46.175022
 11
262.973389
 21
44.425022
  0
LINE
  8
0
  6
CONTINUOUS
 10
260.879761
 20
47.487522
 11
260.879761
 21
46.175022
  0
LINE
  8
0
  6
CONTINUOUS
 10
262.973389
 20
40.518780
 11
264.129761
 21
40.518780
  0
LINE
  8
0
  6
CONTINUOUS
 10
262.973389
 20
41.475319
 11
261.833374
 21
40.518780
  0
LINE
  8
0
  6
CONTINUOUS
 10
272.848389
 20
41.831280
 11
273.348389
 21
41.831280
  0
LINE
  8
0
  6
CONTINUOUS
 10
270.754761
 20
41.831280
 11
270.754761
 21
40.518780
  0
LINE
  8
0
  6
CONTINUOUS
 10
273.348389
 20
41.831280
 11
273.348389
 21
40.518780
  0
LINE
  8
0
  6
CONTINUOUS
 10
275.295166
 20
50.018768
 11
276.129761
 21
50.018768
  0
LINE
  8
0
  6
CONTINUOUS
 10
268.129761
 20
50.018768
 11
269.017761
 21
50.018768
  0
LINE
  8
0
  6
CONTINUOUS
 10
268.129761
 20
52.518768
 11
276.129761
 21
52.518768
  0
LINE
  8
0
  6
CONTINUOUS
 10
270.754761
 20
40.518780
 11
273.348389
 21
40.518780
  0
LINE
  8
0
  6
CONTINUOUS
 10
270.754761
 20
41.831280
 11
271.348389
 21
41.831280
  0
ARC
  8
0
  6
CONTINUOUS
 10
284.926575
 20
49.315647
 40
3.203126
 50
-73.981873
 51
90.003510
  0
ARC
  8
0
  6
CONTINUOUS
 10
284.926575
 20
49.315647
 40
1.954124
 50
-82.585274
 51
62.411850
  0
LINE
  8
0
  6
CONTINUOUS
 10
280.129761
 20
52.518768
 11
284.926575
 21
52.518768
  0
LINE
  8
0
  6
CONTINUOUS
 10
285.178772
 20
47.377865
 11
282.098389
 21
47.377865
  0
LINE
  8
0
  6
CONTINUOUS
 10
280.129761
 20
52.518768
 11
280.129761
 21
51.050022
  0
LINE
  8
0
  6
CONTINUOUS
 10
282.098389
 20
51.050022
 11
282.098389
 21
47.377865
  0
LINE
  8
0
  6
CONTINUOUS
 10
285.810364
 20
46.236881
 11
287.792969
 21
41.768780
  0
LINE
  8
0
  6
CONTINUOUS
 10
284.658966
 20
46.128147
 11
286.535187
 21
41.768780
  0
LINE
  8
0
  6
CONTINUOUS
 10
280.129761
 20
41.768780
 11
280.723389
 21
41.768780
  0
LINE
  8
0
  6
CONTINUOUS
 10
282.098389
 20
41.768780
 11
282.645386
 21
41.768780
  0
LINE
  8
0
  6
CONTINUOUS
 10
282.645386
 20
40.518780
 11
280.129761
 21
40.518780
  0
LINE
  8
0
  6
CONTINUOUS
 10
286.285980
 20
41.768780
 11
286.535187
 21
41.768780
  0
LINE
  8
0
  6
CONTINUOUS
 10
286.285980
 20
40.518780
 11
288.129761
 21
40.518780
  0
LINE
  8
0
  6
CONTINUOUS
 10
286.285980
 20
41.768780
 11
286.285980
 21
40.518780
  0
LINE
  8
0
  6
CONTINUOUS
 10
282.645386
 20
41.768780
 11
282.645386
 21
40.518780
  0
LINE
  8
0
  6
CONTINUOUS
 10
280.129761
 20
41.768780
 11
280.129761
 21
40.518780
  0
LINE
  8
0
  6
CONTINUOUS
 10
269.447388
 20
51.050022
 11
269.017761
 21
50.018768
  0
LINE
  8
0
  6
CONTINUOUS
 10
274.932983
 20
51.050022
 11
275.295166
 21
50.018768
  0
LINE
  8
0
  6
CONTINUOUS
 10
272.848389
 20
51.050022
 11
274.932983
 21
51.050022
  0
LINE
  8
0
  6
CONTINUOUS
 10
271.348389
 20
51.050022
 11
269.447388
 21
51.050022
  0
LINE
  8
0
  6
CONTINUOUS
 10
282.098389
 20
46.128147
 11
284.658966
 21
46.128147
  0
LINE
  8
0
  6
CONTINUOUS
 10
280.129761
 20
51.050022
 11
280.723389
 21
51.050022
  0
LINE
  8
0
  6
CONTINUOUS
 10
282.098389
 20
51.050022
 11
285.831573
 21
51.047596
  0
LINE
  8
0
  6
CONTINUOUS
 10
262.973389
 20
50.207920
 11
262.973389
 21
50.018768
  0
LINE
  8
0
  6
CONTINUOUS
 10
290.567780
 20
138.018753
 11
253.691574
 21
138.018753
  0
LINE
  8
0
  6
CONTINUOUS
 10
290.567780
 20
13.018760
 11
253.691574
 21
13.018760
  0
LINE
  8
0
  6
CONTINUOUS
 10
219.629776
 20
38.138519
 11
219.629776
 21
112.899002
  0
LINE
  8
0
  6
CONTINUOUS
 10
324.629761
 20
112.518761
 11
324.629761
 21
112.899002
  0
LINE
  8
0
  6
CONTINUOUS
 10
316.802765
 20
29.018761
 11
324.879761
 21
29.018761
  0
LINE
  8
0
  6
CONTINUOUS
 10
329.129761
 20
135.518723
 11
329.129761
 21
120.268761
  0
LINE
  8
0
  6
CONTINUOUS
 10
252.129776
 20
146.773727
 11
252.129776
 21
138.577042
  0
LINE
  8
0
  6
CONTINUOUS
 10
292.129761
 20
146.773727
 11
292.129761
 21
138.577042
  0
LINE
  8
0
  6
CONTINUOUS
 10
252.129776
 20
11.678320
 11
252.129776
 21
4.857740
  0
LINE
  8
0
  6
CONTINUOUS
 10
292.129761
 20
11.678320
 11
292.129761
 21
4.857740
  0
LINE
  8
0
  6
CONTINUOUS
 10
221.783569
 20
117.009956
 11
250.845581
 21
137.129715
  0
LINE
  8
0
  6
CONTINUOUS
 10
322.475769
 20
117.009956
 11
293.413788
 21
137.129715
  0
LINE
  8
0
  6
CONTINUOUS
 10
250.845581
 20
13.907800
 11
221.783569
 21
34.027561
  0
LINE
  8
0
  6
CONTINUOUS
 10
313.956573
 20
28.129721
 11
293.413788
 21
13.907800
  0
ARC
  8
0
  6
CONTINUOUS
 10
253.691574
 20
133.018753
 40
5.000000
 50
90.000000
 51
124.695396
  0
ARC
  8
0
  6
CONTINUOUS
 10
290.567780
 20
133.018753
 40
5.000000
 50
55.305019
 51
90.000000
  0
ARC
  8
0
  6
CONTINUOUS
 10
224.629776
 20
112.899017
 40
5.000000
 50
124.695503
 51
180.000000
  0
ARC
  8
0
  6
CONTINUOUS
 10
224.629578
 20
38.138561
 40
5.000000
 50
180.000000
 51
235.305206
  0
ARC
  8
0
  6
CONTINUOUS
 10
253.691574
 20
18.018761
 40
5.000000
 50
235.304794
 51
270.000000
  0
ARC
  8
0
  6
CONTINUOUS
 10
290.567780
 20
18.018761
 40
5.000000
 50
270.000000
 51
304.695190
  0
ARC
  8
0
  6
CONTINUOUS
 10
316.802765
 20
24.018761
 40
5.000000
 50
90.000000
 51
124.695396
  0
ARC
  8
0
  6
CONTINUOUS
 10
319.629761
 20
112.898979
 40
5.000000
 50
0.000000
 51
55.304981
  0
ARC
  8
0
  6
CONTINUOUS
 10
319.330383
 20
125.268761
 40
5.000000
 50
235.304794
 51
270.000000
  0
ARC
  8
0
  6
CONTINUOUS
 10
326.629761
 20
112.518761
 40
2.000000
 50
180.000000
 51
270.000000
  0
LINE
  8
0
  6
CONTINUOUS
 10
329.879761
 20
13.268660
 11
329.879761
 21
108.518761
  0
ARC
  8
0
  6
CONTINUOUS
 10
331.879761
 20
108.518784
 40
2.000000
 50
90.000000
 51
180.000000
  0
ARC
  8
0
  6
CONTINUOUS
 10
331.879761
 20
17.491301
 40
2.000000
 50
180.000000
 51
270.315186
  0
LINE
  8
0
  6
CONTINUOUS
 10
329.288971
 20
15.113900
 11
329.086182
 21
15.113900
  0
ARC
  8
0
  6
CONTINUOUS
 10
329.288971
 20
14.613900
 40
0.500000
 50
3.814180
 51
90.000000
  0
ARC
  8
0
  6
CONTINUOUS
 10
324.879761
 20
24.018740
 40
5.000000
 50
0.000000
 51
90.000000
  0
ARC
  8
0
  6
CONTINUOUS
 10
252.129776
 20
53.158089
 40
30.000000
 50
180.000000
 51
228.189606
  0
LINE
  8
0
  6
CONTINUOUS
 10
264.629761
 20
96.518761
 11
264.629761
 21
90.518761
  0
LINE
  8
0
  6
CONTINUOUS
 10
258.629761
 20
96.518761
 11
258.629761
 21
90.518761
  0
LINE
  8
0
  6
CONTINUOUS
 10
258.629761
 20
96.518761
 11
264.629761
 21
96.518761
  0
LINE
  8
0
  6
CONTINUOUS
 10
258.629761
 20
90.518761
 11
264.629761
 21
90.518761
  0
ARC
  8
0
  6
CONTINUOUS
 10
272.129761
 20
93.518761
 40
11.000000
 50
-164.173401
 51
164.173401
  0
LINE
  8
0
  6
CONTINUOUS
 10
336.879761
 20
120.518875
 11
336.879761
 21
5.518873
  0
LINE
  8
0
  6
CONTINUOUS
 10
287.792969
 20
41.768780
 11
288.129761
 21
41.768780
  0
LINE
  8
0
  6
CONTINUOUS
 10
288.129761
 20
41.768780
 11
288.129761
 21
40.518780
  0
LINE
  8
0
  6
CENTER
 10
210.394180
 20
304.693756
 11
572.419983
 21
304.693756
  0
LINE
  8
0
  6
CONTINUOUS
 10
334.379761
 20
361.943756
 11
336.879761
 21
361.943756
  0
LINE
  8
0
  6
CONTINUOUS
 10
332.362366
 20
247.443756
 11
336.879761
 21
247.443756
  0
LINE
  8
0
  6
CONTINUOUS
 10
329.629761
 20
361.943756
 11
336.879761
 21
361.943756
  0
LINE
  8
0
  6
CONTINUOUS
 10
328.175568
 20
336.693756
 11
336.879761
 21
336.693756
  0
LINE
  8
0
  6
CONTINUOUS
 10
329.613190
 20
352.193756
 11
336.879761
 21
352.193756
  0
LINE
  8
0
  6
CONTINUOUS
 10
331.519379
 20
257.193756
 11
336.879761
 21
257.193756
  0
LINE
  8
0
  6
CONTINUOUS
 10
336.879761
 20
272.693756
 11
220.090973
 21
272.693756
  0
LINE
  8
0
  6
CONTINUOUS
 10
331.362579
 20
248.426254
 11
331.024689
 21
267.781036
  0
ARC
  8
0
  6
CONTINUOUS
 10
332.362488
 20
248.443756
 40
1.000000
 50
181.000702
 51
270.000000
  0
ARC
  8
0
  6
CONTINUOUS
 10
326.025360
 20
267.693756
 40
5.000000
 50
1.000200
 51
90.000000
  0
LINE
  8
0
  6
CONTINUOUS
 10
336.879761
 20
247.193756
 11
336.879761
 21
362.193756
  0
LINE
  8
0
  6
CONTINUOUS
 10
215.129776
 20
362.693756
 11
329.129761
 21
362.693756
  0
LINE
  8
0
  6
CONTINUOUS
 10
292.129761
 20
272.693756
 11
292.129761
 21
349.891449
  0
LINE
  8
0
  6
CONTINUOUS
 10
252.129776
 20
272.693756
 11
252.129776
 21
349.891449
  0
LINE
  8
0
  6
CONTINUOUS
 10
218.591476
 20
274.154449
 11
216.607773
 21
349.891449
  0
ARC
  8
0
  6
CONTINUOUS
 10
220.091080
 20
274.193756
 40
1.500000
 50
181.500198
 51
270.000000
  0
LINE
  8
0
  6
CONTINUOUS
 10
328.129761
 20
350.693756
 11
216.418274
 21
350.693756
  0
LINE
  8
0
  6
CONTINUOUS
 10
329.129761
 20
351.693756
 11
329.129761
 21
362.693756
  0
LINE
  8
0
  6
CONTINUOUS
 10
215.129776
 20
362.693756
 11
215.418579
 21
351.667572
  0
ARC
  8
0
  6
CONTINUOUS
 10
216.418274
 20
351.693756
 40
1.000000
 50
181.500107
 51
270.000000
  0
ARC
  8
0
  6
CONTINUOUS
 10
215.608368
 20
349.865265
 40
1.000000
 50
1.500400
 51
66.108803
  0
ARC
  8
0
  6
CONTINUOUS
 10
329.629761
 20
362.443756
 40
0.500000
 50
180.000000
 51
270.000000
  0
LINE
  8
0
  6
CENTER
 10
414.356262
 20
63.018761
 11
304.936005
 21
63.018761
  0
LINE
  8
0
  6
CONTINUOUS
 10
336.879761
 20
120.518761
 11
336.879761
 21
5.518760
  0
LINE
  8
0
  6
CENTER
 10
61.877201
 20
-11.312500
 11
61.877201
 21
156.716721
  0
LINE
  8
0
  6
CENTER
 10
-6.547255
 20
63.018761
 11
128.136993
 21
63.018761
  0
LINE
  8
0
  6
CENTER
 10
-6.547255
 20
93.518761
 11
160.720001
 21
93.518761
  0
LINE
  8
0
  6
CONTINUOUS
 10
3.877400
 20
93.518761
 11
3.877400
 21
3.518740
  0
LINE
  8
0
  6
CONTINUOUS
 10
15.877400
 20
93.518761
 11
15.877400
 21
145.518753
  0
LINE
  8
0
  6
CONTINUOUS
 10
13.959200
 20
147.518753
 11
3.877400
 21
147.518753
  0
LINE
  8
0
  6
CONTINUOUS
 10
13.959200
 20
3.518780
 11
3.877400
 21
3.518780
  0
LINE
  8
0
  6
CONTINUOUS
 10
93.877197
 20
14.001440
 11
93.877197
 21
137.036087
  0
LINE
  8
0
  6
CONTINUOUS
 10
92.894997
 20
138.035934
 11
17.842600
 21
139.345642
  0
LINE
  8
0
  6
CONTINUOUS
 10
92.894997
 20
13.001620
 11
17.842600
 21
11.691300
  0
LINE
  8
0
  6
CONTINUOUS
 10
17.786400
 20
115.518738
 11
92.809998
 21
115.518738
  0
LINE
  8
0
  6
CONTINUOUS
 10
17.786400
 20
35.518761
 11
92.487000
 21
35.518761
  0
LINE
  8
0
  6
CONTINUOUS
 10
16.374001
 20
5.371740
 11
17.483200
 21
9.511580
  0
LINE
  8
0
  6
CONTINUOUS
 10
16.374001
 20
145.665833
 11
17.483400
 21
141.525314
  0
ARC
  8
0
  6
CONTINUOUS
 10
20.381201
 20
142.301834
 40
3.000000
 50
195.000702
 51
269.000488
  0
ARC
  8
0
  6
CONTINUOUS
 10
13.877400
 20
145.518753
 40
2.000000
 50
0.000000
 51
90.000000
  0
ARC
  8
0
  6
CONTINUOUS
 10
17.877399
 20
141.345367
 40
2.000000
 50
180.000000
 51
269.000610
  0
ARC
  8
0
  6
CONTINUOUS
 10
20.381001
 20
8.735140
 40
3.000000
 50
91.000526
 51
165.000305
  0
ARC
  8
0
  6
CONTINUOUS
 10
17.877399
 20
9.691620
 40
2.000000
 50
91.000633
 51
180.000000
  0
ARC
  8
0
  6
CONTINUOUS
 10
13.877400
 20
5.518780
 40
2.000000
 50
-90.000000
 51
0.000000
  0
ARC
  8
0
  6
CONTINUOUS
 10
92.877197
 20
137.036087
 40
1.000000
 50
0.000000
 51
89.000359
  0
ARC
  8
0
  6
CONTINUOUS
 10
92.877197
 20
14.001440
 40
1.000000
 50
-88.999573
 51
0.000000
  0
LINE
  8
0
  6
CENTER
 10
-1.616400
 20
135.518753
 11
21.020201
 21
135.518753
  0
LINE
  8
0
  6
CENTER
 10
-1.616400
 20
15.518740
 11
21.020201
 21
15.518740
  0
LINE
  8
0
  6
DASHED
 10
3.877400
 20
141.018753
 11
15.877400
 21
141.018753
  0
LINE
  8
0
  6
DASHED
 10
3.877400
 20
130.018753
 11
15.877400
 21
130.018753
  0
LINE
  8
0
  6
DASHED
 10
3.877400
 20
21.018740
 11
15.877400
 21
21.018740
  0
LINE
  8
0
  6
DASHED
 10
3.877400
 20
10.018740
 11
15.877400
 21
10.018740
  0
LINE
  8
0
  6
CONTINUOUS
 10
109.877197
 20
68.325912
 11
109.877197
 21
118.711601
  0
LINE
  8
0
  6
CONTINUOUS
 10
99.877197
 20
35.323601
 11
99.877197
 21
95.588737
  0
LINE
  8
0
  6
CONTINUOUS
 10
107.647598
 20
121.611038
 11
96.107399
 21
124.676437
  0
LINE
  8
0
  6
CONTINUOUS
 10
107.647598
 20
65.426460
 11
102.107002
 21
63.954803
  0
LINE
  8
0
  6
CONTINUOUS
 10
97.650398
 20
32.424919
 11
96.104401
 21
32.012619
  0
ARC
  8
0
  6
CONTINUOUS
 10
106.877197
 20
118.711601
 40
3.000000
 50
0.000000
 51
75.124413
  0
ARC
  8
0
  6
CONTINUOUS
 10
106.877197
 20
68.325912
 40
3.000000
 50
-75.124207
 51
0.000000
  0
ARC
  8
0
  6
CONTINUOUS
 10
96.877197
 20
35.323601
 40
3.000000
 50
-75.068420
 51
0.000000
  0
ARC
  8
0
  6
CONTINUOUS
 10
96.877197
 20
127.575920
 40
3.000000
 50
180.000000
 51
255.124603
  0
ARC
  8
0
  6
CONTINUOUS
 10
102.877197
 20
61.055367
 40
3.000000
 50
104.876099
 51
180.000000
  0
ARC
  8
0
  6
CONTINUOUS
 10
96.877197
 20
29.113920
 40
3.000000
 50
104.931801
 51
180.000000
  0
LINE
  8
0
  6
CONTINUOUS
 10
109.377197
 20
20.518740
 11
109.377197
 21
29.570101
  0
LINE
  8
0
  6
CONTINUOUS
 10
104.377197
 20
15.518740
 11
95.326202
 21
15.518740
  0
ARC
  8
0
  6
CONTINUOUS
 10
61.877201
 20
63.018761
 40
57.250000
 50
-32.501888
 51
19.914110
  0
ARC
  8
0
  6
CONTINUOUS
 10
61.877201
 20
63.018761
 40
57.250000
 50
243.004898
 51
298.995514
  0
ARC
  8
0
  6
CONTINUOUS
 10
104.377197
 20
20.518740
 40
5.000000
 50
-90.000000
 51
0.000000
  0
ARC
  8
0
  6
CONTINUOUS
 10
114.377197
 20
29.570101
 40
5.000000
 50
147.498093
 51
180.000000
  0
ARC
  8
0
  6
CONTINUOUS
 10
95.326202
 20
10.518740
 40
5.000000
 50
90.000000
 51
106.842003
  0
LINE
  8
0
  6
CONTINUOUS
 10
3.877400
 20
147.518753
 11
3.877400
 21
93.518761
  0
LINE
  8
0
  6
CONTINUOUS
 10
15.877400
 20
5.518780
 11
15.877400
 21
93.518761
  0
LINE
  8
0
  6
CONTINUOUS
 10
151.877197
 20
82.518761
 11
151.877197
 21
104.518738
  0
LINE
  8
0
  6
CONTINUOUS
 10
111.877197
 20
104.518738
 11
151.877197
 21
104.518738
  0
LINE
  8
0
  6
CONTINUOUS
 10
111.877197
 20
82.518761
 11
151.877197
 21
82.518761
  0
LINE
  8
0
  6
CONTINUOUS
 10
111.877197
 20
106.018738
 11
111.877197
 21
81.018761
  0
LINE
  8
0
  6
CONTINUOUS
 10
109.877197
 20
106.018738
 11
111.877197
 21
106.018738
  0
LINE
  8
0
  6
CONTINUOUS
 10
109.877197
 20
81.018761
 11
111.877197
 21
81.018761
  0
ARC
  8
0
  6
CONTINUOUS
 10
119.877197
 20
93.518761
 40
3.000000
 50
90.000000
 51
270.000000
  0
LINE
  8
0
  6
CONTINUOUS
 10
119.877197
 20
96.518738
 11
151.877197
 21
96.518738
  0
LINE
  8
0
  6
CONTINUOUS
 10
119.877197
 20
90.518761
 11
151.877197
 21
90.518761
  0
ARC
  8
0
  6
CONTINUOUS
 10
13.959200
 20
145.018753
 40
2.500000
 50
15.000760
 51
90.000000
  0
ARC
  8
0
  6
CONTINUOUS
 10
13.959200
 20
6.018780
 40
2.500000
 50
270.000000
 51
345.000214
  0
ARC
  8
0
  6
CONTINUOUS
 10
61.877201
 20
63.018761
 40
57.499821
 50
303.815704
 51
303.996307
  0
ARC
  8
0
  6
CONTINUOUS
 10
61.877201
 20
63.018761
 40
57.500000
 50
242.540298
 51
299.460602
  0
ARC
  8
0
  6
CONTINUOUS
 10
61.877201
 20
63.018761
 40
57.500000
 50
-33.996769
 51
19.823891
  0
ARC
  8
0
  6
CONTINUOUS
 10
61.877201
 20
63.018761
 40
57.500000
 50
303.815613
 51
303.997314
  0
LINE
  8
0
  6
CONTINUOUS
 10
325.668091
 20
274.154480
 11
325.870789
 21
281.893768
  0
ARC
  8
0
  6
CONTINUOUS
 10
324.168579
 20
274.193756
 40
1.500000
 50
270.000000
 51
358.499664
  0
ARC
  8
0
  6
CONTINUOUS
 10
328.129761
 20
351.693756
 40
1.000000
 50
-90.000000
 51
0.000000
  0
ARC
  8
0
  6
CONTINUOUS
 10
328.648743
 20
349.762268
 40
1.000000
 50
105.039177
 51
178.499649
  0
LINE
  8
0
  6
CENTER
 10
272.129761
 20
208.492065
 11
272.129761
 21
375.813751
  0
LINE
  8
0
  6
CONTINUOUS
 10
297.322632
 20
256.693756
 11
246.936935
 21
256.693756
  0
LINE
  8
0
  6
CONTINUOUS
 10
241.973526
 20
266.693756
 11
238.686676
 21
266.693756
  0
ARC
  8
0
  6
CONTINUOUS
 10
246.936935
 20
259.693756
 40
3.000000
 50
-165.124313
 51
-90.000000
  0
LINE
  8
0
  6
CONTINUOUS
 10
235.787231
 20
268.923584
 11
235.378082
 21
270.463928
  0
ARC
  8
0
  6
CONTINUOUS
 10
238.686676
 20
269.693756
 40
3.000000
 50
-165.124313
 51
-90.000000
  0
ARC
  8
0
  6
CONTINUOUS
 10
232.478622
 20
269.693756
 40
3.000000
 50
14.875682
 51
90.000000
  0
LINE
  8
0
  6
CONTINUOUS
 10
241.973526
 20
266.693756
 11
244.037476
 21
258.923584
  0
LINE
  8
0
  6
CONTINUOUS
 10
308.472321
 20
268.923584
 11
308.881470
 21
270.463928
  0
ARC
  8
0
  6
CONTINUOUS
 10
305.572876
 20
269.693756
 40
3.000000
 50
270.000000
 51
345.124329
  0
ARC
  8
0
  6
CONTINUOUS
 10
311.780945
 20
269.693756
 40
3.000000
 50
90.000000
 51
165.124313
  0
LINE
  8
0
  6
CONTINUOUS
 10
302.286011
 20
266.693756
 11
305.572876
 21
266.693756
  0
ARC
  8
0
  6
CONTINUOUS
 10
297.322632
 20
259.693756
 40
3.000000
 50
270.000000
 51
345.124329
  0
LINE
  8
0
  6
CONTINUOUS
 10
302.286011
 20
266.693756
 11
300.222076
 21
258.923584
  0
LINE
  8
0
  6
CONTINUOUS
 10
283.129761
 20
214.693756
 11
258.629761
 21
214.693756
  0
LINE
  8
0
  6
CONTINUOUS
 10
261.129761
 20
254.693756
 11
261.129761
 21
249.693756
  0
LINE
  8
0
  6
CONTINUOUS
 10
283.129761
 20
254.693756
 11
283.129761
 21
214.693756
  0
LINE
  8
0
  6
CONTINUOUS
 10
259.629761
 20
256.693756
 11
259.629761
 21
254.693756
  0
LINE
  8
0
  6
CONTINUOUS
 10
284.629761
 20
256.693756
 11
284.629761
 21
254.693756
  0
LINE
  8
0
  6
CONTINUOUS
 10
284.629761
 20
254.693756
 11
259.629761
 21
254.693756
  0
LINE
  8
0
  6
CONTINUOUS
 10
258.629761
 20
249.693756
 11
258.629761
 21
214.693756
  0
LINE
  8
0
  6
CONTINUOUS
 10
261.546753
 20
214.693756
 11
261.546753
 21
249.693756
  0
LINE
  8
0
  6
CONTINUOUS
 10
261.546753
 20
249.693756
 11
258.629761
 21
249.693756
  0
ARC
  8
0
  6
CONTINUOUS
 10
387.314178
 20
303.100067
 40
65.000000
 50
157.957932
 51
199.041382
  0
LINE
  8
0
  6
CONTINUOUS
 10
327.065125
 20
327.493774
 11
327.649078
 21
349.788452
  0
LINE
  8
0
  6
CONTINUOUS
 10
502.879791
 20
90.018738
 11
388.879791
 21
90.018738
  0
LINE
  8
0
  6
CONTINUOUS
 10
502.879791
 20
14.018780
 11
388.879791
 21
14.018780
  0
LINE
  8
0
  6
CONTINUOUS
 10
502.879791
 20
82.267738
 11
396.879791
 21
82.267738
  0
LINE
  8
0
  6
CONTINUOUS
 10
502.879791
 20
21.769779
 11
396.879791
 21
21.769779
  0
LINE
  8
0
  6
CONTINUOUS
 10
396.879791
 20
88.018738
 11
396.879791
 21
16.018761
  0
ARC
  8
0
  6
CONTINUOUS
 10
394.879791
 20
88.018761
 40
2.000000
 50
0.000000
 51
90.000000
  0
ARC
  8
0
  6
CONTINUOUS
 10
394.879791
 20
16.018780
 40
2.000000
 50
-90.000000
 51
0.000000
  0
LINE
  8
0
  6
CONTINUOUS
 10
347.292542
 20
91.471016
 11
388.879791
 21
90.018761
  0
LINE
  8
0
  6
CONTINUOUS
 10
336.879791
 20
12.202880
 11
388.879791
 21
14.018760
  0
LINE
  8
0
  6
CONTINUOUS
 10
344.879791
 20
119.518761
 11
344.879791
 21
92.518761
  0
LINE
  8
0
  6
CONTINUOUS
 10
343.879791
 20
120.518761
 11
336.879761
 21
120.518761
  0
LINE
  8
0
  6
CONTINUOUS
 10
342.379791
 20
5.518760
 11
336.879791
 21
5.518760
  0
LINE
  8
0
  6
CONTINUOUS
 10
344.879791
 20
93.018761
 11
344.879791
 21
22.106104
  0
LINE
  8
0
  6
CONTINUOUS
 10
388.879791
 20
90.018761
 11
388.879791
 21
14.018760
  0
LINE
  8
0
  6
CONTINUOUS
 10
346.292938
 20
103.336563
 11
372.236359
 21
90.812149
  0
ARC
  8
0
  6
CONTINUOUS
 10
343.879791
 20
119.518761
 40
1.000000
 50
0.000000
 51
90.000000
  0
ARC
  8
0
  6
CONTINUOUS
 10
347.379791
 20
105.587944
 40
2.500000
 50
180.000000
 51
244.230682
  0
ARC
  8
0
  6
CONTINUOUS
 10
347.379791
 20
93.969498
 40
2.500000
 50
180.000000
 51
268.000000
  0
ARC
  8
0
  6
CONTINUOUS
 10
373.323212
 20
93.063530
 40
2.500000
 50
-115.769325
 51
-92.000000
  0
LINE
  8
0
  6
CONTINUOUS
 10
343.754730
 20
19.864759
 11
336.879791
 21
19.864759
  0
LINE
  8
0
  6
CONTINUOUS
 10
344.879791
 20
8.018760
 11
344.879791
 21
10.068024
  0
ARC
  8
0
  6
CONTINUOUS
 10
342.379791
 20
8.018760
 40
2.500000
 50
-90.000000
 51
0.000000
  0
ARC
  8
0
  6
CONTINUOUS
 10
347.379791
 20
10.068024
 40
2.500000
 50
92.000000
 51
180.000000
  0
LINE
  8
0
  6
CENTER
 10
573.885010
 20
52.018761
 11
304.129791
 21
52.018761
  0
LINE
  8
0
  6
CONTINUOUS
 10
342.379761
 20
362.193756
 11
336.879761
 21
362.193756
  0
LINE
  8
0
  6
CONTINUOUS
 10
342.379761
 20
247.193756
 11
336.879761
 21
247.193756
  0
LINE
  8
0
  6
CONTINUOUS
 10
344.879761
 20
359.693756
 11
344.879761
 21
249.693756
  0
LINE
  8
0
  6
CONTINUOUS
 10
388.879761
 20
266.693756
 11
388.879761
 21
342.693756
  0
LINE
  8
0
  6
CONTINUOUS
 10
347.292511
 20
265.241516
 11
388.879761
 21
266.693756
  0
LINE
  8
0
  6
CONTINUOUS
 10
347.292511
 20
344.146027
 11
388.879761
 21
342.693756
  0
ARC
  8
0
  6
CONTINUOUS
 10
342.379761
 20
249.693756
 40
2.500000
 50
-90.000000
 51
0.000000
  0
ARC
  8
0
  6
CONTINUOUS
 10
342.379761
 20
359.693756
 40
2.500000
 50
0.000000
 51
90.000000
  0
LINE
  8
0
  6
CONTINUOUS
 10
388.879761
 20
266.693756
 11
388.879761
 21
342.693756
  0
LINE
  8
0
  6
CONTINUOUS
 10
502.879639
 20
266.693787
 11
388.879639
 21
266.693787
  0
LINE
  8
0
  6
CONTINUOUS
 10
502.879639
 20
342.693726
 11
388.879639
 21
342.693726
  0
LINE
  8
0
  6
CONTINUOUS
 10
396.879639
 20
268.693787
 11
396.879639
 21
281.693756
  0
ARC
  8
0
  6
CONTINUOUS
 10
394.879639
 20
268.693756
 40
2.000000
 50
-90.000000
 51
0.000000
  0
ARC
  8
0
  6
CONTINUOUS
 10
394.879639
 20
340.693726
 40
2.000000
 50
0.000000
 51
90.000000
  0
LINE
  8
0
  6
CONTINUOUS
 10
461.879669
 20
281.693756
 11
396.879639
 21
281.693756
  0
LINE
  8
0
  6
CONTINUOUS
 10
461.879669
 20
327.693756
 11
396.879639
 21
327.693756
  0
LINE
  8
0
  6
CONTINUOUS
 10
396.879639
 20
327.693756
 11
396.879639
 21
340.693756
  0
ARC
  8
0
  6
CONTINUOUS
 10
357.710144
 20
304.693756
 40
15.000000
 50
-49.252373
 51
49.252373
  0
LINE
  8
0
  6
CONTINUOUS
 10
345.747955
 20
274.587769
 11
367.501068
 21
293.329895
  0
LINE
  8
0
  6
CONTINUOUS
 10
345.747955
 20
334.799744
 11
367.501068
 21
316.057648
  0
ARC
  8
0
  6
CONTINUOUS
 10
347.379761
 20
272.693787
 40
2.500000
 50
130.747620
 51
180.000000
  0
ARC
  8
0
  6
CONTINUOUS
 10
347.379761
 20
262.743011
 40
2.500000
 50
92.000000
 51
180.000000
  0
ARC
  8
0
  6
CONTINUOUS
 10
347.379761
 20
336.693726
 40
2.500000
 50
180.000000
 51
229.252380
  0
ARC
  8
0
  6
CONTINUOUS
 10
347.379761
 20
346.644501
 40
2.500000
 50
180.000000
 51
268.000000
  0
LINE
  8
0
  6
CONTINUOUS
 10
502.879639
 20
342.693726
 11
502.879639
 21
329.693787
  0
LINE
  8
0
  6
CONTINUOUS
 10
502.879639
 20
342.693726
 11
512.379639
 21
342.693726
  0
LINE
  8
0
  6
CONTINUOUS
 10
502.879639
 20
266.693726
 11
512.379639
 21
266.693726
  0
LINE
  8
0
  6
CONTINUOUS
 10
511.879639
 20
281.693787
 11
512.379639
 21
281.693726
  0
LINE
  8
0
  6
CONTINUOUS
 10
511.879639
 20
327.693726
 11
512.379639
 21
327.693726
  0
LINE
  8
0
  6
CONTINUOUS
 10
502.879639
 20
279.693787
 11
502.879639
 21
266.693726
  0
LINE
  8
0
  6
CONTINUOUS
 10
512.379639
 20
264.693726
 11
512.379639
 21
344.693726
  0
LINE
  8
0
  6
CONTINUOUS
 10
556.379639
 20
344.693726
 11
512.379639
 21
344.693726
  0
LINE
  8
0
  6
CONTINUOUS
 10
556.379639
 20
264.693726
 11
512.379639
 21
264.693726
  0
LINE
  8
0
  6
CONTINUOUS
 10
561.379639
 20
269.693726
 11
561.379639
 21
339.693726
  0
ARC
  8
0
  6
CONTINUOUS
 10
556.379639
 20
339.693726
 40
5.000000
 50
0.000000
 51
90.000000
  0
ARC
  8
0
  6
CONTINUOUS
 10
556.379639
 20
269.693726
 40
5.000000
 50
-90.000000
 51
0.000000
  0
LINE
  8
0
  6
CONTINUOUS
 10
558.879639
 20
328.693726
 11
512.379639
 21
328.693726
  0
LINE
  8
0
  6
CONTINUOUS
 10
558.879639
 20
278.693756
 11
512.379639
 21
278.693756
  0
LINE
  8
0
  6
CONTINUOUS
 10
512.379822
 20
90.018738
 11
502.879791
 21
90.018738
  0
LINE
  8
0
  6
CONTINUOUS
 10
512.379822
 20
14.018739
 11
502.879791
 21
14.018739
  0
LINE
  8
0
  6
CONTINUOUS
 10
512.379822
 20
12.018739
 11
512.379822
 21
92.018738
  0
LINE
  8
0
  6
CONTINUOUS
 10
512.379822
 20
82.267738
 11
502.879791
 21
82.267738
  0
LINE
  8
0
  6
CONTINUOUS
 10
512.379822
 20
21.769739
 11
502.879791
 21
21.769739
  0
LINE
  8
0
  6
CONTINUOUS
 10
556.379822
 20
92.018738
 11
512.379822
 21
92.018738
  0
LINE
  8
0
  6
CONTINUOUS
 10
556.379822
 20
12.018739
 11
512.379822
 21
12.018739
  0
LINE
  8
0
  6
CONTINUOUS
 10
561.379822
 20
17.018740
 11
561.379822
 21
87.018738
  0
ARC
  8
0
  6
CONTINUOUS
 10
556.379822
 20
87.018738
 40
5.000000
 50
0.000000
 51
90.000000
  0
ARC
  8
0
  6
CONTINUOUS
 10
556.379822
 20
17.018740
 40
5.000000
 50
-90.000000
 51
0.000000
  0
LINE
  8
0
  6
CONTINUOUS
 10
558.879822
 20
78.018738
 11
512.379822
 21
78.018738
  0
LINE
  8
0
  6
CONTINUOUS
 10
558.879822
 20
28.018740
 11
512.379822
 21
28.018740
  0
LINE
  8
0
  6
CONTINUOUS
 10
502.879791
 20
14.018759
 11
502.879791
 21
90.018738
  0
LINE
  8
0
  6
CONTINUOUS
 10
511.879639
 20
327.693726
 11
511.879639
 21
281.693726
  0
LINE
  8
0
  6
CONTINUOUS
 10
509.879639
 20
279.693726
 11
511.879639
 21
281.693726
  0
LINE
  8
0
  6
CONTINUOUS
 10
509.879639
 20
279.693726
 11
463.879669
 21
279.693726
  0
LINE
  8
0
  6
CONTINUOUS
 10
469.379639
 20
284.193726
 11
469.379639
 21
279.693726
  0
ARC
  8
0
  6
CONTINUOUS
 10
466.379639
 20
284.193726
 40
3.000000
 50
0.000000
 51
90.000000
  0
LINE
  8
0
  6
CONTINUOUS
 10
466.379639
 20
287.193726
 11
461.879669
 21
287.193726
  0
CIRCLE
  8
0
  6
CONTINUOUS
 10
465.379639
 20
283.193726
 40
2.250000
  0
LINE
  8
0
  6
CONTINUOUS
 10
461.879669
 20
327.693726
 11
461.879669
 21
281.693726
  0
LINE
  8
0
  6
CONTINUOUS
 10
463.879669
 20
279.693726
 11
461.879669
 21
281.693726
  0
LINE
  8
0
  6
CONTINUOUS
 10
463.879669
 20
329.693726
 11
461.879669
 21
327.693726
  0
LINE
  8
0
  6
CONTINUOUS
 10
463.879669
 20
329.693726
 11
509.879639
 21
329.693726
  0
LINE
  8
0
  6
CONTINUOUS
 10
511.879639
 20
327.693726
 11
509.879639
 21
329.693726
  0
LINE
  8
0
  6
CONTINUOUS
 10
507.379639
 20
322.193726
 11
511.879639
 21
322.193726
  0
CIRCLE
  8
0
  6
CONTINUOUS
 10
508.379639
 20
326.193726
 40
2.250000
  0
ARC
  8
0
  6
CONTINUOUS
 10
507.379639
 20
325.193726
 40
3.000000
 50
180.000000
 51
270.000000
  0
LINE
  8
0
  6
CONTINUOUS
 10
504.379639
 20
325.193726
 11
504.379639
 21
329.693726
  0
LINE
  8
0
  6
CENTER
 10
486.879639
 20
337.159515
 11
486.879639
 21
273.027496
  0
LINE
  8
0
  6
CONTINUOUS
 10
510.879639
 20
322.193726
 11
510.879639
 21
287.193726
  0
LINE
  8
0
  6
CONTINUOUS
 10
469.379639
 20
280.693726
 11
504.379639
 21
280.693726
  0
LINE
  8
0
  6
CONTINUOUS
 10
462.879669
 20
287.193726
 11
462.879669
 21
322.193726
  0
LINE
  8
0
  6
CONTINUOUS
 10
504.379639
 20
328.693726
 11
469.379639
 21
328.693726
  0
LINE
  8
0
  6
CONTINUOUS
 10
507.379639
 20
287.193726
 11
511.879639
 21
287.193726
  0
ARC
  8
0
  6
CONTINUOUS
 10
507.379639
 20
284.193726
 40
3.000000
 50
90.000000
 51
180.000000
  0
LINE
  8
0
  6
CONTINUOUS
 10
504.379639
 20
284.193726
 11
504.379639
 21
279.693756
  0
CIRCLE
  8
0
  6
CONTINUOUS
 10
508.379639
 20
283.193726
 40
2.250000
  0
ARC
  8
0
  6
CONTINUOUS
 10
466.379639
 20
325.193726
 40
3.000000
 50
-90.000000
 51
0.000000
  0
LINE
  8
0
  6
CONTINUOUS
 10
469.379639
 20
325.193726
 11
469.379639
 21
329.693726
  0
LINE
  8
0
  6
CONTINUOUS
 10
466.379639
 20
322.193726
 11
461.879639
 21
322.193726
  0
CIRCLE
  8
0
  6
CONTINUOUS
 10
465.379639
 20
326.193726
 40
2.250000
  0
LINE
  8
0
  6
CONTINUOUS
 10
510.379791
 20
91.518738
 11
463.879791
 21
91.518738
  0
LINE
  8
0
  6
CONTINUOUS
 10
461.879822
 20
135.518738
 11
461.879791
 21
93.518738
  0
LINE
  8
0
  6
CONTINUOUS
 10
511.879791
 20
135.518738
 11
511.879791
 21
93.518738
  0
LINE
  8
0
  6
CONTINUOUS
 10
511.879791
 20
103.518738
 11
461.879791
 21
103.518738
  0
LINE
  8
0
  6
CONTINUOUS
 10
463.879791
 20
91.518738
 11
461.879791
 21
93.518738
  0
LINE
  8
0
  6
CONTINUOUS
 10
511.879791
 20
93.518738
 11
509.879791
 21
91.518738
  0
LINE
  8
0
  6
CONTINUOUS
 10
511.879791
 20
93.518738
 11
461.879791
 21
93.518738
  0
LINE
  8
0
  6
CONTINUOUS
 10
511.879791
 20
104.518738
 11
461.879822
 21
104.518738
  0
LINE
  8
0
  6
CONTINUOUS
 10
510.879791
 20
136.518738
 11
462.879822
 21
136.518738
  0
LINE
  8
0
  6
CONTINUOUS
 10
462.879822
 20
136.518738
 11
461.879822
 21
135.518738
  0
LINE
  8
0
  6
CONTINUOUS
 10
510.879791
 20
136.518738
 11
511.879791
 21
135.518738
  0
LINE
  8
0
  6
CONTINUOUS
 10
511.879791
 20
135.518738
 11
461.879822
 21
135.518738
  0
LINE
  8
0
  6
CENTER
 10
486.879791
 20
85.129227
 11
486.879791
 21
142.821243
  0
LINE
  8
0
  6
CENTER
 10
514.254822
 20
119.518738
 11
509.629791
 21
119.518738
  0
LINE
  8
0
  6
CONTINUOUS
 10
510.379791
 20
91.518738
 11
510.379791
 21
90.018738
  0
LINE
  8
0
  6
CONTINUOUS
 10
464.379791
 20
91.518738
 11
464.379791
 21
90.018738
  0
LINE
  8
0
  6
CONTINUOUS
 10
512.754822
 20
130.018738
 11
510.754791
 21
130.018738
  0
LINE
  8
0
  6
CONTINUOUS
 10
512.754822
 20
109.018738
 11
510.754791
 21
109.018738
  0
LINE
  8
0
  6
CENTER
 10
227.129700
 20
367.936249
 11
227.129700
 21
346.769989
  0
LINE
  8
0
  6
DASHED
 10
232.629700
 20
362.693756
 11
232.629700
 21
350.693756
  0
LINE
  8
0
  6
DASHED
 10
221.629700
 20
362.693756
 11
221.629700
 21
350.693756
  0
LINE
  8
0
  6
DASHED
 10
311.629852
 20
362.693756
 11
311.629852
 21
350.693756
  0
LINE
  8
0
  6
CENTER
 10
317.129852
 20
367.936249
 11
317.129852
 21
346.769989
  0
LINE
  8
0
  6
DASHED
 10
322.629852
 20
362.693756
 11
322.629852
 21
350.693756
  0
LINE
  8
0
  6
CONTINUOUS
 10
344.879791
 20
42.618759
 11
388.879791
 21
42.618759
  0
LINE
  8
0
  6
CONTINUOUS
 10
344.879791
 20
32.418758
 11
388.879791
 21
32.418758
  0
TEXT
  8
0
 10
-36.000000
 20
-11.000000
 40
4.000000
 41
1.000000
  1
HFM-22L-300~450-T60K
 50
0.000000
  0
ENDSEC
  0
EOF
