  0
SECTION
  2
HEADER
  9
$CLAYER
  8
1
  9
$LTSCALE
 40
3.0
  0
ENDSEC
  0
SECTION
  2
TABLES
  0
TABLE
  2
LTYPE
 70
     4
  0
LTYPE
  2
CONTINUOUS
  3
solid line
 70
    64
 72
    65
 73
     0
 40
0.0
  0
LTYPE
  2
DASHED
  3
__ __ __ __ __ __ __ __ __ __ __ __ __ __ __
 70
    64
 72
    65
 73
     2
 40
0.75
 49
0.5
 49
-0.25
  0
LTYPE
  2
CENTER
  3
____ _ ____ _ ____ _ ____ _ ____ _ ____ _ ____
 70
    64
 72
    65
 73
     4
 40
2.0
 49
1.25
 49
-0.25
 49
0.25
 49
-0.25
  0
LTYPE
  2
PHANTOM
  3
_____ _ _ _____ _ _ _____ _ _ _____ _ _ ____
 70
    64
 72
    65
 73
     6
 40
2.5
 49
1.25
 49
-0.25
 49
0.25
 49
-0.25
 49
0.25
 49
-0.25
  0
ENDTAB
  0
TABLE
  2
LAYER
 70
     1
  0
LAYER
  2
0
 70
    64
 62
     7
  6
CONTINUOUS
  0
ENDTAB
  0
TABLE
  2
STYLE
 70
     1
  0
STYLE
  2
STANDARD
 70
     0
 40
0.000000
 41
1.000000
 50
0.000000
 71
     0
 42
3.000000
  3
txt
  4
BIGFONT
  0
ENDTAB
  0
ENDSEC
  0
SECTION
  2
BLOCKS
  0
ENDSEC
  0
SECTION
  2
ENTITIES
  0
LINE
  8
0
  6
CENTER
 10
317.585144
 20
300.133759
 11
-11.069343
 21
300.133759
  0
LINE
  8
0
  6
CONTINUOUS
 10
193.599533
 20
242.883759
 11
191.099533
 21
242.883759
  0
LINE
  8
0
  6
CONTINUOUS
 10
195.616928
 20
357.383759
 11
191.099533
 21
357.383759
  0
LINE
  8
0
  6
CONTINUOUS
 10
198.349533
 20
242.883759
 11
191.099533
 21
242.883759
  0
LINE
  8
0
  6
CONTINUOUS
 10
199.803757
 20
268.133759
 11
191.099533
 21
268.133759
  0
LINE
  8
0
  6
CONTINUOUS
 10
198.366135
 20
252.633759
 11
191.099533
 21
252.633759
  0
LINE
  8
0
  6
CONTINUOUS
 10
196.459930
 20
347.633759
 11
191.099533
 21
347.633759
  0
LINE
  8
0
  6
CONTINUOUS
 10
191.099533
 20
332.133759
 11
307.888336
 21
332.133759
  0
LINE
  8
0
  6
CONTINUOUS
 10
196.616730
 20
356.401245
 11
196.954605
 21
337.046478
  0
ARC
  8
0
  6
CONTINUOUS
 10
195.616837
 20
356.383759
 40
1.000000
 50
1.000700
 51
90.000000
  0
ARC
  8
0
  6
CONTINUOUS
 10
201.953934
 20
337.133759
 40
5.000000
 50
-178.999802
 51
-90.000000
  0
LINE
  8
0
  6
CONTINUOUS
 10
191.099533
 20
357.633759
 11
191.099533
 21
242.633759
  0
LINE
  8
0
  6
CONTINUOUS
 10
312.849518
 20
242.133759
 11
198.849533
 21
242.133759
  0
LINE
  8
0
  6
CONTINUOUS
 10
235.849533
 20
332.133759
 11
235.849533
 21
254.936066
  0
LINE
  8
0
  6
CONTINUOUS
 10
275.849518
 20
332.133759
 11
275.849518
 21
254.936066
  0
LINE
  8
0
  6
CONTINUOUS
 10
309.387817
 20
330.673065
 11
311.371521
 21
254.936066
  0
ARC
  8
0
  6
CONTINUOUS
 10
307.888245
 20
330.633759
 40
1.500000
 50
1.500200
 51
90.000000
  0
LINE
  8
0
  6
CONTINUOUS
 10
199.849533
 20
254.133759
 11
311.561035
 21
254.133759
  0
LINE
  8
0
  6
CONTINUOUS
 10
198.849533
 20
253.133759
 11
198.849533
 21
242.133759
  0
LINE
  8
0
  6
CONTINUOUS
 10
312.849518
 20
242.133759
 11
312.560730
 21
253.159958
  0
ARC
  8
0
  6
CONTINUOUS
 10
311.561035
 20
253.133759
 40
1.000000
 50
1.500100
 51
90.000000
  0
ARC
  8
0
  6
CONTINUOUS
 10
312.370941
 20
254.962265
 40
1.000000
 50
-178.499603
 51
-113.891197
  0
ARC
  8
0
  6
CONTINUOUS
 10
198.349533
 20
242.383759
 40
0.500000
 50
0.000000
 51
90.000000
  0
LINE
  8
0
  6
CENTER
 10
125.059685
 20
58.458759
 11
223.043335
 21
58.458759
  0
LINE
  8
0
  6
CENTER
 10
255.849533
 20
154.040024
 11
255.849533
 21
-13.697500
  0
LINE
  8
0
  6
CENTER
 10
200.257507
 20
88.958763
 11
320.918396
 21
88.958763
  0
LINE
  8
0
  6
CONTINUOUS
 10
205.849457
 20
93.319458
 11
205.849457
 21
48.598072
  0
LINE
  8
0
  6
CONTINUOUS
 10
305.849609
 20
93.319420
 11
305.849609
 21
48.598072
  0
ARC
  8
0
  6
CONTINUOUS
 10
255.849533
 20
70.958771
 40
60.000000
 50
48.189621
 51
131.810394
  0
ARC
  8
0
  6
CONTINUOUS
 10
255.849533
 20
70.958771
 40
60.000000
 50
228.189697
 51
311.810303
  0
ARC
  8
0
  6
CONTINUOUS
 10
275.849609
 20
93.319420
 40
30.000000
 50
0.000000
 51
48.189629
  0
CIRCLE
  8
0
  6
CONTINUOUS
 10
255.849533
 20
88.958763
 40
27.500000
  0
ARC
  8
0
  6
CONTINUOUS
 10
255.849533
 20
88.958763
 40
31.750000
 50
7.552697
 51
172.447403
  0
ARC
  8
0
  6
CONTINUOUS
 10
239.099533
 20
47.458763
 40
20.600000
 50
172.447403
 51
270.000000
  0
ARC
  8
0
  6
CONTINUOUS
 10
272.599518
 20
47.458763
 40
20.600000
 50
-90.000000
 51
7.552700
  0
LINE
  8
0
  6
CONTINUOUS
 10
287.324219
 20
93.131920
 11
293.020813
 21
50.166389
  0
LINE
  8
0
  6
CONTINUOUS
 10
218.678131
 20
50.166351
 11
224.374954
 21
93.131859
  0
LINE
  8
0
  6
CONTINUOUS
 10
239.099533
 20
26.858761
 11
272.599518
 21
26.858761
  0
ARC
  8
0
  6
CONTINUOUS
 10
239.099533
 20
47.458763
 40
19.000000
 50
172.447601
 51
270.000000
  0
ARC
  8
0
  6
CONTINUOUS
 10
272.599518
 20
47.458763
 40
19.000000
 50
-90.000000
 51
7.552700
  0
ARC
  8
0
  6
CONTINUOUS
 10
255.849533
 20
88.958763
 40
30.150000
 50
-187.552597
 51
7.552697
  0
LINE
  8
0
  6
CONTINUOUS
 10
220.264328
 20
49.956055
 11
225.961136
 21
92.921577
  0
LINE
  8
0
  6
CONTINUOUS
 10
285.738007
 20
92.921600
 11
291.434814
 21
49.956089
  0
LINE
  8
0
  6
CONTINUOUS
 10
239.099533
 20
28.458759
 11
272.599518
 21
28.458759
  0
LINE
  8
0
  6
CONTINUOUS
 10
245.553131
 20
35.958759
 11
241.392731
 21
35.958759
  0
LINE
  8
0
  6
CONTINUOUS
 10
247.849533
 20
42.927513
 11
247.849533
 21
35.958759
  0
LINE
  8
0
  6
CONTINUOUS
 10
251.849533
 20
45.458763
 11
251.849533
 21
47.958763
  0
LINE
  8
0
  6
CONTINUOUS
 10
259.849518
 20
45.458763
 11
259.849518
 21
47.958763
  0
LINE
  8
0
  6
CONTINUOUS
 10
255.068329
 20
46.490013
 11
255.068329
 21
37.271259
  0
LINE
  8
0
  6
CONTINUOUS
 10
256.568329
 20
46.490013
 11
256.568329
 21
37.271259
  0
LINE
  8
0
  6
CONTINUOUS
 10
264.443329
 20
46.490013
 11
264.443329
 21
37.208759
  0
LINE
  8
0
  6
CONTINUOUS
 10
265.818329
 20
41.568138
 11
265.818329
 21
37.208759
  0
LINE
  8
0
  6
CONTINUOUS
 10
245.951553
 20
46.365013
 11
242.096527
 21
46.365013
  0
LINE
  8
0
  6
CONTINUOUS
 10
242.096527
 20
46.365013
 11
241.193329
 21
45.245018
  0
LINE
  8
0
  6
CONTINUOUS
 10
241.301956
 20
47.958763
 11
239.849533
 21
46.099007
  0
LINE
  8
0
  6
CONTINUOUS
 10
241.193329
 20
38.331699
 11
242.110931
 21
37.365002
  0
LINE
  8
0
  6
CONTINUOUS
 10
239.849533
 20
37.515942
 11
241.392731
 21
35.958759
  0
LINE
  8
0
  6
CONTINUOUS
 10
239.849533
 20
46.099007
 11
239.849533
 21
37.515942
  0
LINE
  8
0
  6
CONTINUOUS
 10
241.193329
 20
45.245018
 11
241.193329
 21
38.331699
  0
LINE
  8
0
  6
CONTINUOUS
 10
246.693329
 20
45.647911
 11
245.936356
 21
46.365013
  0
LINE
  8
0
  6
CONTINUOUS
 10
246.681335
 20
47.958763
 11
247.849533
 21
46.662270
  0
LINE
  8
0
  6
CONTINUOUS
 10
246.693329
 20
45.458763
 11
247.849533
 21
45.458763
  0
LINE
  8
0
  6
CONTINUOUS
 10
241.301956
 20
47.958763
 11
246.681335
 21
47.958763
  0
LINE
  8
0
  6
CONTINUOUS
 10
244.599533
 20
42.927513
 11
247.849533
 21
42.927513
  0
LINE
  8
0
  6
CONTINUOUS
 10
246.693329
 20
41.615017
 11
244.599533
 21
41.615017
  0
LINE
  8
0
  6
CONTINUOUS
 10
244.193329
 20
37.365002
 11
242.110931
 21
37.365002
  0
LINE
  8
0
  6
CONTINUOUS
 10
246.693329
 20
40.365017
 11
246.693329
 21
41.365017
  0
ARC
  8
0
  6
CONTINUOUS
 10
244.193329
 20
39.865009
 40
2.500000
 50
-89.999786
 51
0.000109
  0
LINE
  8
0
  6
CONTINUOUS
 10
246.693329
 20
36.915321
 11
246.693329
 21
35.958759
  0
LINE
  8
0
  6
CONTINUOUS
 10
247.849533
 20
46.662270
 11
247.849533
 21
45.458763
  0
LINE
  8
0
  6
CONTINUOUS
 10
246.693329
 20
41.615017
 11
246.693329
 21
39.865017
  0
LINE
  8
0
  6
CONTINUOUS
 10
244.599533
 20
42.927513
 11
244.599533
 21
41.615017
  0
LINE
  8
0
  6
CONTINUOUS
 10
246.693329
 20
35.958759
 11
247.849533
 21
35.958759
  0
LINE
  8
0
  6
CONTINUOUS
 10
246.693329
 20
36.915321
 11
245.553131
 21
35.958759
  0
LINE
  8
0
  6
CONTINUOUS
 10
256.568329
 20
37.271259
 11
257.068329
 21
37.271259
  0
LINE
  8
0
  6
CONTINUOUS
 10
254.474533
 20
37.271259
 11
254.474533
 21
35.958759
  0
LINE
  8
0
  6
CONTINUOUS
 10
257.068329
 20
37.271259
 11
257.068329
 21
35.958759
  0
LINE
  8
0
  6
CONTINUOUS
 10
259.015137
 20
45.458763
 11
259.849518
 21
45.458763
  0
LINE
  8
0
  6
CONTINUOUS
 10
251.849533
 20
45.458763
 11
252.737534
 21
45.458763
  0
LINE
  8
0
  6
CONTINUOUS
 10
251.849533
 20
47.958763
 11
259.849518
 21
47.958763
  0
LINE
  8
0
  6
CONTINUOUS
 10
254.474533
 20
35.958759
 11
257.068329
 21
35.958759
  0
LINE
  8
0
  6
CONTINUOUS
 10
254.474533
 20
37.271259
 11
255.068329
 21
37.271259
  0
ARC
  8
0
  6
CONTINUOUS
 10
268.646332
 20
44.755638
 40
3.203126
 50
-73.981873
 51
90.003510
  0
ARC
  8
0
  6
CONTINUOUS
 10
268.646332
 20
44.755638
 40
1.954124
 50
-82.585274
 51
62.411850
  0
LINE
  8
0
  6
CONTINUOUS
 10
263.849518
 20
47.958763
 11
268.646332
 21
47.958763
  0
LINE
  8
0
  6
CONTINUOUS
 10
268.898529
 20
42.817848
 11
265.818329
 21
42.817848
  0
LINE
  8
0
  6
CONTINUOUS
 10
263.849518
 20
47.958763
 11
263.849518
 21
46.490013
  0
LINE
  8
0
  6
CONTINUOUS
 10
265.818329
 20
46.490013
 11
265.818329
 21
42.817848
  0
LINE
  8
0
  6
CONTINUOUS
 10
269.530334
 20
41.676872
 11
271.512756
 21
37.208759
  0
LINE
  8
0
  6
CONTINUOUS
 10
268.378754
 20
41.568138
 11
270.254944
 21
37.208759
  0
LINE
  8
0
  6
CONTINUOUS
 10
263.849518
 20
37.208759
 11
264.443329
 21
37.208759
  0
LINE
  8
0
  6
CONTINUOUS
 10
265.818329
 20
37.208759
 11
266.365143
 21
37.208759
  0
LINE
  8
0
  6
CONTINUOUS
 10
266.365143
 20
35.958759
 11
263.849518
 21
35.958759
  0
LINE
  8
0
  6
CONTINUOUS
 10
270.005737
 20
37.208759
 11
270.254944
 21
37.208759
  0
LINE
  8
0
  6
CONTINUOUS
 10
270.005737
 20
35.958759
 11
271.849518
 21
35.958759
  0
LINE
  8
0
  6
CONTINUOUS
 10
270.005737
 20
37.208759
 11
270.005737
 21
35.958759
  0
LINE
  8
0
  6
CONTINUOUS
 10
266.365143
 20
37.208759
 11
266.365143
 21
35.958759
  0
LINE
  8
0
  6
CONTINUOUS
 10
263.849518
 20
37.208759
 11
263.849518
 21
35.958759
  0
LINE
  8
0
  6
CONTINUOUS
 10
253.167328
 20
46.490013
 11
252.737534
 21
45.458763
  0
LINE
  8
0
  6
CONTINUOUS
 10
258.652740
 20
46.490013
 11
259.015137
 21
45.458763
  0
LINE
  8
0
  6
CONTINUOUS
 10
256.568329
 20
46.490013
 11
258.652740
 21
46.490013
  0
LINE
  8
0
  6
CONTINUOUS
 10
255.068329
 20
46.490013
 11
253.167328
 21
46.490013
  0
LINE
  8
0
  6
CONTINUOUS
 10
265.818329
 20
41.568138
 11
268.378754
 21
41.568138
  0
LINE
  8
0
  6
CONTINUOUS
 10
263.849518
 20
46.490013
 11
264.443329
 21
46.490013
  0
LINE
  8
0
  6
CONTINUOUS
 10
265.818329
 20
46.490013
 11
269.551331
 21
46.487587
  0
LINE
  8
0
  6
CONTINUOUS
 10
246.693329
 20
45.647911
 11
246.693329
 21
45.458763
  0
ARC
  8
0
  6
CONTINUOUS
 10
235.849533
 20
93.319458
 40
30.000000
 50
131.810394
 51
180.000000
  0
ARC
  8
0
  6
CONTINUOUS
 10
235.849533
 20
48.598072
 40
30.000000
 50
180.000000
 51
228.189697
  0
LINE
  8
0
  6
CONTINUOUS
 10
191.099548
 20
115.708740
 11
198.849457
 21
115.708740
  0
LINE
  8
0
  6
CONTINUOUS
 10
196.663910
 20
1.208740
 11
191.099548
 21
1.208740
  0
LINE
  8
0
  6
CONTINUOUS
 10
197.646332
 20
105.958740
 11
191.099548
 21
105.958740
  0
LINE
  8
0
  6
CONTINUOUS
 10
191.099548
 20
10.958740
 11
198.849457
 21
10.958740
  0
LINE
  8
0
  6
CONTINUOUS
 10
197.646332
 20
90.418777
 11
191.099548
 21
90.418777
  0
LINE
  8
0
  6
CONTINUOUS
 10
197.646332
 20
26.498779
 11
191.099548
 21
26.498779
  0
LINE
  8
0
  6
CENTER
 10
202.202576
 20
130.958755
 11
219.499527
 21
130.958755
  0
LINE
  8
0
  6
CENTER
 10
292.287201
 20
130.958755
 11
316.868408
 21
130.958755
  0
LINE
  8
0
  6
CENTER
 10
201.056488
 20
10.958740
 11
219.668137
 21
10.958740
  0
LINE
  8
0
  6
CENTER
 10
291.724609
 20
10.958740
 11
316.530823
 21
10.958740
  0
LINE
  8
0
  6
CENTER
 10
300.849609
 20
140.118164
 11
300.849609
 21
121.977501
  0
LINE
  8
0
  6
CENTER
 10
210.849457
 20
139.865036
 11
210.849457
 21
122.399361
  0
LINE
  8
0
  6
CENTER
 10
210.849457
 20
20.136860
 11
210.849457
 21
-6.272480
  0
LINE
  8
0
  6
CENTER
 10
300.849609
 20
20.305639
 11
300.849609
 21
-5.597500
  0
CIRCLE
  8
0
  6
CONTINUOUS
 10
300.849609
 20
130.958755
 40
5.500000
  0
CIRCLE
  8
0
  6
CONTINUOUS
 10
210.849457
 20
130.958755
 40
5.500000
  0
CIRCLE
  8
0
  6
CONTINUOUS
 10
210.849457
 20
10.958740
 40
5.500000
  0
CIRCLE
  8
0
  6
CONTINUOUS
 10
300.849609
 20
10.958740
 40
5.500000
  0
ARC
  8
0
  6
CONTINUOUS
 10
300.849609
 20
130.958755
 40
12.000000
 50
0.000000
 51
90.000000
  0
ARC
  8
0
  6
CONTINUOUS
 10
210.849457
 20
130.958755
 40
12.000000
 50
90.000000
 51
180.000000
  0
ARC
  8
0
  6
CONTINUOUS
 10
210.849457
 20
10.958740
 40
12.000000
 50
180.000000
 51
270.000000
  0
ARC
  8
0
  6
CONTINUOUS
 10
300.849609
 20
10.958740
 40
12.000000
 50
-90.000000
 51
0.000000
  0
LINE
  8
0
  6
CONTINUOUS
 10
300.849609
 20
142.958755
 11
210.849457
 21
142.958755
  0
LINE
  8
0
  6
CONTINUOUS
 10
210.849533
 20
-1.041260
 11
300.849609
 21
-1.041260
  0
LINE
  8
0
  6
CONTINUOUS
 10
312.849609
 20
130.958755
 11
312.849609
 21
10.958740
  0
LINE
  8
0
  6
CONTINUOUS
 10
198.849457
 20
130.958725
 11
198.849457
 21
10.958720
  0
LINE
  8
0
  6
CONTINUOUS
 10
283.849609
 20
3.958740
 11
227.849533
 21
3.958740
  0
LINE
  8
0
  6
CONTINUOUS
 10
227.849533
 20
137.958755
 11
283.849609
 21
137.958755
  0
LINE
  8
0
  6
CONTINUOUS
 10
307.849609
 20
113.958740
 11
307.849609
 21
27.958759
  0
LINE
  8
0
  6
CONTINUOUS
 10
203.849457
 20
113.958740
 11
203.849457
 21
27.958759
  0
ARC
  8
0
  6
CONTINUOUS
 10
300.849609
 20
130.958755
 40
11.000000
 50
180.000000
 51
270.000000
  0
ARC
  8
0
  6
CONTINUOUS
 10
210.849457
 20
130.958755
 40
11.000000
 50
-90.000000
 51
0.000000
  0
ARC
  8
0
  6
CONTINUOUS
 10
210.849457
 20
10.958740
 40
11.000000
 50
0.000000
 51
90.000000
  0
ARC
  8
0
  6
CONTINUOUS
 10
300.849609
 20
10.958740
 40
11.000000
 50
90.000000
 51
180.000000
  0
LINE
  8
0
  6
CONTINUOUS
 10
209.849457
 20
21.958740
 11
210.849457
 21
21.958740
  0
LINE
  8
0
  6
CONTINUOUS
 10
221.849533
 20
9.958740
 11
221.849533
 21
10.958740
  0
ARC
  8
0
  6
CONTINUOUS
 10
209.849457
 20
27.958759
 40
6.000000
 50
180.000000
 51
270.000000
  0
ARC
  8
0
  6
CONTINUOUS
 10
227.849533
 20
9.958740
 40
6.000000
 50
180.000000
 51
270.000000
  0
LINE
  8
0
  6
CONTINUOUS
 10
301.849609
 20
21.958740
 11
300.849609
 21
21.958740
  0
LINE
  8
0
  6
CONTINUOUS
 10
289.849609
 20
9.958740
 11
289.849609
 21
10.958720
  0
ARC
  8
0
  6
CONTINUOUS
 10
301.849609
 20
27.958759
 40
6.000000
 50
-90.000000
 51
0.000000
  0
ARC
  8
0
  6
CONTINUOUS
 10
283.849609
 20
9.958740
 40
6.000000
 50
-90.000000
 51
0.000000
  0
LINE
  8
0
  6
CONTINUOUS
 10
301.849609
 20
119.958740
 11
300.849609
 21
119.958740
  0
LINE
  8
0
  6
CONTINUOUS
 10
289.849609
 20
131.958755
 11
289.849609
 21
130.958725
  0
ARC
  8
0
  6
CONTINUOUS
 10
283.849609
 20
131.958755
 40
6.000000
 50
0.000000
 51
90.000000
  0
ARC
  8
0
  6
CONTINUOUS
 10
301.849609
 20
113.958740
 40
6.000000
 50
0.000000
 51
90.000000
  0
LINE
  8
0
  6
CONTINUOUS
 10
209.849457
 20
119.958740
 11
210.849457
 21
119.958740
  0
LINE
  8
0
  6
CONTINUOUS
 10
221.849533
 20
131.958755
 11
221.849533
 21
130.958755
  0
ARC
  8
0
  6
CONTINUOUS
 10
227.849533
 20
131.958817
 40
6.000000
 50
90.000000
 51
180.000000
  0
ARC
  8
0
  6
CONTINUOUS
 10
209.849487
 20
113.958801
 40
6.000000
 50
90.000000
 51
180.000000
  0
LINE
  8
0
  6
CONTINUOUS
 10
197.661667
 20
2.142240
 11
198.212112
 21
10.398660
  0
ARC
  8
0
  6
CONTINUOUS
 10
198.810806
 20
10.358760
 40
0.600000
 50
90.000000
 51
176.186096
  0
ARC
  8
0
  6
CONTINUOUS
 10
196.663910
 20
2.208740
 40
1.000000
 50
270.000000
 51
356.185791
  0
ARC
  8
0
  6
CONTINUOUS
 10
275.849609
 20
48.598087
 40
30.000000
 50
-48.189449
 51
0.000000
  0
LINE
  8
0
  6
CONTINUOUS
 10
263.349518
 20
85.958763
 11
263.349518
 21
91.958740
  0
LINE
  8
0
  6
CONTINUOUS
 10
269.349518
 20
85.958717
 11
269.349518
 21
91.958717
  0
LINE
  8
0
  6
CONTINUOUS
 10
269.349518
 20
85.958717
 11
263.349518
 21
85.958763
  0
LINE
  8
0
  6
CONTINUOUS
 10
269.349518
 20
91.958717
 11
263.349518
 21
91.958740
  0
ARC
  8
0
  6
CONTINUOUS
 10
255.849533
 20
88.958763
 40
11.000000
 50
-344.173401
 51
-15.826600
  0
LINE
  8
0
  6
CONTINUOUS
 10
191.099548
 20
115.958763
 11
191.099548
 21
0.958760
  0
LINE
  8
0
  6
CENTER
 10
478.843353
 20
-18.587460
 11
478.843353
 21
152.156723
  0
LINE
  8
0
  6
CENTER
 10
406.876770
 20
58.458759
 11
545.103149
 21
58.458759
  0
LINE
  8
0
  6
CENTER
 10
375.843567
 20
88.958763
 11
536.517334
 21
88.958763
  0
LINE
  8
0
  6
CONTINUOUS
 10
420.843567
 20
77.958763
 11
420.843567
 21
-1.041260
  0
LINE
  8
0
  6
CONTINUOUS
 10
432.843567
 20
119.208740
 11
432.843567
 21
140.958755
  0
LINE
  8
0
  6
CONTINUOUS
 10
430.925354
 20
142.958755
 11
420.843567
 21
142.958755
  0
LINE
  8
0
  6
CONTINUOUS
 10
430.925354
 20
-1.041220
 11
420.843567
 21
-1.041220
  0
LINE
  8
0
  6
CONTINUOUS
 10
510.843353
 20
9.441440
 11
510.843353
 21
132.476074
  0
LINE
  8
0
  6
CONTINUOUS
 10
509.861176
 20
133.475937
 11
434.808746
 21
134.785645
  0
LINE
  8
0
  6
CONTINUOUS
 10
509.861176
 20
8.441620
 11
434.808746
 21
7.131300
  0
LINE
  8
0
  6
CONTINUOUS
 10
437.400146
 20
110.958740
 11
509.776154
 21
110.958740
  0
LINE
  8
0
  6
CONTINUOUS
 10
434.752563
 20
30.958759
 11
509.453156
 21
30.958759
  0
LINE
  8
0
  6
CONTINUOUS
 10
433.340149
 20
0.811740
 11
434.449371
 21
4.951580
  0
LINE
  8
0
  6
CONTINUOUS
 10
433.340149
 20
141.105835
 11
434.449554
 21
136.965317
  0
ARC
  8
0
  6
CONTINUOUS
 10
437.347351
 20
137.741837
 40
3.000000
 50
195.000702
 51
269.000488
  0
ARC
  8
0
  6
CONTINUOUS
 10
430.843567
 20
140.958755
 40
2.000000
 50
0.000000
 51
90.000000
  0
ARC
  8
0
  6
CONTINUOUS
 10
434.843567
 20
136.785355
 40
2.000000
 50
180.000000
 51
269.000610
  0
ARC
  8
0
  6
CONTINUOUS
 10
437.347168
 20
4.175140
 40
3.000000
 50
91.000526
 51
165.000305
  0
ARC
  8
0
  6
CONTINUOUS
 10
434.843567
 20
5.131620
 40
2.000000
 50
91.000633
 51
180.000000
  0
ARC
  8
0
  6
CONTINUOUS
 10
430.843567
 20
0.958780
 40
2.000000
 50
-90.000000
 51
0.000000
  0
ARC
  8
0
  6
CONTINUOUS
 10
509.843353
 20
132.476074
 40
1.000000
 50
0.000000
 51
89.000359
  0
ARC
  8
0
  6
CONTINUOUS
 10
509.843353
 20
9.441440
 40
1.000000
 50
-88.999573
 51
0.000000
  0
LINE
  8
0
  6
CENTER
 10
415.349762
 20
130.958755
 11
437.986359
 21
130.958755
  0
LINE
  8
0
  6
CENTER
 10
415.349762
 20
10.958740
 11
437.986359
 21
10.958740
  0
LINE
  8
0
  6
DASHED
 10
420.843567
 20
136.458755
 11
432.843567
 21
136.458755
  0
LINE
  8
0
  6
DASHED
 10
420.843567
 20
125.458763
 11
432.843567
 21
125.458763
  0
LINE
  8
0
  6
DASHED
 10
420.843567
 20
16.458740
 11
432.843567
 21
16.458740
  0
LINE
  8
0
  6
DASHED
 10
420.843567
 20
5.458740
 11
432.843567
 21
5.458740
  0
LINE
  8
0
  6
CONTINUOUS
 10
526.843384
 20
63.765911
 11
526.843384
 21
114.151604
  0
LINE
  8
0
  6
CONTINUOUS
 10
516.843384
 20
30.763599
 11
516.843384
 21
91.028740
  0
LINE
  8
0
  6
CONTINUOUS
 10
524.613770
 20
117.051041
 11
513.073547
 21
120.116440
  0
LINE
  8
0
  6
CONTINUOUS
 10
524.613770
 20
60.866463
 11
519.073181
 21
59.394802
  0
LINE
  8
0
  6
CONTINUOUS
 10
514.616577
 20
27.864920
 11
513.070557
 21
27.452620
  0
ARC
  8
0
  6
CONTINUOUS
 10
523.843384
 20
114.151604
 40
3.000000
 50
0.000000
 51
75.124413
  0
ARC
  8
0
  6
CONTINUOUS
 10
523.843384
 20
63.765911
 40
3.000000
 50
-75.124207
 51
0.000000
  0
ARC
  8
0
  6
CONTINUOUS
 10
513.843384
 20
30.763599
 40
3.000000
 50
-75.068420
 51
0.000000
  0
ARC
  8
0
  6
CONTINUOUS
 10
513.843384
 20
123.015923
 40
3.000000
 50
180.000000
 51
255.124603
  0
ARC
  8
0
  6
CONTINUOUS
 10
519.843384
 20
56.495365
 40
3.000000
 50
104.876099
 51
180.000000
  0
ARC
  8
0
  6
CONTINUOUS
 10
513.843384
 20
24.553921
 40
3.000000
 50
104.931801
 51
180.000000
  0
LINE
  8
0
  6
CONTINUOUS
 10
526.343384
 20
15.958740
 11
526.343384
 21
25.010099
  0
LINE
  8
0
  6
CONTINUOUS
 10
521.343384
 20
10.958740
 11
512.292358
 21
10.958740
  0
ARC
  8
0
  6
CONTINUOUS
 10
478.843353
 20
58.458759
 40
57.250000
 50
-32.501888
 51
33.025517
  0
ARC
  8
0
  6
CONTINUOUS
 10
478.843353
 20
58.458759
 40
57.250000
 50
243.004898
 51
298.995514
  0
ARC
  8
0
  6
CONTINUOUS
 10
521.343384
 20
15.958740
 40
5.000000
 50
-90.000000
 51
0.000000
  0
ARC
  8
0
  6
CONTINUOUS
 10
531.343384
 20
25.010099
 40
5.000000
 50
147.498093
 51
180.000000
  0
ARC
  8
0
  6
CONTINUOUS
 10
512.292358
 20
5.958740
 40
5.000000
 50
90.000000
 51
106.842003
  0
LINE
  8
0
  6
CONTINUOUS
 10
430.843567
 20
63.765907
 11
430.843567
 21
114.151604
  0
LINE
  8
0
  6
CONTINUOUS
 10
433.073547
 20
60.866451
 11
435.874756
 21
60.122368
  0
LINE
  8
0
  6
CONTINUOUS
 10
433.073547
 20
117.051041
 11
434.897156
 21
117.535477
  0
ARC
  8
0
  6
CONTINUOUS
 10
433.843750
 20
114.151604
 40
3.000000
 50
104.876099
 51
180.000000
  0
ARC
  8
0
  6
CONTINUOUS
 10
433.843567
 20
63.765926
 40
3.000000
 50
180.000000
 51
255.124603
  0
LINE
  8
0
  6
CONTINUOUS
 10
438.343567
 20
108.708740
 11
439.843567
 21
102.458740
  0
LINE
  8
0
  6
CONTINUOUS
 10
439.843567
 20
102.458740
 11
438.843567
 21
96.958740
  0
LINE
  8
0
  6
CONTINUOUS
 10
438.843567
 20
96.958740
 11
441.093567
 21
91.208740
  0
LINE
  8
0
  6
CONTINUOUS
 10
441.093567
 20
91.208740
 11
439.343567
 21
85.458763
  0
LINE
  8
0
  6
CONTINUOUS
 10
439.343567
 20
85.458763
 11
437.343567
 21
80.458763
  0
LINE
  8
0
  6
CONTINUOUS
 10
437.343567
 20
80.458763
 11
437.843567
 21
71.708763
  0
LINE
  8
0
  6
CONTINUOUS
 10
437.843567
 20
71.708763
 11
436.593567
 21
67.208763
  0
LINE
  8
0
  6
CONTINUOUS
 10
436.593567
 20
67.208763
 11
436.593567
 21
62.458759
  0
LINE
  8
0
  6
CONTINUOUS
 10
436.593567
 20
62.458759
 11
434.593567
 21
55.958759
  0
LINE
  8
0
  6
CONTINUOUS
 10
434.593567
 20
55.958759
 11
434.843567
 21
51.958759
  0
LINE
  8
0
  6
CONTINUOUS
 10
434.843567
 20
51.958759
 11
433.843567
 21
47.583759
  0
LINE
  8
0
  6
CONTINUOUS
 10
433.843567
 20
47.583759
 11
430.343567
 21
44.958759
  0
LINE
  8
0
  6
CONTINUOUS
 10
430.343567
 20
44.958759
 11
427.718567
 21
41.708763
  0
LINE
  8
0
  6
CONTINUOUS
 10
427.718567
 20
41.708763
 11
424.843567
 21
39.958763
  0
LINE
  8
0
  6
CONTINUOUS
 10
424.843567
 20
39.958763
 11
422.468567
 21
37.833759
  0
LINE
  8
0
  6
CONTINUOUS
 10
422.468567
 20
37.833759
 11
420.843567
 21
37.462341
  0
LINE
  8
0
  6
CONTINUOUS
 10
430.718567
 20
120.833740
 11
427.218567
 21
121.708740
  0
LINE
  8
0
  6
CONTINUOUS
 10
427.218567
 20
121.708740
 11
423.843567
 21
122.333740
  0
LINE
  8
0
  6
CONTINUOUS
 10
423.843567
 20
122.333740
 11
420.843567
 21
123.333763
  0
LINE
  8
0
  6
CONTINUOUS
 10
420.843567
 20
142.958755
 11
420.843567
 21
99.958740
  0
LINE
  8
0
  6
CONTINUOUS
 10
432.843567
 20
0.958780
 11
432.843567
 21
46.833759
  0
LINE
  8
0
  6
CONTINUOUS
 10
430.718567
 20
120.833740
 11
432.843567
 21
119.208740
  0
LINE
  8
0
  6
CONTINUOUS
 10
432.843567
 20
119.208740
 11
436.218567
 21
116.458740
  0
LINE
  8
0
  6
CONTINUOUS
 10
436.218567
 20
116.458740
 11
436.718567
 21
112.583740
  0
LINE
  8
0
  6
CONTINUOUS
 10
436.718567
 20
112.583740
 11
438.343567
 21
108.708740
  0
LINE
  8
0
  6
CONTINUOUS
 10
427.843567
 20
77.958763
 11
427.843567
 21
41.863522
  0
LINE
  8
0
  6
CONTINUOUS
 10
427.843567
 20
121.552521
 11
427.843567
 21
99.958740
  0
LINE
  8
0
  6
CONTINUOUS
 10
388.843750
 20
77.958763
 11
388.843750
 21
99.958740
  0
LINE
  8
0
  6
CONTINUOUS
 10
428.843750
 20
99.958740
 11
388.843750
 21
99.958740
  0
LINE
  8
0
  6
CONTINUOUS
 10
428.843750
 20
77.958763
 11
388.843750
 21
77.958763
  0
LINE
  8
0
  6
CONTINUOUS
 10
428.843750
 20
101.458740
 11
428.843750
 21
76.458763
  0
LINE
  8
0
  6
CONTINUOUS
 10
430.843750
 20
101.458740
 11
428.843750
 21
101.458740
  0
LINE
  8
0
  6
CONTINUOUS
 10
430.843750
 20
76.458763
 11
428.843750
 21
76.458763
  0
ARC
  8
0
  6
CONTINUOUS
 10
420.843750
 20
88.958763
 40
3.000000
 50
-90.000000
 51
90.000000
  0
LINE
  8
0
  6
CONTINUOUS
 10
420.843750
 20
91.958740
 11
388.843750
 21
91.958740
  0
LINE
  8
0
  6
CONTINUOUS
 10
420.843750
 20
85.958763
 11
388.843750
 21
85.958763
  0
ARC
  8
0
  6
CONTINUOUS
 10
430.925354
 20
140.458755
 40
2.500000
 50
15.000760
 51
90.000000
  0
ARC
  8
0
  6
CONTINUOUS
 10
430.925354
 20
1.458780
 40
2.500000
 50
270.000000
 51
345.000214
  0
ARC
  8
0
  6
CONTINUOUS
 10
478.843353
 20
58.458759
 40
57.499821
 50
303.815704
 51
303.996307
  0
ARC
  8
0
  6
CONTINUOUS
 10
478.843353
 20
58.458759
 40
57.500000
 50
242.540298
 51
299.460602
  0
ARC
  8
0
  6
CONTINUOUS
 10
478.843353
 20
58.458759
 40
57.500000
 50
-33.996769
 51
33.406792
  0
ARC
  8
0
  6
CONTINUOUS
 10
478.843353
 20
58.458759
 40
57.500000
 50
303.815613
 51
303.997314
  0
LINE
  8
0
  6
CONTINUOUS
 10
202.311234
 20
330.673035
 11
202.108521
 21
322.933746
  0
ARC
  8
0
  6
CONTINUOUS
 10
203.810715
 20
330.633759
 40
1.500000
 50
90.000000
 51
178.499649
  0
ARC
  8
0
  6
CONTINUOUS
 10
199.849533
 20
253.133759
 40
1.000000
 50
90.000000
 51
180.000000
  0
ARC
  8
0
  6
CONTINUOUS
 10
199.330566
 20
255.065262
 40
1.000000
 50
285.039185
 51
358.499664
  0
LINE
  8
0
  6
CENTER
 10
255.849533
 20
359.109070
 11
255.849533
 21
199.909805
  0
LINE
  8
0
  6
CONTINUOUS
 10
230.656693
 20
348.133759
 11
281.042389
 21
348.133759
  0
LINE
  8
0
  6
CONTINUOUS
 10
286.005768
 20
338.133759
 11
289.292633
 21
338.133759
  0
ARC
  8
0
  6
CONTINUOUS
 10
281.042389
 20
345.133759
 40
3.000000
 50
-345.124329
 51
-270.000000
  0
LINE
  8
0
  6
CONTINUOUS
 10
292.192078
 20
335.903931
 11
292.601227
 21
334.363586
  0
ARC
  8
0
  6
CONTINUOUS
 10
289.292633
 20
335.133759
 40
3.000000
 50
-345.124329
 51
-270.000000
  0
ARC
  8
0
  6
CONTINUOUS
 10
295.500702
 20
335.133759
 40
3.000000
 50
-165.124313
 51
-90.000000
  0
LINE
  8
0
  6
CONTINUOUS
 10
286.005768
 20
338.133759
 11
283.941833
 21
345.903931
  0
LINE
  8
0
  6
CONTINUOUS
 10
219.506989
 20
335.903931
 11
219.097824
 21
334.363586
  0
ARC
  8
0
  6
CONTINUOUS
 10
222.406433
 20
335.133759
 40
3.000000
 50
90.000000
 51
165.124313
  0
ARC
  8
0
  6
CONTINUOUS
 10
216.198380
 20
335.133759
 40
3.000000
 50
-90.000000
 51
-14.875682
  0
LINE
  8
0
  6
CONTINUOUS
 10
225.693283
 20
338.133759
 11
222.406433
 21
338.133759
  0
ARC
  8
0
  6
CONTINUOUS
 10
230.656693
 20
345.133759
 40
3.000000
 50
90.000000
 51
165.124313
  0
LINE
  8
0
  6
CONTINUOUS
 10
225.693283
 20
338.133759
 11
227.757233
 21
345.903931
  0
LINE
  8
0
  6
CONTINUOUS
 10
244.849533
 20
210.133759
 11
269.349518
 21
210.133759
  0
LINE
  8
0
  6
CONTINUOUS
 10
244.849533
 20
242.133759
 11
244.849533
 21
210.133759
  0
LINE
  8
0
  6
CONTINUOUS
 10
269.349518
 20
242.133759
 11
269.349518
 21
210.133759
  0
LINE
  8
0
  6
CONTINUOUS
 10
266.432526
 20
210.133759
 11
266.432526
 21
242.133759
  0
ARC
  8
0
  6
CONTINUOUS
 10
140.665115
 20
301.727448
 40
65.000000
 50
-22.042076
 51
19.041388
  0
LINE
  8
0
  6
CONTINUOUS
 10
200.914169
 20
277.333771
 11
200.330231
 21
255.039078
  0
LINE
  8
0
  6
CONTINUOUS
 10
25.099531
 20
9.458780
 11
25.099531
 21
85.458763
  0
LINE
  8
0
  6
CONTINUOUS
 10
25.099531
 20
85.458740
 11
139.099533
 21
85.458740
  0
LINE
  8
0
  6
CONTINUOUS
 10
25.099531
 20
9.458780
 11
139.099533
 21
9.458780
  0
LINE
  8
0
  6
CONTINUOUS
 10
25.099531
 20
77.707741
 11
131.099533
 21
77.707741
  0
LINE
  8
0
  6
CONTINUOUS
 10
25.099531
 20
17.209780
 11
131.099533
 21
17.209780
  0
LINE
  8
0
  6
CONTINUOUS
 10
131.099533
 20
83.458740
 11
131.099533
 21
11.458760
  0
ARC
  8
0
  6
CONTINUOUS
 10
133.099533
 20
83.458763
 40
2.000000
 50
90.000000
 51
180.000000
  0
ARC
  8
0
  6
CONTINUOUS
 10
133.099533
 20
11.458780
 40
2.000000
 50
180.000000
 51
270.000000
  0
LINE
  8
0
  6
CONTINUOUS
 10
4.599531
 20
15.458760
 11
4.599531
 21
79.458763
  0
LINE
  8
0
  6
CONTINUOUS
 10
8.563611
 20
85.458763
 11
25.099531
 21
85.458763
  0
LINE
  8
0
  6
CONTINUOUS
 10
8.563627
 20
9.458760
 11
25.099531
 21
9.458760
  0
LINE
  8
0
  6
CONTINUOUS
 10
5.099531
 20
12.458760
 11
5.099531
 21
82.458763
  0
LINE
  8
0
  6
CONTINUOUS
 10
4.599531
 20
79.458763
 11
5.099531
 21
79.958763
  0
LINE
  8
0
  6
CONTINUOUS
 10
4.599531
 20
15.458760
 11
5.099531
 21
14.958760
  0
LINE
  8
0
  6
CONTINUOUS
 10
5.965544
 20
83.958740
 11
5.099531
 21
82.458763
  0
ARC
  8
0
  6
CONTINUOUS
 10
8.563627
 20
82.458778
 40
3.000000
 50
90.000000
 51
150.000397
  0
LINE
  8
0
  6
CONTINUOUS
 10
5.965544
 20
10.958780
 11
5.099531
 21
12.458760
  0
ARC
  8
0
  6
CONTINUOUS
 10
8.563627
 20
12.458760
 40
3.000000
 50
-150.000397
 51
-90.000000
  0
LINE
  8
0
  6
CONTINUOUS
 10
6.681165
 20
77.707771
 11
25.099531
 21
77.707771
  0
LINE
  8
0
  6
CONTINUOUS
 10
25.099531
 20
17.209761
 11
6.681165
 21
17.209761
  0
LINE
  8
0
  6
CONTINUOUS
 10
25.599531
 20
86.958763
 11
25.599531
 21
85.458763
  0
LINE
  8
0
  6
CONTINUOUS
 10
18.599531
 20
86.958763
 11
18.599531
 21
85.458763
  0
LINE
  8
0
  6
CONTINUOUS
 10
18.599531
 20
86.958763
 11
25.599531
 21
86.958763
  0
LINE
  8
0
  6
CONTINUOUS
 10
22.999525
 20
99.958763
 11
22.999525
 21
86.958763
  0
LINE
  8
0
  6
CONTINUOUS
 10
21.199537
 20
100.583763
 11
21.199537
 21
86.958763
  0
LINE
  8
0
  6
CONTINUOUS
 10
19.399519
 20
98.521263
 11
19.399519
 21
86.958763
  0
LINE
  8
0
  6
CONTINUOUS
 10
24.799532
 20
99.333763
 11
24.799532
 21
86.958763
  0
LINE
  8
0
  6
CONTINUOUS
 10
21.199537
 20
100.583763
 11
22.999525
 21
99.958763
  0
LINE
  8
0
  6
CONTINUOUS
 10
19.399519
 20
98.521263
 11
21.199537
 21
99.146263
  0
LINE
  8
0
  6
CONTINUOUS
 10
24.799532
 20
99.333763
 11
23.000530
 21
98.886063
  0
LINE
  8
0
  6
CONTINUOUS
 10
180.686783
 20
86.911018
 11
139.099533
 21
85.458763
  0
LINE
  8
0
  6
CONTINUOUS
 10
191.099533
 20
7.642880
 11
139.099533
 21
9.458760
  0
LINE
  8
0
  6
CONTINUOUS
 10
183.099533
 20
114.958763
 11
183.099533
 21
87.958763
  0
LINE
  8
0
  6
CONTINUOUS
 10
184.099533
 20
115.958763
 11
191.099548
 21
115.958763
  0
LINE
  8
0
  6
CONTINUOUS
 10
185.599533
 20
0.958760
 11
191.099533
 21
0.958760
  0
LINE
  8
0
  6
CONTINUOUS
 10
183.099533
 20
88.458763
 11
183.099533
 21
17.546104
  0
LINE
  8
0
  6
CONTINUOUS
 10
139.099533
 20
85.458763
 11
139.099533
 21
9.458760
  0
LINE
  8
0
  6
CONTINUOUS
 10
181.686401
 20
98.776566
 11
155.742981
 21
86.252151
  0
ARC
  8
0
  6
CONTINUOUS
 10
184.099533
 20
114.958763
 40
1.000000
 50
90.000000
 51
180.000000
  0
ARC
  8
0
  6
CONTINUOUS
 10
180.599533
 20
101.027939
 40
2.500000
 50
-64.230675
 51
0.000000
  0
ARC
  8
0
  6
CONTINUOUS
 10
180.599533
 20
89.409492
 40
2.500000
 50
-88.000000
 51
0.000000
  0
ARC
  8
0
  6
CONTINUOUS
 10
154.656097
 20
88.503532
 40
2.500000
 50
272.000000
 51
295.769318
  0
LINE
  8
0
  6
CONTINUOUS
 10
184.224609
 20
15.304760
 11
191.099533
 21
15.304760
  0
LINE
  8
0
  6
CONTINUOUS
 10
183.099533
 20
3.458760
 11
183.099533
 21
5.508024
  0
ARC
  8
0
  6
CONTINUOUS
 10
185.599533
 20
3.458760
 40
2.500000
 50
180.000000
 51
270.000000
  0
ARC
  8
0
  6
CONTINUOUS
 10
180.599533
 20
5.508024
 40
2.500000
 50
0.000000
 51
88.000000
  0
LINE
  8
0
  6
CENTER
 10
-7.475469
 20
47.458759
 11
223.849533
 21
47.458759
  0
LINE
  8
0
  6
CONTINUOUS
 10
185.599533
 20
242.633759
 11
191.099533
 21
242.633759
  0
LINE
  8
0
  6
CONTINUOUS
 10
185.599533
 20
357.633759
 11
191.099533
 21
357.633759
  0
LINE
  8
0
  6
CONTINUOUS
 10
183.099533
 20
245.133759
 11
183.099533
 21
355.133759
  0
LINE
  8
0
  6
CONTINUOUS
 10
139.099533
 20
338.133759
 11
139.099533
 21
262.133759
  0
LINE
  8
0
  6
CONTINUOUS
 10
180.686783
 20
339.586029
 11
139.099533
 21
338.133759
  0
LINE
  8
0
  6
CONTINUOUS
 10
180.686783
 20
260.681488
 11
139.099533
 21
262.133759
  0
ARC
  8
0
  6
CONTINUOUS
 10
185.599533
 20
355.133759
 40
2.500000
 50
90.000000
 51
180.000000
  0
ARC
  8
0
  6
CONTINUOUS
 10
185.599533
 20
245.133759
 40
2.500000
 50
180.000000
 51
270.000000
  0
LINE
  8
0
  6
CONTINUOUS
 10
139.099533
 20
338.133759
 11
139.099533
 21
262.133759
  0
LINE
  8
0
  6
CONTINUOUS
 10
25.099653
 20
262.133789
 11
25.099653
 21
293.267731
  0
LINE
  8
0
  6
CONTINUOUS
 10
25.099653
 20
338.133728
 11
139.099655
 21
338.133728
  0
LINE
  8
0
  6
CONTINUOUS
 10
25.099653
 20
262.133789
 11
139.099655
 21
262.133789
  0
LINE
  8
0
  6
CONTINUOUS
 10
131.099655
 20
336.133728
 11
131.099655
 21
323.133759
  0
ARC
  8
0
  6
CONTINUOUS
 10
133.099655
 20
336.133759
 40
2.000000
 50
90.000000
 51
180.000000
  0
ARC
  8
0
  6
CONTINUOUS
 10
133.099655
 20
264.133789
 40
2.000000
 50
180.000000
 51
270.000000
  0
LINE
  8
0
  6
CONTINUOUS
 10
4.599653
 20
268.133759
 11
4.599653
 21
332.133759
  0
LINE
  8
0
  6
CONTINUOUS
 10
8.563733
 20
338.133759
 11
25.099653
 21
338.133759
  0
LINE
  8
0
  6
CONTINUOUS
 10
8.563753
 20
262.133759
 11
25.099653
 21
262.133759
  0
LINE
  8
0
  6
CONTINUOUS
 10
5.099653
 20
265.133759
 11
5.099653
 21
335.133759
  0
LINE
  8
0
  6
CONTINUOUS
 10
4.599653
 20
332.133759
 11
5.099653
 21
332.633759
  0
LINE
  8
0
  6
CONTINUOUS
 10
4.599653
 20
268.133759
 11
5.099653
 21
267.633759
  0
LINE
  8
0
  6
CONTINUOUS
 10
5.965673
 20
336.633728
 11
5.099653
 21
335.133759
  0
ARC
  8
0
  6
CONTINUOUS
 10
8.563753
 20
335.133789
 40
3.000000
 50
90.000000
 51
150.000397
  0
LINE
  8
0
  6
CONTINUOUS
 10
5.965673
 20
263.633789
 11
5.099653
 21
265.133759
  0
ARC
  8
0
  6
CONTINUOUS
 10
8.563753
 20
265.133759
 40
3.000000
 50
-150.000397
 51
-90.000000
  0
LINE
  8
0
  6
CONTINUOUS
 10
25.099653
 20
323.133759
 11
131.099655
 21
323.133759
  0
LINE
  8
0
  6
CONTINUOUS
 10
25.099653
 20
323.133759
 11
6.681283
 21
323.133759
  0
LINE
  8
0
  6
CONTINUOUS
 10
25.099653
 20
277.133759
 11
131.099655
 21
277.133759
  0
LINE
  8
0
  6
CONTINUOUS
 10
25.099653
 20
277.133759
 11
6.681283
 21
277.133759
  0
LINE
  8
0
  6
CONTINUOUS
 10
131.099655
 20
277.133759
 11
131.099655
 21
264.133759
  0
LINE
  8
0
  6
CONTINUOUS
 10
18.599653
 20
294.133759
 11
18.599653
 21
306.133759
  0
LINE
  8
0
  6
CONTINUOUS
 10
25.599653
 20
294.133759
 11
25.599653
 21
306.133759
  0
LINE
  8
0
  6
CONTINUOUS
 10
19.599653
 20
307.133759
 11
24.599653
 21
307.133759
  0
LINE
  8
0
  6
CONTINUOUS
 10
24.599653
 20
293.133759
 11
19.599653
 21
293.133759
  0
ARC
  8
0
  6
CONTINUOUS
 10
24.599653
 20
306.133759
 40
1.000000
 50
0.000000
 51
90.000000
  0
ARC
  8
0
  6
CONTINUOUS
 10
19.599653
 20
306.133759
 40
1.000000
 50
90.000000
 51
180.000000
  0
ARC
  8
0
  6
CONTINUOUS
 10
19.599653
 20
294.133759
 40
1.000000
 50
180.000000
 51
270.000000
  0
ARC
  8
0
  6
CONTINUOUS
 10
24.599653
 20
294.133759
 40
1.000000
 50
-90.000000
 51
0.000000
  0
LINE
  8
0
  6
CONTINUOUS
 10
23.099653
 20
296.633759
 11
23.099653
 21
303.633759
  0
LINE
  8
0
  6
CONTINUOUS
 10
21.099653
 20
296.633759
 11
21.099653
 21
303.633759
  0
ARC
  8
0
  6
CONTINUOUS
 10
22.099653
 20
303.633759
 40
1.000000
 50
90.000000
 51
180.000000
  0
ARC
  8
0
  6
CONTINUOUS
 10
22.099653
 20
303.633759
 40
1.000000
 50
0.000000
 51
90.000000
  0
ARC
  8
0
  6
CONTINUOUS
 10
22.099653
 20
296.633759
 40
1.000000
 50
180.000000
 51
270.000000
  0
ARC
  8
0
  6
CONTINUOUS
 10
22.099653
 20
296.633759
 40
1.000000
 50
-90.000000
 51
0.000000
  0
LINE
  8
0
  6
CONTINUOUS
 10
25.099653
 20
306.999786
 11
25.099653
 21
338.133759
  0
ARC
  8
0
  6
CONTINUOUS
 10
170.269165
 20
300.133759
 40
15.000000
 50
130.747620
 51
229.252380
  0
LINE
  8
0
  6
CONTINUOUS
 10
182.231354
 20
330.239746
 11
160.478241
 21
311.497650
  0
LINE
  8
0
  6
CONTINUOUS
 10
182.231354
 20
270.027771
 11
160.478241
 21
288.769867
  0
ARC
  8
0
  6
CONTINUOUS
 10
180.599533
 20
332.133728
 40
2.500000
 50
-49.252373
 51
0.000000
  0
ARC
  8
0
  6
CONTINUOUS
 10
180.599533
 20
342.084503
 40
2.500000
 50
-88.000000
 51
0.000000
  0
ARC
  8
0
  6
CONTINUOUS
 10
180.599533
 20
268.133789
 40
2.500000
 50
0.000000
 51
49.252373
  0
ARC
  8
0
  6
CONTINUOUS
 10
180.599533
 20
258.183014
 40
2.500000
 50
0.000000
 51
88.000000
  0
LINE
  8
0
  6
CENTER
 10
210.849457
 20
258.658752
 11
210.849457
 21
238.030624
  0
LINE
  8
0
  6
DASHED
 10
216.349457
 20
254.133759
 11
216.349457
 21
242.133759
  0
LINE
  8
0
  6
DASHED
 10
205.349457
 20
254.133759
 11
205.349457
 21
242.133759
  0
LINE
  8
0
  6
DASHED
 10
295.349609
 20
254.133759
 11
295.349609
 21
242.133759
  0
LINE
  8
0
  6
CENTER
 10
300.849609
 20
258.658752
 11
300.849609
 21
238.030624
  0
LINE
  8
0
  6
DASHED
 10
306.349609
 20
254.133759
 11
306.349609
 21
242.133759
  0
LINE
  8
0
  6
CONTINUOUS
 10
139.099533
 20
38.058762
 11
183.099533
 21
38.058762
  0
LINE
  8
0
  6
CONTINUOUS
 10
139.099533
 20
27.858761
 11
183.099533
 21
27.858761
  0
TEXT
  8
0
 10
-11.000000
 20
-18.000000
 40
4.000000
 41
1.000000
  1
HFM-22R-300~900-S25
 50
0.000000
  0
ENDSEC
  0
EOF
